  0
SECTION
  2
HEADER
  9
$ACADVER
  1
AC1015
  9
$ACADMAINTVER
 70
     6
  9
$DWGCODEPAGE
  3
ANSI_932
  9
$INSBASE
 10
0.0
 20
0.0
 30
0.0
  9
$EXTMIN
 10
-1807.623923999999
 20
-1311.243178
 30
-0.00000001
  9
$EXTMAX
 10
228.1457979999999
 20
-418.0072739999998
 30
0.00000001
  9
$LIMMIN
 10
-841.0
 20
-594.0
  9
$LIMMAX
 10
841.0
 20
594.0
  9
$ORTHOMODE
 70
     1
  9
$REGENMODE
 70
     1
  9
$FILLMODE
 70
     1
  9
$QTEXTMODE
 70
     0
  9
$MIRRTEXT
 70
     0
  9
$LTSCALE
 40
7.0
  9
$ATTMODE
 70
     1
  9
$TEXTSIZE
 40
3.2
  9
$TRACEWID
 40
1.0
  9
$TEXTSTYLE
  7
DIMFONT
  9
$CLAYER
  8
0
  9
$CELTYPE
  6
ByLayer
  9
$CECOLOR
 62
   256
  9
$CELTSCALE
 40
1.0
  9
$DISPSILH
 70
     0
  9
$DIMSCALE
 40
4.0
  9
$DIMASZ
 40
3.0
  9
$DIMEXO
 40
0.0
  9
$DIMDLI
 40
10.0
  9
$DIMRND
 40
0.0
  9
$DIMDLE
 40
0.0
  9
$DIMEXE
 40
1.0
  9
$DIMTP
 40
0.0
  9
$DIMTM
 40
0.0
  9
$DIMTXT
 40
3.2
  9
$DIMCEN
 40
0.0
  9
$DIMTSZ
 40
0.0
  9
$DIMTOL
 70
     0
  9
$DIMLIM
 70
     0
  9
$DIMTIH
 70
     0
  9
$DIMTOH
 70
     0
  9
$DIMSE1
 70
     0
  9
$DIMSE2
 70
     0
  9
$DIMTAD
 70
     3
  9
$DIMZIN
 70
     8
  9
$DIMBLK
  1

  9
$DIMASO
 70
     1
  9
$DIMSHO
 70
     1
  9
$DIMPOST
  1

  9
$DIMAPOST
  1

  9
$DIMALT
 70
     0
  9
$DIMALTD
 70
     2
  9
$DIMALTF
 40
25.4
  9
$DIMLFAC
 40
1.0
  9
$DIMTOFL
 70
     1
  9
$DIMTVP
 40
0.0
  9
$DIMTIX
 70
     0
  9
$DIMSOXD
 70
     0
  9
$DIMSAH
 70
     1
  9
$DIMBLK1
  1
OPEN
  9
$DIMBLK2
  1
OPEN
  9
$DIMSTYLE
  2
1_4
  9
$DIMCLRD
 70
     0
  9
$DIMCLRE
 70
     0
  9
$DIMCLRT
 70
     0
  9
$DIMTFAC
 40
0.75
  9
$DIMGAP
 40
1.0
  9
$DIMJUST
 70
     0
  9
$DIMSD1
 70
     0
  9
$DIMSD2
 70
     0
  9
$DIMTOLJ
 70
     1
  9
$DIMTZIN
 70
     8
  9
$DIMALTZ
 70
     0
  9
$DIMALTTZ
 70
     0
  9
$DIMUPT
 70
     0
  9
$DIMDEC
 70
     4
  9
$DIMTDEC
 70
     4
  9
$DIMALTU
 70
     2
  9
$DIMALTTD
 70
     2
  9
$DIMTXSTY
  7
DIMFONT
  9
$DIMAUNIT
 70
     0
  9
$DIMADEC
 70
     2
  9
$DIMALTRND
 40
0.0
  9
$DIMAZIN
 70
     2
  9
$DIMDSEP
 70
    46
  9
$DIMATFIT
 70
     1
  9
$DIMFRAC
 70
     0
  9
$DIMLDRBLK
  1

  9
$DIMLUNIT
 70
     2
  9
$DIMLWD
 70
    -2
  9
$DIMLWE
 70
    -2
  9
$DIMTMOVE
 70
     0
  9
$LUNITS
 70
     2
  9
$LUPREC
 70
     4
  9
$SKETCHINC
 40
1.0
  9
$FILLETRAD
 40
0.0
  9
$AUNITS
 70
     0
  9
$AUPREC
 70
     4
  9
$MENU
  1
acad
  9
$ELEVATION
 40
0.0
  9
$PELEVATION
 40
0.0
  9
$THICKNESS
 40
0.0
  9
$LIMCHECK
 70
     0
  9
$CHAMFERA
 40
0.0
  9
$CHAMFERB
 40
0.0
  9
$CHAMFERC
 40
0.0
  9
$CHAMFERD
 40
0.0
  9
$SKPOLY
 70
     0
  9
$TDCREATE
 40
2453365.400981978
  9
$TDUCREATE
 40
2453365.025981979
  9
$TDUPDATE
 40
2453634.669179502
  9
$TDUUPDATE
 40
2453634.294179502
  9
$TDINDWG
 40
0.3200878704
  9
$TDUSRTIMER
 40
0.3200878704
  9
$USRTIMER
 70
     1
  9
$ANGBASE
 50
0.0
  9
$ANGDIR
 70
     0
  9
$PDMODE
 70
    35
  9
$PDSIZE
 40
0.5
  9
$PLINEWID
 40
0.0
  9
$SPLFRAME
 70
     0
  9
$SPLINETYPE
 70
     6
  9
$SPLINESEGS
 70
     8
  9
$HANDSEED
  5
9B73
  9
$SURFTAB1
 70
     6
  9
$SURFTAB2
 70
     6
  9
$SURFTYPE
 70
     6
  9
$SURFU
 70
     6
  9
$SURFV
 70
     6
  9
$UCSBASE
  2

  9
$UCSNAME
  2

  9
$UCSORG
 10
0.0
 20
0.0
 30
0.0
  9
$UCSXDIR
 10
1.0
 20
0.0
 30
0.0
  9
$UCSYDIR
 10
0.0
 20
1.0
 30
0.0
  9
$UCSORTHOREF
  2

  9
$UCSORTHOVIEW
 70
     0
  9
$UCSORGTOP
 10
0.0
 20
0.0
 30
0.0
  9
$UCSORGBOTTOM
 10
0.0
 20
0.0
 30
0.0
  9
$UCSORGLEFT
 10
0.0
 20
0.0
 30
0.0
  9
$UCSORGRIGHT
 10
0.0
 20
0.0
 30
0.0
  9
$UCSORGFRONT
 10
0.0
 20
0.0
 30
0.0
  9
$UCSORGBACK
 10
0.0
 20
0.0
 30
0.0
  9
$PUCSBASE
  2

  9
$PUCSNAME
  2

  9
$PUCSORG
 10
0.0
 20
0.0
 30
0.0
  9
$PUCSXDIR
 10
1.0
 20
0.0
 30
0.0
  9
$PUCSYDIR
 10
0.0
 20
1.0
 30
0.0
  9
$PUCSORTHOREF
  2

  9
$PUCSORTHOVIEW
 70
     0
  9
$PUCSORGTOP
 10
0.0
 20
0.0
 30
0.0
  9
$PUCSORGBOTTOM
 10
0.0
 20
0.0
 30
0.0
  9
$PUCSORGLEFT
 10
0.0
 20
0.0
 30
0.0
  9
$PUCSORGRIGHT
 10
0.0
 20
0.0
 30
0.0
  9
$PUCSORGFRONT
 10
0.0
 20
0.0
 30
0.0
  9
$PUCSORGBACK
 10
0.0
 20
0.0
 30
0.0
  9
$USERI1
 70
     0
  9
$USERI2
 70
     0
  9
$USERI3
 70
     0
  9
$USERI4
 70
     0
  9
$USERI5
 70
     0
  9
$USERR1
 40
0.0
  9
$USERR2
 40
0.0
  9
$USERR3
 40
0.0
  9
$USERR4
 40
0.0
  9
$USERR5
 40
0.0
  9
$WORLDVIEW
 70
     1
  9
$SHADEDGE
 70
     3
  9
$SHADEDIF
 70
    70
  9
$TILEMODE
 70
     1
  9
$MAXACTVP
 70
    48
  9
$PINSBASE
 10
0.0
 20
0.0
 30
0.0
  9
$PLIMCHECK
 70
     0
  9
$PEXTMIN
 10
-0.0451288823862797
 20
-0.0110595613249416
 30
-0.0015258207003583
  9
$PEXTMAX
 10
594.0181296485397
 20
420.0128192851031
 30
0.0000000349246037
  9
$PLIMMIN
 10
-0.027002
 20
-0.030288
  9
$PLIMMAX
 10
593.927183
 20
419.94639
  9
$UNITMODE
 70
     0
  9
$VISRETAIN
 70
     0
  9
$PLINEGEN
 70
     1
  9
$PSLTSCALE
 70
     1
  9
$TREEDEPTH
 70
  3020
  9
$CMLSTYLE
  2
STANDARD
  9
$CMLJUST
 70
     0
  9
$CMLSCALE
 40
20.0
  9
$PROXYGRAPHICS
 70
     1
  9
$MEASUREMENT
 70
     1
  9
$CELWEIGHT
370
    -1
  9
$ENDCAPS
280
     0
  9
$JOINSTYLE
280
     0
  9
$LWDISPLAY
290
     0
  9
$INSUNITS
 70
     0
  9
$HYPERLINKBASE
  1

  9
$STYLESHEET
  1

  9
$XEDIT
290
     1
  9
$CEPSNTYPE
380
     0
  9
$PSTYLEMODE
290
     1
  9
$FINGERPRINTGUID
  2
{7FD28A7C-F8BA-11D3-9BCC-00A0C977751D}
  9
$VERSIONGUID
  2
{0674E629-BA2D-4686-A08F-42A4FF004E4D}
  9
$EXTNAMES
290
     1
  9
$PSVPSCALE
 40
0.0
  9
$OLESTARTUP
290
     0
  0
ENDSEC
  0
SECTION
  2
CLASSES
  0
CLASS
  1
LWPOLYLINE
  2
AcDbPolyline
  3
AutoCAD 2000
 90
    32768
280
     0
281
     1
  0
CLASS
  1
ACDBDICTIONARYWDFLT
  2
AcDbDictionaryWithDefault
  3
AutoCAD 2000
 90
        0
280
     0
281
     0
  0
CLASS
  1
ACDBPLACEHOLDER
  2
AcDbPlaceHolder
  3
AutoCAD 2000
 90
        0
280
     0
281
     0
  0
CLASS
  1
LAYOUT
  2
AcDbLayout
  3
AutoCAD 2000
 90
        0
280
     0
281
     0
  0
CLASS
  1
PLOTSETTINGS
  2
AcDbPlotSettings
  3
AutoCAD 2000
 90
        0
280
     0
281
     0
  0
CLASS
  1
RASTERVARIABLES
  2
AcDbRasterVariables
  3
ISM
 90
        0
280
     0
281
     0
  0
CLASS
  1
DICTIONARYVAR
  2
AcDbDictionaryVar
  3
AutoCAD 2000
 90
        0
280
     0
281
     0
  0
CLASS
  1
IMAGE
  2
AcDbRasterImage
  3
ISM
 90
    32895
280
     0
281
     1
  0
CLASS
  1
OLE2FRAME
  2
AcDbOle2Frame
  3
AutoCAD 2000
 90
    32768
280
     0
281
     1
  0
CLASS
  1
HATCH
  2
AcDbHatch
  3
AutoCAD 2000
 90
    32768
280
     0
281
     1
  0
CLASS
  1
IMAGEDEF
  2
AcDbRasterImageDef
  3
ISM
 90
    32768
280
     0
281
     0
  0
CLASS
  1
IMAGEDEF_REACTOR
  2
AcDbRasterImageDefReactor
  3
ISM
 90
    32769
280
     0
281
     0
  0
CLASS
  1
IDBUFFER
  2
AcDbIdBuffer
  3
AutoCAD 2000
 90
    32768
280
     0
281
     0
  0
CLASS
  1
SPATIAL_FILTER
  2
AcDbSpatialFilter
  3
AutoCAD 2000
 90
    32768
280
     0
281
     0
  0
CLASS
  1
XRECORD
  2
AcDbXrecord
  3
AutoCAD 2000
 90
    32768
280
     0
281
     0
  0
CLASS
  1
SORTENTSTABLE
  2
AcDbSortentsTable
  3
AutoCAD 2000
 90
    32768
280
     0
281
     0
  0
CLASS
  1
LAYER_INDEX
  2
AcDbLayerIndex
  3
AutoCAD 2000
 90
    32768
280
     0
281
     0
  0
CLASS
  1
SPATIAL_INDEX
  2
AcDbSpatialIndex
  3
AutoCAD 2000
 90
    32768
280
     0
281
     0
  0
CLASS
  1
OBJECT_PTR
  2
CAseDLPNTableRecord
  3
"ASE-LPNTableRecord"
 90
    32769
280
     0
281
     0
  0
CLASS
  1
VBA_PROJECT
  2
AcDbVbaProject
  3
"acadvba"
 90
    32769
280
     0
281
     0
  0
CLASS
  1
WIPEOUT
  2
AcDbWipeout
  3
WipeOut|AutoCAD Express Tool|expresstools@autodesk.com
 90
    32895
280
     0
281
     1
  0
CLASS
  1
WIPEOUTVARIABLES
  2
AcDbWipeoutVariables
  3
WipeOut|AutoCAD Express Tool|expresstools@autodesk.com
 90
    32768
280
     0
281
     0
  0
CLASS
  1
RTEXT
  2
RText
  3
RText|AutoCAD Express Tool|expresstools@autodesk.com
 90
    32768
280
     0
281
     1
  0
CLASS
  1
ARCALIGNEDTEXT
  2
AcDbArcAlignedText
  3
ATEXT|AutoCAD Express Tool|expresstools@autodesk.com
 90
    32768
280
     0
281
     1
  0
ENDSEC
  0
SECTION
  2
TABLES
  0
TABLE
  2
VPORT
  5
8
330
0
100
AcDbSymbolTable
 70
     2
  0
VPORT
  5
9B72
330
8
100
AcDbSymbolTableRecord
100
AcDbViewportTableRecord
  2
*Active
 70
     0
 10
0.0
 20
0.0
 11
1.0
 21
1.0
 12
-789.7370954259608
 22
-864.6094841446934
 13
0.0
 23
0.0
 14
5.0
 24
5.0
 15
10.0
 25
10.0
 16
0.0
 26
0.0
 36
1.0
 17
0.0
 27
0.0
 37
0.0
 40
1282.582997931476
 41
1.593716143011917
 42
50.0
 43
0.0
 44
0.0
 50
0.0
 51
0.0
 71
     0
 72
   100
 73
     1
 74
     0
 75
     0
 76
     0
 77
     0
 78
     0
281
     0
 65
     1
110
0.0
120
0.0
130
0.0
111
1.0
121
0.0
131
0.0
112
0.0
122
1.0
132
0.0
 79
     0
146
0.0
  0
ENDTAB
  0
TABLE
  2
LTYPE
  5
5
330
0
100
AcDbSymbolTable
 70
     5
  0
LTYPE
  5
12
330
5
100
AcDbSymbolTableRecord
100
AcDbLinetypeTableRecord
  2
ByBlock
 70
     0
  3

 72
    65
 73
     0
 40
0.0
  0
LTYPE
  5
13
330
5
100
AcDbSymbolTableRecord
100
AcDbLinetypeTableRecord
  2
ByLayer
 70
     0
  3

 72
    65
 73
     0
 40
0.0
  0
LTYPE
  5
14
330
5
100
AcDbSymbolTableRecord
100
AcDbLinetypeTableRecord
  2
CONTINUOUS
 70
     0
  3
Solid line
 72
    65
 73
     0
 40
0.0
  0
ENDTAB
  0
TABLE
  2
LAYER
  5
2
330
0
100
AcDbSymbolTable
 70
    14
  0
LAYER
  5
E
330
2
100
AcDbSymbolTableRecord
100
AcDbLayerTableRecord
  2
0
 70
     0
 62
     7
  6
CONTINUOUS
370
    -3
390
1AC
  0
LAYER
  5
133
330
2
100
AcDbSymbolTableRecord
100
AcDbLayerTableRecord
  2
DEFPOINTS
 70
     0
 62
     7
  6
CONTINUOUS
290
     0
370
    -3
390
1AC
  0
ENDTAB
  0
TABLE
  2
STYLE
  5
3
330
0
100
AcDbSymbolTable
 70
     3
  0
STYLE
  5
F
330
3
100
AcDbSymbolTableRecord
100
AcDbTextStyleTableRecord
  2
STANDARD
 70
     0
 40
0.0
 41
1.0
 50
0.0
 71
     0
 42
2.5
  3
txt
  4

  0
STYLE
  5
30
330
3
100
AcDbSymbolTableRecord
100
AcDbTextStyleTableRecord
  2
DIMFONT
 70
     0
 40
0.0
 41
1.0
 50
10.0
 71
     0
 42
3.2
  3
romans.shx
  4
extfont.shx
  0
STYLE
  5
C38
330
3
100
AcDbSymbolTableRecord
100
AcDbTextStyleTableRecord
  2
RCEXFONT
 70
     0
 40
0.0
 41
1.0
 50
0.0
 71
     0
 42
3.2
  3
romanc.shx
  4
extfont.shx
  0
ENDTAB
  0
TABLE
  2
VIEW
  5
6
330
0
100
AcDbSymbolTable
 70
     5
  0
VIEW
  5
C27
330
6
100
AcDbSymbolTableRecord
100
AcDbViewTableRecord
  2
View1
 70
     0
 40
1250.0
 10
0.0
 20
0.0
 41
2066.420664
 11
0.0
 21
0.0
 31
1.0
 12
0.0
 22
0.0
 32
0.0
 42
50.0
 43
0.0
 44
0.0
 50
0.0
 71
     0
281
     0
 72
     1
110
0.0
120
0.0
130
0.0
111
1.0
121
0.0
131
0.0
112
0.0
122
1.0
132
0.0
 79
     0
146
0.0
  0
VIEW
  5
C2A
330
6
100
AcDbSymbolTableRecord
100
AcDbViewTableRecord
  2
A4
 70
     0
 40
314.214893
 10
103.822243
 20
144.519751
 41
519.4401179999998
 11
0.0
 21
0.0
 31
1.0
 12
0.0
 22
0.0
 32
0.0
 42
50.0
 43
0.0
 44
0.0
 50
0.0
 71
     0
281
     1
 72
     1
110
0.0
120
0.0
130
0.0
111
1.0
121
0.0
131
0.0
112
0.0
122
1.0
132
0.0
 79
     0
146
0.0
  0
VIEW
  5
C2B
330
6
100
AcDbSymbolTableRecord
100
AcDbViewTableRecord
  2
A3
 70
     0
 40
314.214893
 10
205.819492
 20
151.3197509999999
 41
519.4401179999998
 11
0.0
 21
0.0
 31
1.0
 12
0.0
 22
0.0
 32
0.0
 42
50.0
 43
0.0
 44
0.0
 50
0.0
 71
     0
281
     1
 72
     1
110
0.0
120
0.0
130
0.0
111
1.0
121
0.0
131
0.0
112
0.0
122
1.0
132
0.0
 79
     0
146
0.0
  0
VIEW
  5
C2C
330
6
100
AcDbSymbolTableRecord
100
AcDbViewTableRecord
  2
A2
 70
     0
 40
444.348344
 10
293.3145019999999
 20
213.319492
 41
734.56848
 11
0.0
 21
0.0
 31
1.0
 12
0.0
 22
0.0
 32
0.0
 42
50.0
 43
0.0
 44
0.0
 50
0.0
 71
     0
281
     1
 72
     1
110
0.0
120
0.0
130
0.0
111
1.0
121
0.0
131
0.0
112
0.0
122
1.0
132
0.0
 79
     0
146
0.0
  0
VIEW
  5
C2D
330
6
100
AcDbSymbolTableRecord
100
AcDbViewTableRecord
  2
A1
 70
     0
 40
628.2954049999998
 10
422.5084999999998
 20
293.438495
 41
1038.658087
 11
0.0
 21
0.0
 31
1.0
 12
0.0
 22
0.0
 32
0.0
 42
50.0
 43
0.0
 44
0.0
 50
0.0
 71
     0
281
     1
 72
     1
110
0.0
120
0.0
130
0.0
111
1.0
121
0.0
131
0.0
112
0.0
122
1.0
132
0.0
 79
     0
146
0.0
  0
ENDTAB
  0
TABLE
  2
UCS
  5
7
330
0
100
AcDbSymbolTable
 70
     0
  0
ENDTAB
  0
TABLE
  2
APPID
  5
9
330
0
100
AcDbSymbolTable
 70
     1
  0
APPID
  5
10
330
9
100
AcDbSymbolTableRecord
100
AcDbRegAppTableRecord
  2
ACAD
 70
     0
  0
ENDTAB
  0
TABLE
  2
DIMSTYLE
  5
A
330
0
100
AcDbSymbolTable
 70
     3
100
AcDbDimStyleTable
 71
     0
  0
DIMSTYLE
105
4E
102
{ACAD_REACTORS
330
9713
330
94A6
330
8E2D
330
94CF
330
8904
330
97BB
330
8919
330
8A1A
330
916B
330
93D7
330
9392
330
934A
330
9371
330
9364
330
8DAF
330
9736
330
93F6
102
}
330
A
100
AcDbSymbolTableRecord
100
AcDbDimStyleTableRecord
  2
1_4
 70
     0
 40
4.0
 41
3.0
 42
0.0
 43
10.0
 44
1.0
 73
     0
 74
     0
 77
     3
 78
     8
 79
     2
140
3.2
141
0.0
146
0.75
147
1.0
172
     1
173
     1
179
     2
284
     8
340
30
341
125
343
125
344
125
  0
DIMSTYLE
105
C39
330
A
100
AcDbSymbolTableRecord
100
AcDbDimStyleTableRecord
  2
STANDARD
 70
     0
340
F
  0
ENDTAB
  0
TABLE
  2
BLOCK_RECORD
  5
1
330
0
100
AcDbSymbolTable
 70
    40
  0
BLOCK_RECORD
  5
18
330
1
100
AcDbSymbolTableRecord
100
AcDbBlockTableRecord
  2
*MODEL_SPACE
340
1AF
  0
BLOCK_RECORD
  5
15
330
1
100
AcDbSymbolTableRecord
100
AcDbBlockTableRecord
  2
*PAPER_SPACE
340
1B0
  0
BLOCK_RECORD
  5
125
330
1
100
AcDbSymbolTableRecord
100
AcDbBlockTableRecord
  2
_OPEN
340
0
102
{BLKREFS
331
93E7
331
93E8
331
96EF
331
96F0
331
8F3C
331
8F3D
331
97DD
331
97DE
331
94E9
331
94EA
331
918E
331
918F
331
9440
331
9441
331
9418
331
9419
331
9478
331
9479
331
942E
331
942F
331
9437
331
9438
331
940F
331
9410
331
94C9
331
94CA
331
96DD
331
96DE
331
974F
331
9750
331
97FC
331
97FD
331
9829
331
982A
331
9835
331
9836
331
9842
331
9843
331
984E
331
984F
331
985A
331
985B
331
9866
331
9867
331
9872
331
9873
331
987E
331
987F
331
988A
331
988B
331
9896
331
9897
331
98A2
331
98A3
331
98AE
331
98AF
331
98BB
331
98BC
331
98C7
331
98C8
331
98D3
331
98D4
331
98DF
331
98E0
331
9904
331
9905
331
990D
331
990E
331
9917
331
9918
331
9920
331
9921
331
993D
331
993E
331
9946
331
9947
331
994F
331
9950
331
9958
331
9959
331
9961
331
9962
331
996A
331
996B
331
9974
331
9975
331
997E
331
997F
331
9987
331
9988
331
9990
331
9991
331
9999
331
999A
331
99A2
331
99A3
331
99AB
331
99AC
331
99B4
331
99B5
331
99BD
331
99BE
331
99C6
331
99C7
331
99CF
331
99D0
331
99D8
331
99D9
331
99E1
331
99E2
331
99EA
331
99EB
331
99F3
331
99F4
331
99FC
331
99FD
331
9A06
331
9A07
331
9A10
331
9A11
331
9A19
331
9A1A
331
9A22
331
9A23
331
9A2B
331
9A2C
331
9A34
331
9A35
331
9A3D
331
9A3E
331
9A46
331
9A47
331
9A4F
331
9A50
331
9A58
331
9A59
102
}
  0
ENDTAB
  0
ENDSEC
  0
SECTION
  2
BLOCKS
  0
BLOCK
  5
19
330
18
100
AcDbEntity
  8
0
100
AcDbBlockBegin
  2
*MODEL_SPACE
 70
     0
 10
0.0
 20
0.0
 30
0.0
  3
*MODEL_SPACE
  1

  0
ENDBLK
  5
1A
330
18
100
AcDbEntity
  8
0
100
AcDbBlockEnd
  0
BLOCK
  5
16
330
15
100
AcDbEntity
 67
     1
  8
0
100
AcDbBlockBegin
  2
*PAPER_SPACE
 70
     0
 10
0.0
 20
0.0
 30
0.0
  3
*PAPER_SPACE
  1

  0
ENDBLK
  5
17
330
15
100
AcDbEntity
 67
     1
  8
0
100
AcDbBlockEnd
  0
BLOCK
  5
126
330
125
100
AcDbEntity
  8
0
100
AcDbBlockBegin
  2
_OPEN
 70
     0
 10
0.0
 20
0.0
 30
0.0
  3
_OPEN
  1

  0
LINE
  5
127
330
125
100
AcDbEntity
  8
0
  6
ByBlock
 62
     0
100
AcDbLine
 10
-1.0
 20
0.166667
 30
0.0
 11
0.0
 21
0.0
 31
0.0
  0
LINE
  5
128
330
125
100
AcDbEntity
  8
0
  6
ByBlock
 62
     0
100
AcDbLine
 10
0.0
 20
0.0
 30
0.0
 11
-1.0
 21
-0.166667
 31
0.0
  0
LINE
  5
129
330
125
100
AcDbEntity
  8
0
  6
ByBlock
 62
     0
100
AcDbLine
 10
0.0
 20
0.0
 30
0.0
 11
-1.0
 21
0.0
 31
0.0
  0
ENDBLK
  5
12A
330
125
100
AcDbEntity
  8
0
100
AcDbBlockEnd
  0
ENDSEC
  0
SECTION
  2
ENTITIES
  0
LINE
  5
88BB
330
18
100
AcDbEntity
  8
0
100
AcDbLine
 10
176.8457979999999
 20
-966.243178
 30
0.0
 11
226.8457979999999
 21
-966.243178
 31
0.0
  0
LINE
  5
88BC
330
18
100
AcDbEntity
  8
0
100
AcDbLine
 10
176.8457979999999
 20
-964.2431779999999
 30
0.0
 11
226.8457979999999
 21
-964.2431779999999
 31
0.0
  0
LINE
  5
88BD
330
18
100
AcDbEntity
  8
0
100
AcDbLine
 10
226.8457979999999
 20
-1014.243177999998
 30
0.0
 11
176.8457979999999
 21
-1014.243177999998
 31
0.0
  0
LINE
  5
88BE
330
18
100
AcDbEntity
  8
0
100
AcDbLine
 10
-120.1542019999999
 20
-964.2431779999999
 30
0.0
 11
226.8457979999999
 21
-964.2431779999999
 31
0.0
  0
LINE
  5
88BF
330
18
100
AcDbEntity
  8
0
100
AcDbLine
 10
-121.4542019999999
 20
-963.4431779999999
 30
0.0
 11
228.1457979999999
 21
-963.4431779999999
 31
0.0
  0
LINE
  5
88C0
330
18
100
AcDbEntity
  8
0
100
AcDbLine
 10
-120.654202
 20
-964.2431779999999
 30
0.0
 11
227.3457979999999
 21
-964.2431779999999
 31
0.0
  0
LINE
  5
88C1
330
18
100
AcDbEntity
  8
0
100
AcDbLine
 10
-120.1542019999999
 20
-1311.243178
 30
0.0
 11
226.8457979999999
 21
-1311.243178
 31
0.0
  0
ELLIPSE
  5
88C4
330
18
100
AcDbEntity
  8
0
100
AcDbEllipse
 10
-1445.773924
 20
-1267.893178
 30
0.0
 11
-0.75
 21
0.000000000000034
 31
0.0
210
0.0
220
0.0
230
1.0
 40
0.666667
 41
-1.570796326794865
 42
0.0000000000000679
  0
ELLIPSE
  5
88C5
330
18
100
AcDbEntity
  8
0
100
AcDbEllipse
 10
-1445.773924
 20
-1267.893178
 30
0.0
 11
-0.75
 21
0.000000000000034
 31
0.0
210
0.0
220
0.0
230
1.0
 40
0.666667
 41
-1.570796326794865
 42
0.0000000000000679
  0
ELLIPSE
  5
88C6
330
18
100
AcDbEntity
  8
0
100
AcDbEllipse
 10
-1445.773924
 20
-1275.443178
 30
0.0
 11
-0.75
 21
0.000000000000034
 31
0.0
210
0.0
220
0.0
230
1.0
 40
0.666667
 41
0.0000000000000679
 42
1.570796326794925
  0
ELLIPSE
  5
88C7
330
18
100
AcDbEntity
  8
0
100
AcDbEllipse
 10
-1445.773924
 20
-1275.443178
 30
0.0
 11
-0.75
 21
0.000000000000034
 31
0.0
210
0.0
220
0.0
230
1.0
 40
0.666667
 41
0.0000000000000679
 42
1.570796326794925
  0
ELLIPSE
  5
88C8
330
18
100
AcDbEntity
  8
0
100
AcDbEllipse
 10
-1312.273924
 20
-1282.943178
 30
0.0
 11
-0.75
 21
0.000000000000034
 31
0.0
210
0.0
220
0.0
230
1.0
 40
0.666667
 41
1.570796326794925
 42
3.141592653589875
  0
ELLIPSE
  5
88C9
330
18
100
AcDbEntity
  8
0
100
AcDbEllipse
 10
-1312.273924
 20
-1282.943178
 30
0.0
 11
-0.75
 21
0.000000000000034
 31
0.0
210
0.0
220
0.0
230
1.0
 40
0.666667
 41
1.570796326794925
 42
3.141592653589875
  0
ELLIPSE
  5
88CA
330
18
100
AcDbEntity
  8
0
100
AcDbEllipse
 10
-1312.273924
 20
-991.0431779999999
 30
0.0
 11
-0.75
 21
-0.000000000000034
 31
0.0
210
0.0
220
0.0
230
-1.0
 40
0.666667
 41
1.570796326794925
 42
3.141592653589875
  0
ELLIPSE
  5
88CB
330
18
100
AcDbEntity
  8
0
100
AcDbEllipse
 10
-1312.273924
 20
-991.0431779999999
 30
0.0
 11
-0.75
 21
-0.000000000000034
 31
0.0
210
0.0
220
0.0
230
-1.0
 40
0.666667
 41
1.570796326794925
 42
3.141592653589875
  0
ELLIPSE
  5
88CC
330
18
100
AcDbEntity
  8
0
100
AcDbEllipse
 10
-1445.773924
 20
-998.5431779999997
 30
0.0
 11
-0.75
 21
-0.000000000000034
 31
0.0
210
0.0
220
0.0
230
-1.0
 40
0.666667
 41
0.0000000000000679
 42
1.570796326794925
  0
ELLIPSE
  5
88CD
330
18
100
AcDbEntity
  8
0
100
AcDbEllipse
 10
-1445.773924
 20
-998.5431779999997
 30
0.0
 11
-0.75
 21
-0.000000000000034
 31
0.0
210
0.0
220
0.0
230
-1.0
 40
0.666667
 41
0.0000000000000679
 42
1.570796326794925
  0
ELLIPSE
  5
88CE
330
18
100
AcDbEntity
  8
0
100
AcDbEllipse
 10
-1445.773924
 20
-1006.093178
 30
0.0
 11
-0.75
 21
-0.000000000000034
 31
0.0
210
0.0
220
0.0
230
-1.0
 40
0.666667
 41
-1.570796326794865
 42
0.0000000000000679
  0
ELLIPSE
  5
88CF
330
18
100
AcDbEntity
  8
0
100
AcDbEllipse
 10
-1445.773924
 20
-1006.093178
 30
0.0
 11
-0.75
 21
-0.000000000000034
 31
0.0
210
0.0
220
0.0
230
-1.0
 40
0.666667
 41
-1.570796326794865
 42
0.0000000000000679
  0
LINE
  5
8907
330
18
100
AcDbEntity
  8
0
100
AcDbLine
 10
-1131.023924
 20
-1256.893178
 30
0.0
 11
-1446.523924
 21
-1256.893178
 31
0.0
  0
LINE
  5
8908
330
18
100
AcDbEntity
  8
0
100
AcDbLine
 10
-1131.023924
 20
-1266.893178
 30
0.0
 11
-1455.023924
 21
-1266.893178
 31
0.0
  0
LINE
  5
8909
330
18
100
AcDbEntity
  8
0
100
AcDbLine
 10
-1131.023924
 20
-1007.093178
 30
0.0
 11
-1455.023924
 21
-1007.093178
 31
0.0
  0
LINE
  5
890A
330
18
100
AcDbEntity
  8
0
100
AcDbLine
 10
-1131.023924
 20
-1017.093178
 30
0.0
 11
-1446.523924
 21
-1017.093178
 31
0.0
  0
LINE
  5
890B
330
18
100
AcDbEntity
  8
0
100
AcDbLine
 10
-1131.023924
 20
-1266.893178
 30
0.0
 11
-1456.523924
 21
-1266.893178
 31
0.0
  0
LINE
  5
890C
330
18
100
AcDbEntity
  8
0
100
AcDbLine
 10
-1131.023924
 20
-1007.093178
 30
0.0
 11
-1456.523924
 21
-1007.093178
 31
0.0
  0
LINE
  5
890F
330
18
100
AcDbEntity
  8
0
100
AcDbLine
 10
-1445.773924
 20
-1267.393178
 30
0.0
 11
-1148.023924
 21
-1267.393178
 31
0.0
  0
LINE
  5
8910
330
18
100
AcDbEntity
  8
0
100
AcDbLine
 10
-1445.773924
 20
-1275.943178
 30
0.0
 11
-1147.023924
 21
-1275.943178
 31
0.0
  0
LINE
  5
8911
330
18
100
AcDbEntity
  8
0
100
AcDbLine
 10
-1446.523924
 20
-1268.913178
 30
0.0
 11
-1148.543924
 21
-1268.913178
 31
0.0
  0
LINE
  5
8912
330
18
100
AcDbEntity
  8
0
100
AcDbLine
 10
-1446.523924
 20
-1005.073177999999
 30
0.0
 11
-1148.543924
 21
-1005.073177999999
 31
0.0
  0
LINE
  5
8913
330
18
100
AcDbEntity
  8
0
100
AcDbLine
 10
-1445.773924
 20
-998.0431779999999
 30
0.0
 11
-1147.023924
 21
-998.0431779999999
 31
0.0
  0
LINE
  5
8914
330
18
100
AcDbEntity
  8
0
100
AcDbLine
 10
-1445.773924
 20
-1006.593177999999
 30
0.0
 11
-1148.023924
 21
-1006.593177999999
 31
0.0
  0
LINE
  5
8917
330
18
100
AcDbEntity
  8
0
100
AcDbLine
 10
-1459.323924
 20
-964.2431779999999
 30
0.0
 11
-1806.323923999999
 21
-964.2431779999999
 31
0.0
  0
LINE
  5
8918
330
18
100
AcDbEntity
  8
0
100
AcDbLine
 10
-1459.323924
 20
-1311.243178
 30
0.0
 11
-1806.323923999999
 21
-1311.243178
 31
0.0
  0
LINE
  5
891A
330
18
100
AcDbEntity
  8
0
100
AcDbLine
 10
-1806.323923999999
 20
-964.2431779999999
 30
0.0
 11
-1806.323923999999
 21
-1311.243178
 31
0.0
  0
CIRCLE
  5
891C
330
18
100
AcDbEntity
  8
0
100
AcDbCircle
 10
-1632.823924
 20
-1137.743178
 30
0.0
 40
100.0
  0
CIRCLE
  5
891D
330
18
100
AcDbEntity
  8
0
100
AcDbCircle
 10
-1632.823924
 20
-1137.743178
 30
0.0
 40
75.0
  0
CIRCLE
  5
891E
330
18
100
AcDbEntity
  8
0
100
AcDbCircle
 10
-1632.823924
 20
-1137.743178
 30
0.0
 40
74.0
  0
CIRCLE
  5
891F
330
18
100
AcDbEntity
  8
0
100
AcDbCircle
 10
-1632.823924
 20
-1137.743178
 30
0.0
 40
73.5
  0
CIRCLE
  5
8920
330
18
100
AcDbEntity
  8
0
100
AcDbCircle
 10
-1632.823924
 20
-1137.743178
 30
0.0
 40
73.0
  0
CIRCLE
  5
8921
330
18
100
AcDbEntity
  8
0
100
AcDbCircle
 10
-1632.823924
 20
-1137.743178
 30
0.0
 40
72.5
  0
CIRCLE
  5
8926
330
18
100
AcDbEntity
  8
0
100
AcDbCircle
 10
-1781.323923999999
 20
-1001.743177999999
 30
0.0
 40
4.75
  0
CIRCLE
  5
8927
330
18
100
AcDbEntity
  8
0
100
AcDbCircle
 10
-1781.323923999999
 20
-1001.743177999999
 30
0.0
 40
1.5
  0
LINE
  5
8928
330
18
100
AcDbEntity
  8
0
100
AcDbLine
 10
-1756.323923999999
 20
-964.2431779999999
 30
0.0
 11
-1806.323923999999
 21
-964.2431779999999
 31
0.0
  0
LINE
  5
892A
330
18
100
AcDbEntity
  8
0
100
AcDbLine
 10
-1756.323923999999
 20
-1014.243177999998
 30
0.0
 11
-1806.323923999999
 21
-1014.243177999998
 31
0.0
  0
LINE
  5
892B
330
18
100
AcDbEntity
  8
0
100
AcDbLine
 10
-1806.323923999999
 20
-966.243178
 30
0.0
 11
-1756.323923999999
 21
-966.243178
 31
0.0
  0
LINE
  5
892C
330
18
100
AcDbEntity
  8
0
100
AcDbLine
 10
-1806.323923999999
 20
-964.2431779999999
 30
0.0
 11
-1756.323923999999
 21
-964.2431779999999
 31
0.0
  0
LINE
  5
892E
330
18
100
AcDbEntity
  8
0
100
AcDbLine
 10
-1806.323923999999
 20
-1014.243177999998
 30
0.0
 11
-1806.323923999999
 21
-964.2431779999999
 31
0.0
  0
CIRCLE
  5
8930
330
18
100
AcDbEntity
  8
0
100
AcDbCircle
 10
-1793.823923999999
 20
-976.7431779999999
 30
0.0
 40
4.75
  0
CIRCLE
  5
8931
330
18
100
AcDbEntity
  8
0
100
AcDbCircle
 10
-1793.823923999999
 20
-976.7431779999999
 30
0.0
 40
1.5
  0
LINE
  5
8932
330
18
100
AcDbEntity
  8
0
100
AcDbLine
 10
-1806.323923999999
 20
-1014.243177999998
 30
0.0
 11
-1806.323923999999
 21
-964.2431779999999
 31
0.0
  0
CIRCLE
  5
8934
330
18
100
AcDbEntity
  8
0
100
AcDbCircle
 10
-1768.823923999999
 20
-976.7431779999999
 30
0.0
 40
4.75
  0
CIRCLE
  5
8935
330
18
100
AcDbEntity
  8
0
100
AcDbCircle
 10
-1768.823923999999
 20
-976.7431779999999
 30
0.0
 40
1.5
  0
LINE
  5
8936
330
18
100
AcDbEntity
  8
0
100
AcDbLine
 10
-1756.323923999999
 20
-1014.243177999998
 30
0.0
 11
-1756.323923999999
 21
-964.2431779999999
 31
0.0
  0
LINE
  5
893D
330
18
100
AcDbEntity
  8
0
100
AcDbLine
 10
-1456.523924
 20
-1266.893178
 30
0.0
 11
-1456.523924
 21
-1007.093178
 31
0.0
  0
LINE
  5
893E
330
18
100
AcDbEntity
  8
0
100
AcDbLine
 10
-1456.523924
 20
-1266.893178
 30
0.0
 11
-1456.523924
 21
-1007.093178
 31
0.0
  0
LINE
  5
8940
330
18
100
AcDbEntity
  8
0
100
AcDbLine
 10
-1446.523924
 20
-1256.893178
 30
0.0
 11
-1446.523924
 21
-1017.093178
 31
0.0
  0
LINE
  5
8942
330
18
100
AcDbEntity
  8
0
100
AcDbLine
 10
-1459.323924
 20
-1285.743177999999
 30
0.0
 11
-1459.323924
 21
-969.2431779999999
 31
0.0
  0
LINE
  5
8943
330
18
100
AcDbEntity
  8
0
100
AcDbLine
 10
-1459.323924
 20
-964.2431779999999
 30
0.0
 11
-1459.323924
 21
-1311.243178
 31
0.0
  0
LINE
  5
8945
330
18
100
AcDbEntity
  8
0
100
AcDbLine
 10
-1459.323924
 20
-1276.943178
 30
0.0
 11
-1311.523924
 21
-1276.943178
 31
0.0
  0
LINE
  5
8946
330
18
100
AcDbEntity
  8
0
100
AcDbLine
 10
-1459.323924
 20
-1277.943178
 30
0.0
 11
-1311.523924
 21
-1277.943178
 31
0.0
  0
LINE
  5
8947
330
18
100
AcDbEntity
  8
0
100
AcDbLine
 10
-1459.323924
 20
-1283.443178
 30
0.0
 11
-1312.273924
 21
-1283.443178
 31
0.0
  0
LINE
  5
8949
330
18
100
AcDbEntity
  8
0
100
AcDbLine
 10
-1455.023924
 20
-1265.393178
 30
0.0
 11
-1455.023924
 21
-1266.893178
 31
0.0
  0
LINE
  5
894A
330
18
100
AcDbEntity
  8
0
100
AcDbLine
 10
-1446.523924
 20
-1256.893178
 30
0.0
 11
-1455.023924
 21
-1265.393178
 31
0.0
  0
LINE
  5
894B
330
18
100
AcDbEntity
  8
0
100
AcDbLine
 10
-1456.523924
 20
-1266.893178
 30
0.0
 11
-1446.523924
 21
-1256.893178
 31
0.0
  0
LINE
  5
894C
330
18
100
AcDbEntity
  8
0
100
AcDbLine
 10
-1459.323924
 20
-1275.943178
 30
0.0
 11
-1445.773924
 21
-1275.943178
 31
0.0
  0
LINE
  5
894D
330
18
100
AcDbEntity
  8
0
100
AcDbLine
 10
-1459.323924
 20
-1270.443178
 30
0.0
 11
-1446.523924
 21
-1270.443178
 31
0.0
  0
LINE
  5
894E
330
18
100
AcDbEntity
  8
0
100
AcDbLine
 10
-1446.523924
 20
-1275.443178
 30
0.0
 11
-1446.523924
 21
-1267.893178
 31
0.0
  0
LINE
  5
894F
330
18
100
AcDbEntity
  8
0
100
AcDbLine
 10
-1446.523924
 20
-1267.893178
 30
0.0
 11
-1446.523924
 21
-1275.443178
 31
0.0
  0
LINE
  5
8950
330
18
100
AcDbEntity
  8
0
100
AcDbLine
 10
-1446.523924
 20
-1275.443178
 30
0.0
 11
-1446.523924
 21
-1267.893178
 31
0.0
  0
LINE
  5
8951
330
18
100
AcDbEntity
  8
0
100
AcDbLine
 10
-1446.523924
 20
-1267.893178
 30
0.0
 11
-1446.523924
 21
-1275.443178
 31
0.0
  0
LINE
  5
895B
330
18
100
AcDbEntity
  8
0
100
AcDbLine
 10
-1423.098924
 20
-1266.893178
 30
0.0
 11
-1423.098924
 21
-1267.393178
 31
0.0
  0
LINE
  5
896A
330
18
100
AcDbEntity
  8
0
100
AcDbLine
 10
-1429.948924
 20
-1267.393178
 30
0.0
 11
-1429.948924
 21
-1266.893178
 31
0.0
  0
LINE
  5
8974
330
18
100
AcDbEntity
  8
0
100
AcDbLine
 10
-1423.098924
 20
-1267.393178
 30
0.0
 11
-1429.948924
 21
-1267.393178
 31
0.0
  0
LINE
  5
8978
330
18
100
AcDbEntity
  8
0
100
AcDbLine
 10
-1311.523924
 20
-1282.943178
 30
0.0
 11
-1311.523924
 21
-1276.943178
 31
0.0
  0
LINE
  5
8979
330
18
100
AcDbEntity
  8
0
100
AcDbLine
 10
-1311.523924
 20
-1282.943178
 30
0.0
 11
-1311.523924
 21
-1276.943178
 31
0.0
  0
LINE
  5
897A
330
18
100
AcDbEntity
  8
0
100
AcDbLine
 10
-1316.023924
 20
-1276.943178
 30
0.0
 11
-1316.023924
 21
-1275.943178
 31
0.0
  0
LINE
  5
897B
330
18
100
AcDbEntity
  8
0
100
AcDbLine
 10
-1316.023924
 20
-1276.943178
 30
0.0
 11
-1316.023924
 21
-1275.943178
 31
0.0
  0
LINE
  5
8987
330
18
100
AcDbEntity
  8
0
100
AcDbLine
 10
-1323.523924
 20
-1266.893178
 30
0.0
 11
-1323.098924
 21
-1266.893178
 31
0.0
  0
LINE
  5
8988
330
18
100
AcDbEntity
  8
0
100
AcDbLine
 10
-1323.098924
 20
-1266.893178
 30
0.0
 11
-1323.098924
 21
-1267.393178
 31
0.0
  0
LINE
  5
8999
330
18
100
AcDbEntity
  8
0
100
AcDbLine
 10
-1329.948923999999
 20
-1267.393178
 30
0.0
 11
-1329.948923999999
 21
-1266.893178
 31
0.0
  0
LINE
  5
899F
330
18
100
AcDbEntity
  8
0
100
AcDbLine
 10
-1459.323924
 20
-997.0431779999996
 30
0.0
 11
-1311.523924
 21
-997.0431779999996
 31
0.0
  0
LINE
  5
89A0
330
18
100
AcDbEntity
  8
0
100
AcDbLine
 10
-1459.323924
 20
-990.5431779999997
 30
0.0
 11
-1312.273924
 21
-990.5431779999997
 31
0.0
  0
LINE
  5
89A1
330
18
100
AcDbEntity
  8
0
100
AcDbLine
 10
-1459.323924
 20
-996.0431779999996
 30
0.0
 11
-1311.523924
 21
-996.0431779999996
 31
0.0
  0
LINE
  5
89A5
330
18
100
AcDbEntity
  8
0
100
AcDbLine
 10
-1456.523924
 20
-1007.093178
 30
0.0
 11
-1446.523924
 21
-1017.093178
 31
0.0
  0
LINE
  5
89A6
330
18
100
AcDbEntity
  8
0
100
AcDbLine
 10
-1446.523924
 20
-1017.093178
 30
0.0
 11
-1455.023924
 21
-1008.593177999999
 31
0.0
  0
LINE
  5
89A7
330
18
100
AcDbEntity
  8
0
100
AcDbLine
 10
-1455.023924
 20
-1007.093178
 30
0.0
 11
-1455.023924
 21
-1008.593177999999
 31
0.0
  0
LINE
  5
89A8
330
18
100
AcDbEntity
  8
0
100
AcDbLine
 10
-1459.323924
 20
-1003.543177999999
 30
0.0
 11
-1446.523924
 21
-1003.543177999999
 31
0.0
  0
LINE
  5
89A9
330
18
100
AcDbEntity
  8
0
100
AcDbLine
 10
-1459.323924
 20
-998.0431779999999
 30
0.0
 11
-1445.773924
 21
-998.0431779999999
 31
0.0
  0
LINE
  5
89AA
330
18
100
AcDbEntity
  8
0
100
AcDbLine
 10
-1446.523924
 20
-1006.093178
 30
0.0
 11
-1446.523924
 21
-998.5431779999997
 31
0.0
  0
LINE
  5
89AB
330
18
100
AcDbEntity
  8
0
100
AcDbLine
 10
-1446.523924
 20
-998.5431779999997
 30
0.0
 11
-1446.523924
 21
-1006.093178
 31
0.0
  0
LINE
  5
89AC
330
18
100
AcDbEntity
  8
0
100
AcDbLine
 10
-1446.523924
 20
-1006.093178
 30
0.0
 11
-1446.523924
 21
-998.5431779999997
 31
0.0
  0
LINE
  5
89AD
330
18
100
AcDbEntity
  8
0
100
AcDbLine
 10
-1446.523924
 20
-998.5431779999997
 30
0.0
 11
-1446.523924
 21
-1006.093178
 31
0.0
  0
LINE
  5
89AF
330
18
100
AcDbEntity
  8
0
100
AcDbLine
 10
-1459.323924
 20
-1014.243177999998
 30
0.0
 11
-1459.323924
 21
-964.2431779999999
 31
0.0
  0
LINE
  5
89B1
330
18
100
AcDbEntity
  8
0
100
AcDbLine
 10
-1459.323924
 20
-964.2431779999999
 30
0.0
 11
-1509.323924
 21
-964.2431779999999
 31
0.0
  0
CIRCLE
  5
89B5
330
18
100
AcDbEntity
  8
0
100
AcDbCircle
 10
-1496.823924
 20
-976.7431779999999
 30
0.0
 40
4.75
  0
CIRCLE
  5
89B6
330
18
100
AcDbEntity
  8
0
100
AcDbCircle
 10
-1496.823924
 20
-976.7431779999999
 30
0.0
 40
1.5
  0
CIRCLE
  5
89B7
330
18
100
AcDbEntity
  8
0
100
AcDbCircle
 10
-1471.823924
 20
-976.7431779999999
 30
0.0
 40
4.75
  0
CIRCLE
  5
89B8
330
18
100
AcDbEntity
  8
0
100
AcDbCircle
 10
-1471.823924
 20
-976.7431779999999
 30
0.0
 40
1.5
  0
CIRCLE
  5
89B9
330
18
100
AcDbEntity
  8
0
100
AcDbCircle
 10
-1484.323924
 20
-1001.743177999999
 30
0.0
 40
4.75
  0
CIRCLE
  5
89BA
330
18
100
AcDbEntity
  8
0
100
AcDbCircle
 10
-1484.323924
 20
-1001.743177999999
 30
0.0
 40
1.5
  0
LINE
  5
89BC
330
18
100
AcDbEntity
  8
0
100
AcDbLine
 10
-1459.323924
 20
-1014.243177999998
 30
0.0
 11
-1509.323924
 21
-1014.243177999998
 31
0.0
  0
LINE
  5
89BD
330
18
100
AcDbEntity
  8
0
100
AcDbLine
 10
-1509.323924
 20
-1014.243177999998
 30
0.0
 11
-1509.323924
 21
-964.2431779999999
 31
0.0
  0
LINE
  5
89BE
330
18
100
AcDbEntity
  8
0
100
AcDbLine
 10
-1509.323924
 20
-964.2431779999999
 30
0.0
 11
-1459.323924
 21
-964.2431779999999
 31
0.0
  0
LINE
  5
89BF
330
18
100
AcDbEntity
  8
0
100
AcDbLine
 10
-1509.323924
 20
-966.243178
 30
0.0
 11
-1459.323924
 21
-966.243178
 31
0.0
  0
LINE
  5
89C0
330
18
100
AcDbEntity
  8
0
100
AcDbLine
 10
-1459.323924
 20
-1014.243177999998
 30
0.0
 11
-1459.323924
 21
-964.2431779999999
 31
0.0
  0
LINE
  5
89C7
330
18
100
AcDbEntity
  8
0
100
AcDbLine
 10
-1423.523924
 20
-1007.093178
 30
0.0
 11
-1423.098924
 21
-1007.093178
 31
0.0
  0
LINE
  5
89C8
330
18
100
AcDbEntity
  8
0
100
AcDbLine
 10
-1423.098924
 20
-1007.093178
 30
0.0
 11
-1423.098924
 21
-1006.593177999999
 31
0.0
  0
LINE
  5
89D6
330
18
100
AcDbEntity
  8
0
100
AcDbLine
 10
-1429.948924
 20
-1007.093178
 30
0.0
 11
-1429.523924
 21
-1007.093178
 31
0.0
  0
LINE
  5
89D7
330
18
100
AcDbEntity
  8
0
100
AcDbLine
 10
-1429.948924
 20
-1006.593177999999
 30
0.0
 11
-1429.948924
 21
-1007.093178
 31
0.0
  0
LINE
  5
89DC
330
18
100
AcDbEntity
  8
0
100
AcDbLine
 10
-1423.523924
 20
-1007.093178
 30
0.0
 11
-1429.523924
 21
-1007.093178
 31
0.0
  0
LINE
  5
89EA
330
18
100
AcDbEntity
  8
0
100
AcDbLine
 10
-1316.023924
 20
-997.0431779999996
 30
0.0
 11
-1316.023924
 21
-998.0431779999999
 31
0.0
  0
LINE
  5
89EB
330
18
100
AcDbEntity
  8
0
100
AcDbLine
 10
-1316.023924
 20
-997.0431779999996
 30
0.0
 11
-1316.023924
 21
-998.0431779999999
 31
0.0
  0
LINE
  5
89EC
330
18
100
AcDbEntity
  8
0
100
AcDbLine
 10
-1311.523924
 20
-991.0431779999999
 30
0.0
 11
-1311.523924
 21
-997.0431779999996
 31
0.0
  0
LINE
  5
89ED
330
18
100
AcDbEntity
  8
0
100
AcDbLine
 10
-1311.523924
 20
-991.0431779999999
 30
0.0
 11
-1311.523924
 21
-997.0431779999996
 31
0.0
  0
LINE
  5
89F8
330
18
100
AcDbEntity
  8
0
100
AcDbLine
 10
-1323.523924
 20
-1007.093178
 30
0.0
 11
-1329.523924
 21
-1007.093178
 31
0.0
  0
LINE
  5
89F9
330
18
100
AcDbEntity
  8
0
100
AcDbLine
 10
-1323.523924
 20
-1007.093178
 30
0.0
 11
-1323.098924
 21
-1007.093178
 31
0.0
  0
LINE
  5
89FA
330
18
100
AcDbEntity
  8
0
100
AcDbLine
 10
-1323.098924
 20
-1007.093178
 30
0.0
 11
-1323.098924
 21
-1006.593177999999
 31
0.0
  0
LINE
  5
8A06
330
18
100
AcDbEntity
  8
0
100
AcDbLine
 10
-1329.948923999999
 20
-1007.093178
 30
0.0
 11
-1329.523924
 21
-1007.093178
 31
0.0
  0
LINE
  5
8A07
330
18
100
AcDbEntity
  8
0
100
AcDbLine
 10
-1329.948923999999
 20
-1006.593177999999
 30
0.0
 11
-1329.948923999999
 21
-1007.093178
 31
0.0
  0
LINE
  5
8A12
330
18
100
AcDbEntity
  8
0
100
AcDbLine
 10
-901.6542020000001
 20
-418.0072739999998
 30
0.0
 11
-404.654202
 21
-418.0072739999998
 31
0.0
  0
LINE
  5
8A17
330
18
100
AcDbEntity
  8
0
100
AcDbLine
 10
-903.1542020000001
 20
-1311.243178
 30
0.0
 11
-403.1542019999998
 21
-1311.243178
 31
0.0
  0
LINE
  5
8A18
330
18
100
AcDbEntity
  8
0
100
AcDbLine
 10
-903.1542020000001
 20
-1311.243178
 30
0.0
 11
-403.1542019999998
 21
-1311.243178
 31
0.0
  0
LINE
  5
8A1C
330
18
100
AcDbEntity
  8
0
100
AcDbLine
 10
-901.6542020000001
 20
-1310.443178
 30
0.0
 11
-404.654202
 21
-1310.443178
 31
0.0
  0
LINE
  5
8A1D
330
18
100
AcDbEntity
  8
0
100
AcDbLine
 10
-901.6542020000001
 20
-963.4431779999999
 30
0.0
 11
-404.654202
 21
-963.4431779999999
 31
0.0
  0
LINE
  5
8A1E
330
18
100
AcDbEntity
  8
0
100
AcDbLine
 10
-901.6542020000001
 20
-767.6072740000002
 30
0.0
 11
-404.654202
 21
-767.6072740000002
 31
0.0
  0
LINE
  5
8A21
330
18
100
AcDbEntity
  8
0
100
AcDbLine
 10
-903.1542020000001
 20
-964.2431779999999
 30
0.0
 11
-903.1542020000001
 21
-1311.243178
 31
0.0
  0
LINE
  5
8A22
330
18
100
AcDbEntity
  8
0
100
AcDbLine
 10
-903.1542020000001
 20
-966.7431779999999
 30
0.0
 11
-903.1542020000001
 21
-1311.243178
 31
0.0
  0
LINE
  5
8A24
330
18
100
AcDbEntity
  8
0
100
AcDbLine
 10
-1002.654201999999
 20
-1063.743177999999
 30
0.0
 11
-1002.654201999999
 21
-1211.743178
 31
0.0
  0
LINE
  5
8A25
330
18
100
AcDbEntity
  8
0
100
AcDbLine
 10
-903.6542019999997
 20
-1063.743177999999
 30
0.0
 11
-903.6542019999997
 21
-1211.743178
 31
0.0
  0
LINE
  5
8A26
330
18
100
AcDbEntity
  8
0
100
AcDbLine
 10
-903.1542020000001
 20
-1037.743178
 30
0.0
 11
-903.1542020000001
 21
-1237.743178
 31
0.0
  0
LINE
  5
8A27
330
18
100
AcDbEntity
  8
0
100
AcDbLine
 10
-903.6542019999997
 20
-1037.743178
 30
0.0
 11
-903.6542019999997
 21
-1237.743178
 31
0.0
  0
LINE
  5
8A2D
330
18
100
AcDbEntity
  8
0
100
AcDbLine
 10
-901.6542020000001
 20
-963.4431779999999
 30
0.0
 11
-901.6542020000001
 21
-1310.443178
 31
0.0
  0
LINE
  5
8A2E
330
18
100
AcDbEntity
  8
0
100
AcDbLine
 10
-903.6542019999997
 20
-1211.743178
 30
0.0
 11
-1002.654201999999
 21
-1211.743178
 31
0.0
  0
ARC
  5
8A32
330
18
100
AcDbEntity
  8
0
100
AcDbCircle
 10
-1149.584208999999
 20
-1269.393178
 30
0.0
 40
2.0
100
AcDbArc
 50
58.700399
 51
90.0
  0
ARC
  5
8A33
330
18
100
AcDbEntity
  8
0
100
AcDbCircle
 10
-1149.584208999999
 20
-1269.393178
 30
0.0
 40
2.0
100
AcDbArc
 50
58.700399
 51
90.0
  0
LINE
  5
8A34
330
18
100
AcDbEntity
  8
0
100
AcDbLine
 10
-1148.545182
 20
-1267.684253
 30
0.0
 11
-1147.004410999999
 21
-1268.621042
 31
0.0
  0
LINE
  5
8A35
330
18
100
AcDbEntity
  8
0
100
AcDbLine
 10
-1148.545182
 20
-1267.684253
 30
0.0
 11
-1147.004410999999
 21
-1268.621042
 31
0.0
  0
ARC
  5
8A36
330
18
100
AcDbEntity
  8
0
100
AcDbCircle
 10
-1147.023924
 20
-1275.443178
 30
0.0
 40
0.5
100
AcDbArc
 50
270.0
 51
0.0
  0
ARC
  5
8A37
330
18
100
AcDbEntity
  8
0
100
AcDbCircle
 10
-1147.023924
 20
-1275.443178
 30
0.0
 40
0.5
100
AcDbArc
 50
270.0
 51
0.0
  0
LINE
  5
8A38
330
18
100
AcDbEntity
  8
0
100
AcDbLine
 10
-1148.043924
 20
-1275.943178
 30
0.0
 11
-1148.043924
 21
-1269.413178
 31
0.0
  0
LINE
  5
8A39
330
18
100
AcDbEntity
  8
0
100
AcDbLine
 10
-1146.523924
 20
-1275.443178
 30
0.0
 11
-1146.523924
 21
-1268.893178
 31
0.0
  0
LINE
  5
8A3A
330
18
100
AcDbEntity
  8
0
100
AcDbLine
 10
-1148.043924
 20
-1275.943178
 30
0.0
 11
-1148.043924
 21
-1269.413178
 31
0.0
  0
LINE
  5
8A3B
330
18
100
AcDbEntity
  8
0
100
AcDbLine
 10
-1146.523924
 20
-1275.443178
 30
0.0
 11
-1146.523924
 21
-1268.893178
 31
0.0
  0
ARC
  5
8A3C
330
18
100
AcDbEntity
  8
0
100
AcDbCircle
 10
-1147.523924
 20
-1269.475504
 30
0.0
 40
1.0
100
AcDbArc
 50
0.0
 51
58.700399
  0
ARC
  5
8A3D
330
18
100
AcDbEntity
  8
0
100
AcDbCircle
 10
-1147.523924
 20
-1269.475504
 30
0.0
 40
1.0
100
AcDbArc
 50
0.0
 51
58.700399
  0
ARC
  5
8A3E
330
18
100
AcDbEntity
  8
0
100
AcDbCircle
 10
-1148.543924
 20
-1269.413178
 30
0.0
 40
0.5
100
AcDbArc
 50
0.0
 51
90.0
  0
ARC
  5
8A3F
330
18
100
AcDbEntity
  8
0
100
AcDbCircle
 10
-1148.023924
 20
-1268.893178
 30
0.0
 40
1.5
100
AcDbArc
 50
0.0
 51
90.0
  0
ARC
  5
8A40
330
18
100
AcDbEntity
  8
0
100
AcDbCircle
 10
-1148.543924
 20
-1269.413178
 30
0.0
 40
0.5
100
AcDbArc
 50
0.0
 51
90.0
  0
ARC
  5
8A41
330
18
100
AcDbEntity
  8
0
100
AcDbCircle
 10
-1148.023924
 20
-1268.893178
 30
0.0
 40
1.5
100
AcDbArc
 50
0.0
 51
90.0
  0
LINE
  5
8A55
330
18
100
AcDbEntity
  8
0
100
AcDbLine
 10
-1163.523924
 20
-1266.893178
 30
0.0
 11
-1163.098924
 21
-1266.893178
 31
0.0
  0
LINE
  5
8A56
330
18
100
AcDbEntity
  8
0
100
AcDbLine
 10
-1163.098924
 20
-1266.893178
 30
0.0
 11
-1163.098924
 21
-1267.393178
 31
0.0
  0
LINE
  5
8A66
330
18
100
AcDbEntity
  8
0
100
AcDbLine
 10
-1169.948924
 20
-1266.893178
 30
0.0
 11
-1169.523924
 21
-1266.893178
 31
0.0
  0
LINE
  5
8A67
330
18
100
AcDbEntity
  8
0
100
AcDbLine
 10
-1169.948924
 20
-1267.393178
 30
0.0
 11
-1169.948924
 21
-1266.893178
 31
0.0
  0
LINE
  5
8A6D
330
18
100
AcDbEntity
  8
0
100
AcDbLine
 10
-1163.523924
 20
-1266.893178
 30
0.0
 11
-1169.523924
 21
-1266.893178
 31
0.0
  0
LINE
  5
8A75
330
18
100
AcDbEntity
  8
0
100
AcDbLine
 10
-903.1542020000001
 20
-1237.743178
 30
0.0
 11
-903.6542019999997
 21
-1237.743178
 31
0.0
  0
CIRCLE
  5
8A76
330
18
100
AcDbEntity
  8
0
100
AcDbCircle
 10
-893.154202
 20
-1286.243178
 30
0.0
 40
1.5
  0
CIRCLE
  5
8A77
330
18
100
AcDbEntity
  8
0
100
AcDbCircle
 10
-893.154202
 20
-1286.243178
 30
0.0
 40
4.75
  0
CIRCLE
  5
8A7A
330
18
100
AcDbEntity
  8
0
100
AcDbCircle
 10
-878.1542019999998
 20
-1301.243178
 30
0.0
 40
1.5
  0
CIRCLE
  5
8A7B
330
18
100
AcDbEntity
  8
0
100
AcDbCircle
 10
-878.1542019999998
 20
-1301.243178
 30
0.0
 40
4.75
  0
LINE
  5
8A7E
330
18
100
AcDbEntity
  8
0
100
AcDbLine
 10
-903.6542019999997
 20
-1063.743177999999
 30
0.0
 11
-1002.654201999999
 21
-1063.743177999999
 31
0.0
  0
ARC
  5
8A82
330
18
100
AcDbEntity
  8
0
100
AcDbCircle
 10
-1148.023924
 20
-1005.093177999998
 30
0.0
 40
1.5
100
AcDbArc
 50
270.0
 51
0.0
  0
ARC
  5
8A83
330
18
100
AcDbEntity
  8
0
100
AcDbCircle
 10
-1148.543924
 20
-1004.573178
 30
0.0
 40
0.5
100
AcDbArc
 50
270.0
 51
0.0
  0
ARC
  5
8A84
330
18
100
AcDbEntity
  8
0
100
AcDbCircle
 10
-1148.023924
 20
-1005.093177999998
 30
0.0
 40
1.5
100
AcDbArc
 50
270.0
 51
0.0
  0
ARC
  5
8A85
330
18
100
AcDbEntity
  8
0
100
AcDbCircle
 10
-1148.543924
 20
-1004.573178
 30
0.0
 40
0.5
100
AcDbArc
 50
270.0
 51
0.0
  0
ARC
  5
8A86
330
18
100
AcDbEntity
  8
0
100
AcDbCircle
 10
-1147.523924
 20
-1004.510851999999
 30
0.0
 40
1.0
100
AcDbArc
 50
301.299601
 51
0.0
  0
ARC
  5
8A87
330
18
100
AcDbEntity
  8
0
100
AcDbCircle
 10
-1147.523924
 20
-1004.510851999999
 30
0.0
 40
1.0
100
AcDbArc
 50
301.299601
 51
0.0
  0
LINE
  5
8A88
330
18
100
AcDbEntity
  8
0
100
AcDbLine
 10
-1146.523924
 20
-998.5431779999997
 30
0.0
 11
-1146.523924
 21
-1005.093177999998
 31
0.0
  0
LINE
  5
8A89
330
18
100
AcDbEntity
  8
0
100
AcDbLine
 10
-1148.043924
 20
-998.0431779999999
 30
0.0
 11
-1148.043924
 21
-1004.573178
 31
0.0
  0
LINE
  5
8A8A
330
18
100
AcDbEntity
  8
0
100
AcDbLine
 10
-1146.523924
 20
-998.5431779999997
 30
0.0
 11
-1146.523924
 21
-1005.093177999998
 31
0.0
  0
LINE
  5
8A8B
330
18
100
AcDbEntity
  8
0
100
AcDbLine
 10
-1148.043924
 20
-998.0431779999999
 30
0.0
 11
-1148.043924
 21
-1004.573178
 31
0.0
  0
ARC
  5
8A8C
330
18
100
AcDbEntity
  8
0
100
AcDbCircle
 10
-1147.023924
 20
-998.5431779999997
 30
0.0
 40
0.5
100
AcDbArc
 50
0.0
 51
90.0
  0
ARC
  5
8A8D
330
18
100
AcDbEntity
  8
0
100
AcDbCircle
 10
-1147.023924
 20
-998.5431779999997
 30
0.0
 40
0.5
100
AcDbArc
 50
0.0
 51
90.0
  0
LINE
  5
8A8E
330
18
100
AcDbEntity
  8
0
100
AcDbLine
 10
-1148.545182
 20
-1006.302103
 30
0.0
 11
-1147.004410999999
 21
-1005.365314
 31
0.0
  0
LINE
  5
8A8F
330
18
100
AcDbEntity
  8
0
100
AcDbLine
 10
-1148.545182
 20
-1006.302103
 30
0.0
 11
-1147.004410999999
 21
-1005.365314
 31
0.0
  0
ARC
  5
8A90
330
18
100
AcDbEntity
  8
0
100
AcDbCircle
 10
-1149.584208999999
 20
-1004.593178
 30
0.0
 40
2.0
100
AcDbArc
 50
270.0
 51
301.299601
  0
ARC
  5
8A91
330
18
100
AcDbEntity
  8
0
100
AcDbCircle
 10
-1149.584208999999
 20
-1004.593178
 30
0.0
 40
2.0
100
AcDbArc
 50
270.0
 51
301.299601
  0
LINE
  5
8AA5
330
18
100
AcDbEntity
  8
0
100
AcDbLine
 10
-1163.523924
 20
-1007.093178
 30
0.0
 11
-1163.098924
 21
-1007.093178
 31
0.0
  0
LINE
  5
8AA6
330
18
100
AcDbEntity
  8
0
100
AcDbLine
 10
-1163.098924
 20
-1007.093178
 30
0.0
 11
-1163.098924
 21
-1006.593177999999
 31
0.0
  0
LINE
  5
8AB6
330
18
100
AcDbEntity
  8
0
100
AcDbLine
 10
-1169.948924
 20
-1007.093178
 30
0.0
 11
-1169.523924
 21
-1007.093178
 31
0.0
  0
LINE
  5
8AB7
330
18
100
AcDbEntity
  8
0
100
AcDbLine
 10
-1169.948924
 20
-1006.593177999999
 30
0.0
 11
-1169.948924
 21
-1007.093178
 31
0.0
  0
LINE
  5
8ABD
330
18
100
AcDbEntity
  8
0
100
AcDbLine
 10
-1163.523924
 20
-1007.093178
 30
0.0
 11
-1169.523924
 21
-1007.093178
 31
0.0
  0
CIRCLE
  5
8AC3
330
18
100
AcDbEntity
  8
0
100
AcDbCircle
 10
-893.154202
 20
-1137.743178
 30
0.0
 40
1.5
  0
CIRCLE
  5
8AC4
330
18
100
AcDbEntity
  8
0
100
AcDbCircle
 10
-893.154202
 20
-1137.743178
 30
0.0
 40
4.75
  0
LINE
  5
8AC7
330
18
100
AcDbEntity
  8
0
100
AcDbLine
 10
-953.1542020000001
 20
-966.243178
 30
0.0
 11
-905.1542020000001
 21
-966.243178
 31
0.0
  0
LINE
  5
8AC9
330
18
100
AcDbEntity
  8
0
100
AcDbLine
 10
-953.1542020000001
 20
-964.2431779999999
 30
0.0
 11
-903.1542020000001
 21
-964.2431779999999
 31
0.0
  0
LINE
  5
8ACC
330
18
100
AcDbEntity
  8
0
100
AcDbLine
 10
-903.1542020000001
 20
-965.7431779999999
 30
0.0
 11
-901.6542020000001
 21
-965.7431779999999
 31
0.0
  0
LINE
  5
8ACD
330
18
100
AcDbEntity
  8
0
100
AcDbLine
 10
-903.1542020000001
 20
-964.2431779999999
 30
0.0
 11
-901.6542020000001
 21
-964.2431779999999
 31
0.0
  0
LINE
  5
8ACE
330
18
100
AcDbEntity
  8
0
100
AcDbLine
 10
-901.6542020000001
 20
-966.7431779999999
 30
0.0
 11
-903.1542020000001
 21
-966.7431779999999
 31
0.0
  0
LINE
  5
8AD0
330
18
100
AcDbEntity
  8
0
100
AcDbLine
 10
-903.1542020000001
 20
-1037.743178
 30
0.0
 11
-903.6542019999997
 21
-1037.743178
 31
0.0
  0
LINE
  5
8AD1
330
18
100
AcDbEntity
  8
0
100
AcDbLine
 10
-903.1542020000001
 20
-964.2431779999999
 30
0.0
 11
-903.1542020000001
 21
-1014.243177999998
 31
0.0
  0
CIRCLE
  5
8AD2
330
18
100
AcDbEntity
  8
0
100
AcDbCircle
 10
-893.154202
 20
-989.2431779999999
 30
0.0
 40
1.5
  0
CIRCLE
  5
8AD3
330
18
100
AcDbEntity
  8
0
100
AcDbCircle
 10
-893.154202
 20
-989.2431779999999
 30
0.0
 40
4.75
  0
LINE
  5
8AD5
330
18
100
AcDbEntity
  8
0
100
AcDbLine
 10
-903.1542020000001
 20
-964.2431779999999
 30
0.0
 11
-903.1542020000001
 21
-1014.243177999998
 31
0.0
  0
LINE
  5
8AD6
330
18
100
AcDbEntity
  8
0
100
AcDbLine
 10
-903.1542020000001
 20
-964.2431779999999
 30
0.0
 11
-903.1542020000001
 21
-1014.243177999998
 31
0.0
  0
LINE
  5
8AD7
330
18
100
AcDbEntity
  8
0
100
AcDbLine
 10
-905.1542020000001
 20
-966.243178
 30
0.0
 11
-905.1542020000001
 21
-1014.243177999998
 31
0.0
  0
LINE
  5
8AD8
330
18
100
AcDbEntity
  8
0
100
AcDbLine
 10
-905.1542020000001
 20
-971.9931779999999
 30
0.0
 11
-906.154202
 21
-971.9931779999999
 31
0.0
  0
LINE
  5
8AD9
330
18
100
AcDbEntity
  8
0
100
AcDbLine
 10
-905.1542020000001
 20
-981.493178
 30
0.0
 11
-906.154202
 21
-981.493178
 31
0.0
  0
LINE
  5
8ADA
330
18
100
AcDbEntity
  8
0
100
AcDbLine
 10
-905.1542020000001
 20
-971.9931779999999
 30
0.0
 11
-905.1542020000001
 21
-981.493178
 31
0.0
  0
LINE
  5
8ADB
330
18
100
AcDbEntity
  8
0
100
AcDbLine
 10
-906.154202
 20
-971.9931779999999
 30
0.0
 11
-906.154202
 21
-981.493178
 31
0.0
  0
ARC
  5
8ADC
330
18
100
AcDbEntity
  8
0
100
AcDbCircle
 10
-883.8417019999997
 20
-976.7431779999999
 30
0.0
 40
22.8125
100
AcDbArc
 50
167.981988
 51
192.0180119999999
  0
ARC
  5
8ADD
330
18
100
AcDbEntity
  8
0
100
AcDbCircle
 10
-883.8417019999997
 20
-1001.743177999999
 30
0.0
 40
22.8125
100
AcDbArc
 50
167.981988
 51
192.0180119999999
  0
LINE
  5
8ADE
330
18
100
AcDbEntity
  8
0
100
AcDbLine
 10
-906.154202
 20
-996.9931779999999
 30
0.0
 11
-906.154202
 21
-1006.493178
 31
0.0
  0
LINE
  5
8ADF
330
18
100
AcDbEntity
  8
0
100
AcDbLine
 10
-905.1542020000001
 20
-996.9931779999999
 30
0.0
 11
-905.1542020000001
 21
-1006.493178
 31
0.0
  0
LINE
  5
8AE0
330
18
100
AcDbEntity
  8
0
100
AcDbLine
 10
-905.1542020000001
 20
-1006.493178
 30
0.0
 11
-906.154202
 21
-1006.493178
 31
0.0
  0
LINE
  5
8AE2
330
18
100
AcDbEntity
  8
0
100
AcDbLine
 10
-905.1542020000001
 20
-1014.243177999998
 30
0.0
 11
-903.1542020000001
 21
-1014.243177999998
 31
0.0
  0
CIRCLE
  5
8AFE
330
18
100
AcDbEntity
  8
0
100
AcDbCircle
 10
-778.1542019999998
 20
-1301.243178
 30
0.0
 40
1.5
  0
CIRCLE
  5
8AFF
330
18
100
AcDbEntity
  8
0
100
AcDbCircle
 10
-778.1542019999998
 20
-1301.243178
 30
0.0
 40
4.75
  0
CIRCLE
  5
8BA0
330
18
100
AcDbEntity
  8
0
100
AcDbCircle
 10
-528.1542019999998
 20
-1301.243178
 30
0.0
 40
1.5
  0
CIRCLE
  5
8BA1
330
18
100
AcDbEntity
  8
0
100
AcDbCircle
 10
-528.1542019999998
 20
-1301.243178
 30
0.0
 40
4.75
  0
LINE
  5
8C4D
330
18
100
AcDbEntity
  8
0
100
AcDbLine
 10
-903.1542020000001
 20
-419.3072739999998
 30
0.0
 11
-903.1542020000001
 21
-766.307274
 31
0.0
  0
LINE
  5
8C4E
330
18
100
AcDbEntity
  8
0
100
AcDbLine
 10
-903.1542020000001
 20
-419.3072739999998
 30
0.0
 11
-903.1542020000001
 21
-766.307274
 31
0.0
  0
LINE
  5
8C50
330
18
100
AcDbEntity
  8
0
100
AcDbLine
 10
-903.6542019999997
 20
-518.8072739999999
 30
0.0
 11
-903.6542019999997
 21
-666.807274
 31
0.0
  0
LINE
  5
8C51
330
18
100
AcDbEntity
  8
0
100
AcDbLine
 10
-1002.654201999999
 20
-518.8072739999999
 30
0.0
 11
-1002.654201999999
 21
-666.807274
 31
0.0
  0
LINE
  5
8C53
330
18
100
AcDbEntity
  8
0
100
AcDbLine
 10
-903.6542019999997
 20
-492.807274
 30
0.0
 11
-903.6542019999997
 21
-692.807274
 31
0.0
  0
LINE
  5
8C54
330
18
100
AcDbEntity
  8
0
100
AcDbLine
 10
-903.1542020000001
 20
-492.807274
 30
0.0
 11
-903.1542020000001
 21
-692.807274
 31
0.0
  0
LINE
  5
8C56
330
18
100
AcDbEntity
  8
0
100
AcDbLine
 10
-901.6542020000001
 20
-418.0072739999998
 30
0.0
 11
-901.6542020000001
 21
-767.6072740000002
 31
0.0
  0
LINE
  5
8C59
330
18
100
AcDbEntity
  8
0
100
AcDbLine
 10
-903.6542019999997
 20
-666.807274
 30
0.0
 11
-1002.654201999999
 21
-666.807274
 31
0.0
  0
LINE
  5
8C5B
330
18
100
AcDbEntity
  8
0
100
AcDbLine
 10
-953.1542020000001
 20
-766.307274
 30
0.0
 11
-901.6542020000001
 21
-766.307274
 31
0.0
  0
LINE
  5
8C5C
330
18
100
AcDbEntity
  8
0
100
AcDbLine
 10
-953.1542020000001
 20
-716.307274
 30
0.0
 11
-903.1542020000001
 21
-716.307274
 31
0.0
  0
ARC
  5
8C5E
330
18
100
AcDbEntity
  8
0
100
AcDbCircle
 10
-930.1542020000001
 20
-741.307274
 30
0.0
 40
6.0
100
AcDbArc
 50
90.0
 51
270.0
  0
ARC
  5
8C5F
330
18
100
AcDbEntity
  8
0
100
AcDbCircle
 10
-926.154202
 20
-741.307274
 30
0.0
 40
6.0
100
AcDbArc
 50
270.0
 51
90.0
  0
LINE
  5
8C61
330
18
100
AcDbEntity
  8
0
100
AcDbLine
 10
-926.154202
 20
-747.307274
 30
0.0
 11
-930.1542020000001
 21
-747.307274
 31
0.0
  0
LINE
  5
8C62
330
18
100
AcDbEntity
  8
0
100
AcDbLine
 10
-930.1542020000001
 20
-735.3072739999999
 30
0.0
 11
-926.154202
 21
-735.3072739999999
 31
0.0
  0
LINE
  5
8C63
330
18
100
AcDbEntity
  8
0
100
AcDbLine
 10
-953.1542020000001
 20
-716.307274
 30
0.0
 11
-953.1542020000001
 21
-766.307274
 31
0.0
  0
LINE
  5
8C68
330
18
100
AcDbEntity
  8
0
100
AcDbLine
 10
-903.1542020000001
 20
-692.807274
 30
0.0
 11
-903.6542019999997
 21
-692.807274
 31
0.0
  0
LINE
  5
8C69
330
18
100
AcDbEntity
  8
0
100
AcDbLine
 10
-903.1542020000001
 20
-766.307274
 30
0.0
 11
-903.1542020000001
 21
-716.307274
 31
0.0
  0
CIRCLE
  5
8C6C
330
18
100
AcDbEntity
  8
0
100
AcDbCircle
 10
-888.1542019999997
 20
-741.307274
 30
0.0
 40
4.75
  0
CIRCLE
  5
8C6D
330
18
100
AcDbEntity
  8
0
100
AcDbCircle
 10
-888.1542019999997
 20
-741.307274
 30
0.0
 40
1.5
  0
LINE
  5
8C71
330
18
100
AcDbEntity
  8
0
100
AcDbLine
 10
-903.6542019999997
 20
-518.8072739999999
 30
0.0
 11
-1002.654201999999
 21
-518.8072739999999
 31
0.0
  0
CIRCLE
  5
8C73
330
18
100
AcDbEntity
  8
0
100
AcDbCircle
 10
-888.1542019999997
 20
-543.307274
 30
0.0
 40
1.5
  0
CIRCLE
  5
8C76
330
18
100
AcDbEntity
  8
0
100
AcDbCircle
 10
-888.1542019999997
 20
-642.307274
 30
0.0
 40
4.75
  0
CIRCLE
  5
8C77
330
18
100
AcDbEntity
  8
0
100
AcDbCircle
 10
-888.1542019999997
 20
-642.307274
 30
0.0
 40
1.5
  0
CIRCLE
  5
8C79
330
18
100
AcDbEntity
  8
0
100
AcDbCircle
 10
-888.1542019999997
 20
-543.307274
 30
0.0
 40
4.75
  0
LINE
  5
8C7B
330
18
100
AcDbEntity
  8
0
100
AcDbLine
 10
-953.1542020000001
 20
-469.3072739999998
 30
0.0
 11
-903.1542020000001
 21
-469.3072739999998
 31
0.0
  0
LINE
  5
8C7C
330
18
100
AcDbEntity
  8
0
100
AcDbLine
 10
-953.1542020000001
 20
-419.3072739999998
 30
0.0
 11
-901.6542020000001
 21
-419.3072739999998
 31
0.0
  0
LINE
  5
8C7E
330
18
100
AcDbEntity
  8
0
100
AcDbLine
 10
-930.1542020000001
 20
-450.307274
 30
0.0
 11
-926.154202
 21
-450.307274
 31
0.0
  0
LINE
  5
8C7F
330
18
100
AcDbEntity
  8
0
100
AcDbLine
 10
-926.154202
 20
-438.307274
 30
0.0
 11
-930.1542020000001
 21
-438.307274
 31
0.0
  0
ARC
  5
8C81
330
18
100
AcDbEntity
  8
0
100
AcDbCircle
 10
-926.154202
 20
-444.3072739999998
 30
0.0
 40
6.0
100
AcDbArc
 50
270.0
 51
90.0
  0
ARC
  5
8C82
330
18
100
AcDbEntity
  8
0
100
AcDbCircle
 10
-930.1542020000001
 20
-444.3072739999998
 30
0.0
 40
6.0
100
AcDbArc
 50
90.0
 51
270.0
  0
LINE
  5
8C83
330
18
100
AcDbEntity
  8
0
100
AcDbLine
 10
-953.1542020000001
 20
-469.3072739999998
 30
0.0
 11
-953.1542020000001
 21
-419.3072739999998
 31
0.0
  0
LINE
  5
8C86
330
18
100
AcDbEntity
  8
0
100
AcDbLine
 10
-903.1542020000001
 20
-492.807274
 30
0.0
 11
-903.6542019999997
 21
-492.807274
 31
0.0
  0
LINE
  5
8C87
330
18
100
AcDbEntity
  8
0
100
AcDbLine
 10
-903.1542020000001
 20
-469.3072739999998
 30
0.0
 11
-903.1542020000001
 21
-419.3072739999998
 31
0.0
  0
CIRCLE
  5
8C8A
330
18
100
AcDbEntity
  8
0
100
AcDbCircle
 10
-888.1542019999997
 20
-444.3072739999998
 30
0.0
 40
4.75
  0
CIRCLE
  5
8C8B
330
18
100
AcDbEntity
  8
0
100
AcDbCircle
 10
-888.1542019999997
 20
-444.3072739999998
 30
0.0
 40
1.5
  0
LINE
  5
8C8C
330
18
100
AcDbEntity
  8
0
100
AcDbLine
 10
-903.1542020000001
 20
-419.3072739999998
 30
0.0
 11
-903.1542020000001
 21
-469.3072739999998
 31
0.0
  0
LINE
  5
8C8D
330
18
100
AcDbEntity
  8
0
100
AcDbLine
 10
-903.1542020000001
 20
-469.3072739999998
 30
0.0
 11
-903.1542020000001
 21
-419.3072739999998
 31
0.0
  0
CIRCLE
  5
8CE7
330
18
100
AcDbEntity
  8
0
100
AcDbCircle
 10
-678.6542019999998
 20
-741.307274
 30
0.0
 40
4.75
  0
CIRCLE
  5
8CE8
330
18
100
AcDbEntity
  8
0
100
AcDbCircle
 10
-678.6542019999998
 20
-741.307274
 30
0.0
 40
1.5
  0
CIRCLE
  5
8D10
330
18
100
AcDbEntity
  8
0
100
AcDbCircle
 10
-627.6542019999998
 20
-741.307274
 30
0.0
 40
4.75
  0
CIRCLE
  5
8D11
330
18
100
AcDbEntity
  8
0
100
AcDbCircle
 10
-627.6542019999998
 20
-741.307274
 30
0.0
 40
1.5
  0
CIRCLE
  5
8D30
330
18
100
AcDbEntity
  8
0
100
AcDbCircle
 10
-678.6542019999998
 20
-592.807274
 30
0.0
 40
4.75
  0
CIRCLE
  5
8D31
330
18
100
AcDbEntity
  8
0
100
AcDbCircle
 10
-678.6542019999998
 20
-592.807274
 30
0.0
 40
1.5
  0
CIRCLE
  5
8D67
330
18
100
AcDbEntity
  8
0
100
AcDbCircle
 10
-678.6542019999998
 20
-444.3072739999998
 30
0.0
 40
4.75
  0
CIRCLE
  5
8D68
330
18
100
AcDbEntity
  8
0
100
AcDbCircle
 10
-678.6542019999998
 20
-444.3072739999998
 30
0.0
 40
1.5
  0
CIRCLE
  5
8D6A
330
18
100
AcDbEntity
  8
0
100
AcDbCircle
 10
-627.6542019999998
 20
-592.807274
 30
0.0
 40
4.75
  0
CIRCLE
  5
8D6B
330
18
100
AcDbEntity
  8
0
100
AcDbCircle
 10
-627.6542019999998
 20
-592.807274
 30
0.0
 40
1.5
  0
CIRCLE
  5
8D8F
330
18
100
AcDbEntity
  8
0
100
AcDbCircle
 10
-627.6542019999998
 20
-444.3072739999998
 30
0.0
 40
4.75
  0
CIRCLE
  5
8D90
330
18
100
AcDbEntity
  8
0
100
AcDbCircle
 10
-627.6542019999998
 20
-444.3072739999998
 30
0.0
 40
1.5
  0
LINE
  5
8DA3
330
18
100
AcDbEntity
  8
0
100
AcDbLine
 10
-403.1542019999998
 20
-966.7431779999999
 30
0.0
 11
-403.1542019999998
 21
-1311.243178
 31
0.0
  0
LINE
  5
8DA5
330
18
100
AcDbEntity
  8
0
100
AcDbLine
 10
-403.1542019999998
 20
-1311.243178
 30
0.0
 11
-403.1542019999998
 21
-964.2431779999999
 31
0.0
  0
LINE
  5
8DA6
330
18
100
AcDbEntity
  8
0
100
AcDbLine
 10
-303.654202
 20
-1063.743177999999
 30
0.0
 11
-303.654202
 21
-1211.743178
 31
0.0
  0
LINE
  5
8DA7
330
18
100
AcDbEntity
  8
0
100
AcDbLine
 10
-402.6542019999998
 20
-1063.743177999999
 30
0.0
 11
-402.6542019999998
 21
-1211.743178
 31
0.0
  0
LINE
  5
8DA9
330
18
100
AcDbEntity
  8
0
100
AcDbLine
 10
-402.6542019999998
 20
-1037.743178
 30
0.0
 11
-402.6542019999998
 21
-1237.743178
 31
0.0
  0
LINE
  5
8DAA
330
18
100
AcDbEntity
  8
0
100
AcDbLine
 10
-403.1542019999998
 20
-1037.743178
 30
0.0
 11
-403.1542019999998
 21
-1237.743178
 31
0.0
  0
LINE
  5
8DAD
330
18
100
AcDbEntity
  8
0
100
AcDbLine
 10
-404.654202
 20
-963.4431779999999
 30
0.0
 11
-404.654202
 21
-1310.443178
 31
0.0
  0
LINE
  5
8DB1
330
18
100
AcDbEntity
  8
0
100
AcDbLine
 10
-402.6542019999998
 20
-1211.743178
 30
0.0
 11
-303.654202
 21
-1211.743178
 31
0.0
  0
LINE
  5
8DB3
330
18
100
AcDbEntity
  8
0
100
AcDbLine
 10
-403.1542019999998
 20
-1237.743178
 30
0.0
 11
-402.6542019999998
 21
-1237.743178
 31
0.0
  0
CIRCLE
  5
8DB4
330
18
100
AcDbEntity
  8
0
100
AcDbCircle
 10
-428.1542019999998
 20
-1301.243178
 30
0.0
 40
1.5
  0
CIRCLE
  5
8DB5
330
18
100
AcDbEntity
  8
0
100
AcDbCircle
 10
-428.1542019999998
 20
-1301.243178
 30
0.0
 40
4.75
  0
CIRCLE
  5
8DB8
330
18
100
AcDbEntity
  8
0
100
AcDbCircle
 10
-413.154202
 20
-1286.243178
 30
0.0
 40
1.5
  0
CIRCLE
  5
8DB9
330
18
100
AcDbEntity
  8
0
100
AcDbCircle
 10
-413.154202
 20
-1286.243178
 30
0.0
 40
4.75
  0
LINE
  5
8DBC
330
18
100
AcDbEntity
  8
0
100
AcDbLine
 10
-403.1542019999998
 20
-1211.743178
 30
0.0
 11
-403.1542019999998
 21
-1237.743178
 31
0.0
  0
LINE
  5
8DBD
330
18
100
AcDbEntity
  8
0
100
AcDbLine
 10
-402.6542019999998
 20
-1211.743178
 30
0.0
 11
-402.6542019999998
 21
-1237.743178
 31
0.0
  0
CIRCLE
  5
8DC8
330
18
100
AcDbEntity
  8
0
100
AcDbCircle
 10
-413.154202
 20
-1137.743178
 30
0.0
 40
1.5
  0
CIRCLE
  5
8DC9
330
18
100
AcDbEntity
  8
0
100
AcDbCircle
 10
-413.154202
 20
-1137.743178
 30
0.0
 40
4.75
  0
LINE
  5
8DCC
330
18
100
AcDbEntity
  8
0
100
AcDbLine
 10
-402.6542019999998
 20
-1063.743177999999
 30
0.0
 11
-303.654202
 21
-1063.743177999999
 31
0.0
  0
LINE
  5
8DCD
330
18
100
AcDbEntity
  8
0
100
AcDbLine
 10
-353.1542019999998
 20
-964.2431779999999
 30
0.0
 11
-403.1542019999998
 21
-964.2431779999999
 31
0.0
  0
LINE
  5
8DCE
330
18
100
AcDbEntity
  8
0
100
AcDbLine
 10
-353.1542019999998
 20
-966.243178
 30
0.0
 11
-401.154202
 21
-966.243178
 31
0.0
  0
LINE
  5
8DCF
330
18
100
AcDbEntity
  8
0
100
AcDbLine
 10
-403.1542019999998
 20
-964.2431779999999
 30
0.0
 11
-404.654202
 21
-964.2431779999999
 31
0.0
  0
LINE
  5
8DD0
330
18
100
AcDbEntity
  8
0
100
AcDbLine
 10
-404.654202
 20
-966.7431779999999
 30
0.0
 11
-403.1542019999998
 21
-966.7431779999999
 31
0.0
  0
LINE
  5
8DD1
330
18
100
AcDbEntity
  8
0
100
AcDbLine
 10
-403.1542019999998
 20
-964.2431779999999
 30
0.0
 11
-404.654202
 21
-964.2431779999999
 31
0.0
  0
LINE
  5
8DD3
330
18
100
AcDbEntity
  8
0
100
AcDbLine
 10
-402.6542019999998
 20
-1037.743178
 30
0.0
 11
-402.6542019999998
 21
-1063.743177999999
 31
0.0
  0
LINE
  5
8DD4
330
18
100
AcDbEntity
  8
0
100
AcDbLine
 10
-403.1542019999998
 20
-1037.743178
 30
0.0
 11
-403.1542019999998
 21
-1063.743177999999
 31
0.0
  0
LINE
  5
8DD6
330
18
100
AcDbEntity
  8
0
100
AcDbLine
 10
-403.1542019999998
 20
-1037.743178
 30
0.0
 11
-402.6542019999998
 21
-1037.743178
 31
0.0
  0
LINE
  5
8DD7
330
18
100
AcDbEntity
  8
0
100
AcDbLine
 10
-403.1542019999998
 20
-964.2431779999999
 30
0.0
 11
-403.1542019999998
 21
-1014.243177999998
 31
0.0
  0
CIRCLE
  5
8DDA
330
18
100
AcDbEntity
  8
0
100
AcDbCircle
 10
-413.154202
 20
-989.2431779999999
 30
0.0
 40
4.75
  0
CIRCLE
  5
8DDB
330
18
100
AcDbEntity
  8
0
100
AcDbCircle
 10
-413.154202
 20
-989.2431779999999
 30
0.0
 40
1.5
  0
LINE
  5
8DDC
330
18
100
AcDbEntity
  8
0
100
AcDbLine
 10
-401.154202
 20
-966.243178
 30
0.0
 11
-401.154202
 21
-1014.243177999998
 31
0.0
  0
LINE
  5
8DDD
330
18
100
AcDbEntity
  8
0
100
AcDbLine
 10
-401.154202
 20
-971.9931779999999
 30
0.0
 11
-400.154202
 21
-971.9931779999999
 31
0.0
  0
LINE
  5
8DDE
330
18
100
AcDbEntity
  8
0
100
AcDbLine
 10
-401.154202
 20
-981.493178
 30
0.0
 11
-400.154202
 21
-981.493178
 31
0.0
  0
LINE
  5
8DDF
330
18
100
AcDbEntity
  8
0
100
AcDbLine
 10
-401.154202
 20
-971.9931779999999
 30
0.0
 11
-401.154202
 21
-981.493178
 31
0.0
  0
LINE
  5
8DE0
330
18
100
AcDbEntity
  8
0
100
AcDbLine
 10
-400.154202
 20
-971.9931779999999
 30
0.0
 11
-400.154202
 21
-981.493178
 31
0.0
  0
ARC
  5
8DE1
330
18
100
AcDbEntity
  8
0
100
AcDbCircle
 10
-422.4667019999998
 20
-976.7431779999999
 30
0.0
 40
22.8125
100
AcDbArc
 50
347.9819879999998
 51
12.018012
  0
ARC
  5
8DE2
330
18
100
AcDbEntity
  8
0
100
AcDbCircle
 10
-422.4667019999998
 20
-1001.743177999999
 30
0.0
 40
22.8125
100
AcDbArc
 50
347.9819879999998
 51
12.018012
  0
LINE
  5
8DE3
330
18
100
AcDbEntity
  8
0
100
AcDbLine
 10
-400.154202
 20
-996.9931779999999
 30
0.0
 11
-400.154202
 21
-1006.493178
 31
0.0
  0
LINE
  5
8DE4
330
18
100
AcDbEntity
  8
0
100
AcDbLine
 10
-401.154202
 20
-996.9931779999999
 30
0.0
 11
-401.154202
 21
-1006.493178
 31
0.0
  0
LINE
  5
8DE5
330
18
100
AcDbEntity
  8
0
100
AcDbLine
 10
-401.154202
 20
-1006.493178
 30
0.0
 11
-400.154202
 21
-1006.493178
 31
0.0
  0
LINE
  5
8DE6
330
18
100
AcDbEntity
  8
0
100
AcDbLine
 10
-401.154202
 20
-996.9931779999999
 30
0.0
 11
-400.154202
 21
-996.9931779999999
 31
0.0
  0
LINE
  5
8DE7
330
18
100
AcDbEntity
  8
0
100
AcDbLine
 10
-401.154202
 20
-1014.243177999998
 30
0.0
 11
-403.1542019999998
 21
-1014.243177999998
 31
0.0
  0
LINE
  5
8DE8
330
18
100
AcDbEntity
  8
0
100
AcDbLine
 10
-403.1542019999998
 20
-964.2431779999999
 30
0.0
 11
-403.1542019999998
 21
-1014.243177999998
 31
0.0
  0
LINE
  5
8DEB
330
18
100
AcDbEntity
  8
0
100
AcDbLine
 10
-353.1542019999998
 20
-966.243178
 30
0.0
 11
-353.1542019999998
 21
-964.2431779999999
 31
0.0
  0
CIRCLE
  5
8DF6
330
18
100
AcDbEntity
  8
0
100
AcDbCircle
 10
53.345798
 20
-1137.743178
 30
0.0
 40
75.0
  0
LINE
  5
8DF7
330
18
100
AcDbEntity
  8
0
100
AcDbLine
 10
-120.1542019999999
 20
-1311.243178
 30
0.0
 11
-120.1542019999999
 21
-964.2431779999999
 31
0.0
  0
CIRCLE
  5
8DF9
330
18
100
AcDbEntity
  8
0
100
AcDbCircle
 10
53.345798
 20
-1137.743178
 30
0.0
 40
72.5
  0
CIRCLE
  5
8DFA
330
18
100
AcDbEntity
  8
0
100
AcDbCircle
 10
53.345798
 20
-1137.743178
 30
0.0
 40
73.0
  0
CIRCLE
  5
8DFB
330
18
100
AcDbEntity
  8
0
100
AcDbCircle
 10
53.345798
 20
-1137.743178
 30
0.0
 40
73.5
  0
CIRCLE
  5
8DFC
330
18
100
AcDbEntity
  8
0
100
AcDbCircle
 10
53.345798
 20
-1137.743178
 30
0.0
 40
74.0
  0
CIRCLE
  5
8DFD
330
18
100
AcDbEntity
  8
0
100
AcDbCircle
 10
53.345798
 20
-1137.743178
 30
0.0
 40
100.0
  0
LINE
  5
8DFE
330
18
100
AcDbEntity
  8
0
100
AcDbLine
 10
-121.4542019999999
 20
-1310.443178
 30
0.0
 11
-121.4542019999999
 21
-963.4431779999999
 31
0.0
  0
LINE
  5
8DFF
330
18
100
AcDbEntity
  8
0
100
AcDbLine
 10
-120.654202
 20
-1310.443178
 30
0.0
 11
-120.654202
 21
-964.2431779999999
 31
0.0
  0
LINE
  5
8E03
330
18
100
AcDbEntity
  8
0
100
AcDbLine
 10
-120.654202
 20
-1310.443178
 30
0.0
 11
-121.4542019999999
 21
-1310.443178
 31
0.0
  0
CIRCLE
  5
8E0A
330
18
100
AcDbEntity
  8
0
100
AcDbCircle
 10
-107.6542019999999
 20
-976.7431779999999
 30
0.0
 40
4.75
  0
CIRCLE
  5
8E0B
330
18
100
AcDbEntity
  8
0
100
AcDbCircle
 10
-107.6542019999999
 20
-976.7431779999999
 30
0.0
 40
1.5
  0
CIRCLE
  5
8E0C
330
18
100
AcDbEntity
  8
0
100
AcDbCircle
 10
-82.65420199999999
 20
-976.7431779999999
 30
0.0
 40
4.75
  0
CIRCLE
  5
8E0D
330
18
100
AcDbEntity
  8
0
100
AcDbCircle
 10
-82.65420199999999
 20
-976.7431779999999
 30
0.0
 40
1.5
  0
CIRCLE
  5
8E0E
330
18
100
AcDbEntity
  8
0
100
AcDbCircle
 10
-95.15420199999999
 20
-1001.743177999999
 30
0.0
 40
4.75
  0
CIRCLE
  5
8E0F
330
18
100
AcDbEntity
  8
0
100
AcDbCircle
 10
-95.15420199999999
 20
-1001.743177999999
 30
0.0
 40
1.5
  0
LINE
  5
8E10
330
18
100
AcDbEntity
  8
0
100
AcDbLine
 10
-70.154202
 20
-1014.243177999998
 30
0.0
 11
-70.154202
 21
-964.2431779999999
 31
0.0
  0
LINE
  5
8E11
330
18
100
AcDbEntity
  8
0
100
AcDbLine
 10
-120.1542019999999
 20
-1014.243177999998
 30
0.0
 11
-120.1542019999999
 21
-964.2431779999999
 31
0.0
  0
LINE
  5
8E12
330
18
100
AcDbEntity
  8
0
100
AcDbLine
 10
-70.154202
 20
-1014.243177999998
 30
0.0
 11
-120.1542019999999
 21
-1014.243177999998
 31
0.0
  0
LINE
  5
8E13
330
18
100
AcDbEntity
  8
0
100
AcDbLine
 10
-120.1542019999999
 20
-966.243178
 30
0.0
 11
-70.154202
 21
-966.243178
 31
0.0
  0
LINE
  5
8E14
330
18
100
AcDbEntity
  8
0
100
AcDbLine
 10
-120.1542019999999
 20
-964.2431779999999
 30
0.0
 11
-70.154202
 21
-964.2431779999999
 31
0.0
  0
CIRCLE
  5
8E1C
330
18
100
AcDbEntity
  8
0
100
AcDbCircle
 10
189.3457979999999
 20
-976.7431779999999
 30
0.0
 40
4.75
  0
CIRCLE
  5
8E1D
330
18
100
AcDbEntity
  8
0
100
AcDbCircle
 10
189.3457979999999
 20
-976.7431779999999
 30
0.0
 40
1.5
  0
CIRCLE
  5
8E1E
330
18
100
AcDbEntity
  8
0
100
AcDbCircle
 10
214.3457979999999
 20
-976.7431779999999
 30
0.0
 40
4.75
  0
CIRCLE
  5
8E1F
330
18
100
AcDbEntity
  8
0
100
AcDbCircle
 10
214.3457979999999
 20
-976.7431779999999
 30
0.0
 40
1.5
  0
CIRCLE
  5
8E20
330
18
100
AcDbEntity
  8
0
100
AcDbCircle
 10
201.8457979999999
 20
-1001.743177999999
 30
0.0
 40
4.75
  0
CIRCLE
  5
8E21
330
18
100
AcDbEntity
  8
0
100
AcDbCircle
 10
201.8457979999999
 20
-1001.743177999999
 30
0.0
 40
1.5
  0
LINE
  5
8E22
330
18
100
AcDbEntity
  8
0
100
AcDbLine
 10
176.8457979999999
 20
-1014.243177999998
 30
0.0
 11
176.8457979999999
 21
-964.2431779999999
 31
0.0
  0
LINE
  5
8E24
330
18
100
AcDbEntity
  8
0
100
AcDbLine
 10
-403.1542019999998
 20
-419.3072739999998
 30
0.0
 11
-403.1542019999998
 21
-766.307274
 31
0.0
  0
LINE
  5
8E25
330
18
100
AcDbEntity
  8
0
100
AcDbLine
 10
-403.1542019999998
 20
-419.3072739999998
 30
0.0
 11
-403.1542019999998
 21
-766.307274
 31
0.0
  0
LINE
  5
8E27
330
18
100
AcDbEntity
  8
0
100
AcDbLine
 10
-403.1542019999998
 20
-492.807274
 30
0.0
 11
-403.1542019999998
 21
-692.807274
 31
0.0
  0
LINE
  5
8E28
330
18
100
AcDbEntity
  8
0
100
AcDbLine
 10
-402.6542019999998
 20
-492.807274
 30
0.0
 11
-402.6542019999998
 21
-692.807274
 31
0.0
  0
LINE
  5
8E2A
330
18
100
AcDbEntity
  8
0
100
AcDbLine
 10
-303.654202
 20
-518.8072739999999
 30
0.0
 11
-303.654202
 21
-666.807274
 31
0.0
  0
LINE
  5
8E2B
330
18
100
AcDbEntity
  8
0
100
AcDbLine
 10
-402.6542019999998
 20
-518.8072739999999
 30
0.0
 11
-402.6542019999998
 21
-666.807274
 31
0.0
  0
LINE
  5
8E2C
330
18
100
AcDbEntity
  8
0
100
AcDbLine
 10
-404.654202
 20
-418.0072739999998
 30
0.0
 11
-404.654202
 21
-767.6072740000002
 31
0.0
  0
LINE
  5
8E2F
330
18
100
AcDbEntity
  8
0
100
AcDbLine
 10
-402.6542019999998
 20
-666.807274
 30
0.0
 11
-303.654202
 21
-666.807274
 31
0.0
  0
LINE
  5
8E30
330
18
100
AcDbEntity
  8
0
100
AcDbLine
 10
-353.1542019999998
 20
-716.307274
 30
0.0
 11
-403.1542019999998
 21
-716.307274
 31
0.0
  0
LINE
  5
8E31
330
18
100
AcDbEntity
  8
0
100
AcDbLine
 10
-353.1542019999998
 20
-766.307274
 30
0.0
 11
-404.654202
 21
-766.307274
 31
0.0
  0
LINE
  5
8E3A
330
18
100
AcDbEntity
  8
0
100
AcDbLine
 10
-403.1542019999998
 20
-692.807274
 30
0.0
 11
-402.6542019999998
 21
-692.807274
 31
0.0
  0
LINE
  5
8E3B
330
18
100
AcDbEntity
  8
0
100
AcDbLine
 10
-403.1542019999998
 20
-766.307274
 30
0.0
 11
-403.1542019999998
 21
-716.307274
 31
0.0
  0
CIRCLE
  5
8E40
330
18
100
AcDbEntity
  8
0
100
AcDbCircle
 10
-418.154202
 20
-741.307274
 30
0.0
 40
4.75
  0
CIRCLE
  5
8E41
330
18
100
AcDbEntity
  8
0
100
AcDbCircle
 10
-418.154202
 20
-741.307274
 30
0.0
 40
1.5
  0
LINE
  5
8E42
330
18
100
AcDbEntity
  8
0
100
AcDbLine
 10
-402.6542019999998
 20
-666.807274
 30
0.0
 11
-402.6542019999998
 21
-692.807274
 31
0.0
  0
LINE
  5
8E43
330
18
100
AcDbEntity
  8
0
100
AcDbLine
 10
-403.1542019999998
 20
-666.807274
 30
0.0
 11
-403.1542019999998
 21
-692.807274
 31
0.0
  0
LINE
  5
8E44
330
18
100
AcDbEntity
  8
0
100
AcDbLine
 10
-376.154202
 20
-735.3072739999999
 30
0.0
 11
-380.1542019999998
 21
-735.3072739999999
 31
0.0
  0
LINE
  5
8E45
330
18
100
AcDbEntity
  8
0
100
AcDbLine
 10
-380.1542019999998
 20
-747.307274
 30
0.0
 11
-376.154202
 21
-747.307274
 31
0.0
  0
ARC
  5
8E47
330
18
100
AcDbEntity
  8
0
100
AcDbCircle
 10
-376.154202
 20
-741.307274
 30
0.0
 40
6.0
100
AcDbArc
 50
270.0
 51
90.0
  0
LINE
  5
8E48
330
18
100
AcDbEntity
  8
0
100
AcDbLine
 10
-353.1542019999998
 20
-716.307274
 30
0.0
 11
-353.1542019999998
 21
-766.307274
 31
0.0
  0
ARC
  5
8E49
330
18
100
AcDbEntity
  8
0
100
AcDbCircle
 10
-380.1542019999998
 20
-741.307274
 30
0.0
 40
6.0
100
AcDbArc
 50
90.0
 51
270.0
  0
CIRCLE
  5
8E4B
330
18
100
AcDbEntity
  8
0
100
AcDbCircle
 10
-418.154202
 20
-543.307274
 30
0.0
 40
1.5
  0
CIRCLE
  5
8E4E
330
18
100
AcDbEntity
  8
0
100
AcDbCircle
 10
-418.154202
 20
-642.307274
 30
0.0
 40
4.75
  0
CIRCLE
  5
8E4F
330
18
100
AcDbEntity
  8
0
100
AcDbCircle
 10
-418.154202
 20
-642.307274
 30
0.0
 40
1.5
  0
CIRCLE
  5
8E51
330
18
100
AcDbEntity
  8
0
100
AcDbCircle
 10
-418.154202
 20
-543.307274
 30
0.0
 40
4.75
  0
LINE
  5
8E53
330
18
100
AcDbEntity
  8
0
100
AcDbLine
 10
-402.6542019999998
 20
-518.8072739999999
 30
0.0
 11
-303.654202
 21
-518.8072739999999
 31
0.0
  0
LINE
  5
8E54
330
18
100
AcDbEntity
  8
0
100
AcDbLine
 10
-353.1542019999998
 20
-419.3072739999998
 30
0.0
 11
-404.654202
 21
-419.3072739999998
 31
0.0
  0
LINE
  5
8E55
330
18
100
AcDbEntity
  8
0
100
AcDbLine
 10
-353.1542019999998
 20
-469.3072739999998
 30
0.0
 11
-403.1542019999998
 21
-469.3072739999998
 31
0.0
  0
LINE
  5
8E58
330
18
100
AcDbEntity
  8
0
100
AcDbLine
 10
-403.1542019999998
 20
-492.807274
 30
0.0
 11
-403.1542019999998
 21
-518.8072739999999
 31
0.0
  0
LINE
  5
8E5A
330
18
100
AcDbEntity
  8
0
100
AcDbLine
 10
-402.6542019999998
 20
-492.807274
 30
0.0
 11
-402.6542019999998
 21
-518.8072739999999
 31
0.0
  0
LINE
  5
8E5B
330
18
100
AcDbEntity
  8
0
100
AcDbLine
 10
-403.1542019999998
 20
-492.807274
 30
0.0
 11
-402.6542019999998
 21
-492.807274
 31
0.0
  0
LINE
  5
8E5C
330
18
100
AcDbEntity
  8
0
100
AcDbLine
 10
-403.1542019999998
 20
-469.3072739999998
 30
0.0
 11
-403.1542019999998
 21
-419.3072739999998
 31
0.0
  0
CIRCLE
  5
8E5F
330
18
100
AcDbEntity
  8
0
100
AcDbCircle
 10
-418.154202
 20
-444.3072739999998
 30
0.0
 40
4.75
  0
CIRCLE
  5
8E60
330
18
100
AcDbEntity
  8
0
100
AcDbCircle
 10
-418.154202
 20
-444.3072739999998
 30
0.0
 40
1.5
  0
LINE
  5
8E61
330
18
100
AcDbEntity
  8
0
100
AcDbLine
 10
-403.1542019999998
 20
-419.3072739999998
 30
0.0
 11
-403.1542019999998
 21
-469.3072739999998
 31
0.0
  0
ARC
  5
8E62
330
18
100
AcDbEntity
  8
0
100
AcDbCircle
 10
-376.154202
 20
-444.3072739999998
 30
0.0
 40
6.0
100
AcDbArc
 50
270.0
 51
90.0
  0
LINE
  5
8E64
330
18
100
AcDbEntity
  8
0
100
AcDbLine
 10
-380.1542019999998
 20
-438.307274
 30
0.0
 11
-376.154202
 21
-438.307274
 31
0.0
  0
LINE
  5
8E65
330
18
100
AcDbEntity
  8
0
100
AcDbLine
 10
-376.154202
 20
-450.307274
 30
0.0
 11
-380.1542019999998
 21
-450.307274
 31
0.0
  0
LINE
  5
8E66
330
18
100
AcDbEntity
  8
0
100
AcDbLine
 10
-353.1542019999998
 20
-469.3072739999998
 30
0.0
 11
-353.1542019999998
 21
-419.3072739999998
 31
0.0
  0
ARC
  5
8E67
330
18
100
AcDbEntity
  8
0
100
AcDbCircle
 10
-380.1542019999998
 20
-444.3072739999998
 30
0.0
 40
6.0
100
AcDbArc
 50
90.0
 51
270.0
  0
LINE
  5
8E68
330
18
100
AcDbEntity
  8
0
100
AcDbLine
 10
226.8457979999999
 20
-1311.243178
 30
0.0
 11
226.8457979999999
 21
-964.2431779999999
 31
0.0
  0
LINE
  5
8E69
330
18
100
AcDbEntity
  8
0
100
AcDbLine
 10
228.1457979999999
 20
-963.4431779999999
 30
0.0
 11
228.1457979999999
 21
-1310.443178
 31
0.0
  0
LINE
  5
8E6A
330
18
100
AcDbEntity
  8
0
100
AcDbLine
 10
227.3457979999999
 20
-964.2431779999999
 30
0.0
 11
227.3457979999999
 21
-1310.443178
 31
0.0
  0
LINE
  5
8E6B
330
18
100
AcDbEntity
  8
0
100
AcDbLine
 10
228.1457979999999
 20
-1310.443178
 30
0.0
 11
227.3457979999999
 21
-1310.443178
 31
0.0
  0
LINE
  5
8E6C
330
18
100
AcDbEntity
  8
0
100
AcDbLine
 10
226.8457979999999
 20
-1014.243177999998
 30
0.0
 11
226.8457979999999
 21
-964.2431779999999
 31
0.0
  0
LINE
  5
9041
330
18
100
AcDbEntity
  8
0
100
AcDbLine
 10
-688.1542019999998
 20
-965.4431779999999
 30
0.0
 11
-688.1542019999998
 21
-1310.443178
 31
0.0
  0
LINE
  5
9043
330
18
100
AcDbEntity
  8
0
100
AcDbLine
 10
-618.1542019999998
 20
-965.4431779999999
 30
0.0
 11
-618.1542019999998
 21
-1310.443178
 31
0.0
  0
LINE
  5
904F
330
18
100
AcDbEntity
  8
0
100
AcDbLine
 10
-618.1542019999998
 20
-1310.443178
 30
0.0
 11
-688.1542019999998
 21
-1310.443178
 31
0.0
  0
LINE
  5
906E
330
18
100
AcDbEntity
  8
0
100
AcDbLine
 10
-618.1542019999998
 20
-965.4431779999999
 30
0.0
 11
-688.1542019999998
 21
-965.4431779999999
 31
0.0
  0
LINE
  5
909E
330
18
100
AcDbEntity
  8
0
100
AcDbLine
 10
-953.1542020000001
 20
-964.2431779999999
 30
0.0
 11
-953.1542020000001
 21
-966.243178
 31
0.0
  0
LINE
  5
909F
330
18
100
AcDbEntity
  8
0
100
AcDbLine
 10
-619.1542019999998
 20
-767.6072740000002
 30
0.0
 11
-619.1542019999998
 21
-776.6072740000002
 31
0.0
  0
LINE
  5
90A0
330
18
100
AcDbEntity
  8
0
100
AcDbLine
 10
-687.1542019999998
 20
-767.6072740000002
 30
0.0
 11
-687.1542019999998
 21
-776.6072740000002
 31
0.0
  0
LINE
  5
90A1
330
18
100
AcDbEntity
  8
0
100
AcDbLine
 10
-619.1542019999998
 20
-767.6072740000002
 30
0.0
 11
-687.1542019999998
 21
-767.6072740000002
 31
0.0
  0
LINE
  5
90A2
330
18
100
AcDbEntity
  8
0
100
AcDbLine
 10
-618.1542019999998
 20
-788.6072740000002
 30
0.0
 11
-618.1542019999998
 21
-776.6072740000002
 31
0.0
  0
LINE
  5
90A3
330
18
100
AcDbEntity
  8
0
100
AcDbLine
 10
-688.1542019999998
 20
-788.6072740000002
 30
0.0
 11
-688.1542019999998
 21
-776.6072740000002
 31
0.0
  0
LINE
  5
90A4
330
18
100
AcDbEntity
  8
0
100
AcDbLine
 10
-618.1542019999998
 20
-788.6072740000002
 30
0.0
 11
-688.1542019999998
 21
-788.6072740000002
 31
0.0
  0
LINE
  5
90A5
330
18
100
AcDbEntity
  8
0
100
AcDbLine
 10
-618.1542019999998
 20
-776.6072740000002
 30
0.0
 11
-688.1542019999998
 21
-776.6072740000002
 31
0.0
  0
LINE
  5
9151
330
18
100
AcDbEntity
  8
0
100
AcDbLine
 10
-668.1542019999998
 20
-804.492435
 30
0.0
 11
-668.1542019999998
 21
-793.6072740000001
 31
0.0
1001
ACAD
1000
ASC_BOUNDS
1002
{
1070
    19
1005
0
1002
}
  0
ARC
  5
9152
330
18
100
AcDbEntity
  8
0
100
AcDbCircle
 10
-667.1542019999998
 20
-804.492435
 30
0.0
 40
1.0
100
AcDbArc
 50
180.0
 51
252.8197049999999
  0
ARC
  5
9153
330
18
100
AcDbEntity
  8
0
100
AcDbCircle
 10
-667.1542019999998
 20
-793.6072740000001
 30
0.0
 40
1.0
100
AcDbArc
 50
90.0
 51
180.0
  0
LINE
  5
9154
330
18
100
AcDbEntity
  8
0
100
AcDbLine
 10
-661.1542019999998
 20
-789.6072740000001
 30
0.0
 11
-661.1542019999998
 21
-788.6072740000002
 31
0.0
  0
LINE
  5
9155
330
18
100
AcDbEntity
  8
0
100
AcDbLine
 10
-645.1542019999997
 20
-789.6072740000001
 30
0.0
 11
-645.1542019999997
 21
-788.6072740000002
 31
0.0
  0
LINE
  5
9156
330
18
100
AcDbEntity
  8
0
100
AcDbLine
 10
-661.1542019999998
 20
-789.6072740000001
 30
0.0
 11
-645.1542019999997
 21
-789.6072740000001
 31
0.0
  0
LINE
  5
9157
330
18
100
AcDbEntity
  8
0
100
AcDbLine
 10
-661.1542019999998
 20
-789.6072740000001
 30
0.0
 11
-645.1542019999997
 21
-789.6072740000001
 31
0.0
  0
LINE
  5
9158
330
18
100
AcDbEntity
  8
0
100
AcDbLine
 10
-661.1542019999998
 20
-788.6072740000002
 30
0.0
 11
-645.1542019999997
 21
-788.6072740000002
 31
0.0
  0
LINE
  5
9159
330
18
100
AcDbEntity
  8
0
100
AcDbLine
 10
-638.1542019999998
 20
-804.492435
 30
0.0
 11
-638.1542019999998
 21
-793.6072740000001
 31
0.0
1001
ACAD
1000
ASC_BOUNDS
1002
{
1070
    19
1005
0
1002
}
  0
ARC
  5
915A
330
18
100
AcDbEntity
  8
0
100
AcDbCircle
 10
-639.1542019999998
 20
-804.492435
 30
0.0
 40
1.0
100
AcDbArc
 50
287.180295
 51
0.0
  0
ARC
  5
915B
330
18
100
AcDbEntity
  8
0
100
AcDbCircle
 10
-639.1542019999998
 20
-793.6072740000001
 30
0.0
 40
1.0
100
AcDbArc
 50
0.0
 51
90.0
  0
LINE
  5
915C
330
18
100
AcDbEntity
  8
0
100
AcDbLine
 10
-661.1542019999998
 20
-792.6072740000002
 30
0.0
 11
-661.1542019999998
 21
-789.6072740000001
 31
0.0
  0
LINE
  5
915D
330
18
100
AcDbEntity
  8
0
100
AcDbLine
 10
-645.1542019999997
 20
-792.6072740000002
 30
0.0
 11
-645.1542019999997
 21
-789.6072740000001
 31
0.0
  0
LINE
  5
915E
330
18
100
AcDbEntity
  8
0
100
AcDbLine
 10
-667.1542019999998
 20
-792.6072740000002
 30
0.0
 11
-639.1542019999998
 21
-792.6072740000002
 31
0.0
  0
ARC
  5
915F
330
18
100
AcDbEntity
  8
0
100
AcDbCircle
 10
-653.1542019999998
 20
-759.210618
 30
0.0
 40
48.396656
100
AcDbArc
 50
252.8197049999999
 51
287.180295
  0
LINE
  5
9160
330
18
100
AcDbEntity
  8
0
100
AcDbLine
 10
-668.1346009999998
 20
-804.6265009999999
 30
0.0
 11
-638.1738019999998
 21
-804.6265009999999
 31
0.0
1001
ACAD
1000
ASC_BOUNDS
1002
{
1070
    19
1005
0
1002
}
  0
LINE
  5
9161
330
18
100
AcDbEntity
  8
0
100
AcDbLine
 10
-668.1346009999998
 20
-793.6265009999998
 30
0.0
 11
-638.1738019999998
 21
-793.6265009999998
 31
0.0
1001
ACAD
1000
ASC_BOUNDS
1002
{
1070
    19
1005
0
1002
}
  0
CIRCLE
  5
9163
330
18
100
AcDbEntity
  8
0
100
AcDbCircle
 10
-653.1542019999998
 20
-978.4931779999999
 30
0.0
 40
15.0
  0
CIRCLE
  5
9165
330
18
100
AcDbEntity
  8
0
100
AcDbCircle
 10
-653.1542019999998
 20
-1295.443178
 30
0.0
 40
15.0
  0
LINE
  5
9194
330
18
100
AcDbEntity
  8
0
100
AcDbLine
 10
-121.4542019999999
 20
-966.4931779999999
 30
0.0
 11
-121.4542019999999
 21
-1309.493178
 31
0.0
  0
LINE
  5
9196
330
18
100
AcDbEntity
  8
0
100
AcDbLine
 10
-142.454202
 20
-965.493178
 30
0.0
 11
-142.454202
 21
-1310.493177999999
 31
0.0
  0
LINE
  5
9197
330
18
100
AcDbEntity
  8
0
100
AcDbLine
 10
-130.454202
 20
-965.493178
 30
0.0
 11
-130.454202
 21
-1310.493177999999
 31
0.0
  0
LINE
  5
9198
330
18
100
AcDbEntity
  8
0
100
AcDbLine
 10
-121.4542019999999
 20
-1309.493178
 30
0.0
 11
-130.454202
 21
-1309.493178
 31
0.0
  0
LINE
  5
919A
330
18
100
AcDbEntity
  8
0
100
AcDbLine
 10
-142.454202
 20
-1310.493177999999
 30
0.0
 11
-130.454202
 21
-1310.493177999999
 31
0.0
  0
LINE
  5
919D
330
18
100
AcDbEntity
  8
0
100
AcDbLine
 10
-121.4542019999999
 20
-966.4931779999999
 30
0.0
 11
-130.454202
 21
-966.4931779999999
 31
0.0
  0
LINE
  5
919F
330
18
100
AcDbEntity
  8
0
100
AcDbLine
 10
-142.454202
 20
-965.493178
 30
0.0
 11
-130.454202
 21
-965.493178
 31
0.0
  0
LINE
  5
91DD
330
18
100
AcDbEntity
  8
0
100
AcDbLine
 10
-145.298071
 20
-1292.493177999999
 30
0.0
 11
-142.454202
 21
-1292.493177999999
 31
0.0
  0
LINE
  5
91DE
330
18
100
AcDbEntity
  8
0
100
AcDbLine
 10
-145.298071
 20
-1298.493178
 30
0.0
 11
-142.454202
 21
-1298.493178
 31
0.0
  0
LINE
  5
91DF
330
18
100
AcDbEntity
  8
0
100
AcDbLine
 10
-142.454202
 20
-1287.493178
 30
0.0
 11
-142.454202
 21
-1303.493178
 31
0.0
  0
LINE
  5
91E0
330
18
100
AcDbEntity
  8
0
100
AcDbLine
 10
-143.454202
 20
-1287.493178
 30
0.0
 11
-143.454202
 21
-1303.493178
 31
0.0
  0
LINE
  5
91E1
330
18
100
AcDbEntity
  8
0
100
AcDbLine
 10
-145.298071
 20
-1287.493178
 30
0.0
 11
-145.298071
 21
-1303.493178
 31
0.0
  0
LINE
  5
91E2
330
18
100
AcDbEntity
  8
0
100
AcDbLine
 10
-143.454202
 20
-1303.493178
 30
0.0
 11
-142.454202
 21
-1303.493178
 31
0.0
  0
LINE
  5
91E3
330
18
100
AcDbEntity
  8
0
100
AcDbLine
 10
-148.2980709999999
 20
-1303.493178
 30
0.0
 11
-145.298071
 21
-1303.493178
 31
0.0
  0
LINE
  5
91E4
330
18
100
AcDbEntity
  8
0
100
AcDbLine
 10
-143.454202
 20
-1287.493178
 30
0.0
 11
-142.454202
 21
-1287.493178
 31
0.0
  0
LINE
  5
91E5
330
18
100
AcDbEntity
  8
0
100
AcDbLine
 10
-148.2980709999999
 20
-1287.493178
 30
0.0
 11
-145.298071
 21
-1287.493178
 31
0.0
  0
ARC
  5
91E6
330
18
100
AcDbEntity
  8
0
100
AcDbCircle
 10
-149.2980709999999
 20
-1281.493178
 30
0.0
 40
1.0
100
AcDbArc
 50
0.0
 51
90.0
  0
ARC
  5
91E7
330
18
100
AcDbEntity
  8
0
100
AcDbCircle
 10
-160.183233
 20
-1281.493178
 30
0.0
 40
1.0
100
AcDbArc
 50
90.0
 51
162.8197049999999
  0
LINE
  5
91E8
330
18
100
AcDbEntity
  8
0
100
AcDbLine
 10
-160.183233
 20
-1280.493178
 30
0.0
 11
-149.2980709999999
 21
-1280.493178
 31
0.0
1001
ACAD
1000
ASC_BOUNDS
1002
{
1070
    19
1005
0
1002
}
  0
ARC
  5
91E9
330
18
100
AcDbEntity
  8
0
100
AcDbCircle
 10
-149.2980709999999
 20
-1309.493178
 30
0.0
 40
1.0
100
AcDbArc
 50
270.0
 51
0.0
  0
ARC
  5
91EA
330
18
100
AcDbEntity
  8
0
100
AcDbCircle
 10
-160.183233
 20
-1309.493178
 30
0.0
 40
1.0
100
AcDbArc
 50
197.180295
 51
270.0
  0
LINE
  5
91EB
330
18
100
AcDbEntity
  8
0
100
AcDbLine
 10
-160.183233
 20
-1310.493177999999
 30
0.0
 11
-149.2980709999999
 21
-1310.493177999999
 31
0.0
1001
ACAD
1000
ASC_BOUNDS
1002
{
1070
    19
1005
0
1002
}
  0
LINE
  5
91EC
330
18
100
AcDbEntity
  8
0
100
AcDbLine
 10
-149.3172989999998
 20
-1280.512778
 30
0.0
 11
-149.3172989999998
 21
-1310.473577
 31
0.0
1001
ACAD
1000
ASC_BOUNDS
1002
{
1070
    19
1005
0
1002
}
  0
LINE
  5
91ED
330
18
100
AcDbEntity
  8
0
100
AcDbLine
 10
-160.317299
 20
-1280.512778
 30
0.0
 11
-160.317299
 21
-1310.473577
 31
0.0
1001
ACAD
1000
ASC_BOUNDS
1002
{
1070
    19
1005
0
1002
}
  0
ARC
  5
91EE
330
18
100
AcDbEntity
  8
0
100
AcDbCircle
 10
-114.9014149999999
 20
-1295.493178
 30
0.0
 40
48.396656
100
AcDbArc
 50
162.8197049999999
 51
197.180295
  0
LINE
  5
91EF
330
18
100
AcDbEntity
  8
0
100
AcDbLine
 10
-148.2980709999999
 20
-1281.493178
 30
0.0
 11
-148.2980709999999
 21
-1309.493178
 31
0.0
  0
LINE
  5
91F0
330
18
100
AcDbEntity
  8
0
100
AcDbLine
 10
-148.2980709999999
 20
-964.493178
 30
0.0
 11
-148.2980709999999
 21
-992.4931779999999
 31
0.0
  0
ARC
  5
91F1
330
18
100
AcDbEntity
  8
0
100
AcDbCircle
 10
-114.9014149999999
 20
-978.4931779999999
 30
0.0
 40
48.396656
100
AcDbArc
 50
162.8197049999999
 51
197.180295
  0
LINE
  5
91F2
330
18
100
AcDbEntity
  8
0
100
AcDbLine
 10
-160.317299
 20
-963.5127780000001
 30
0.0
 11
-160.317299
 21
-993.4735769999999
 31
0.0
1001
ACAD
1000
ASC_BOUNDS
1002
{
1070
    19
1005
0
1002
}
  0
LINE
  5
91F3
330
18
100
AcDbEntity
  8
0
100
AcDbLine
 10
-149.3172989999998
 20
-963.5127780000001
 30
0.0
 11
-149.3172989999998
 21
-993.4735769999999
 31
0.0
1001
ACAD
1000
ASC_BOUNDS
1002
{
1070
    19
1005
0
1002
}
  0
LINE
  5
91F4
330
18
100
AcDbEntity
  8
0
100
AcDbLine
 10
-160.183233
 20
-993.4931779999999
 30
0.0
 11
-149.2980709999999
 21
-993.4931779999999
 31
0.0
1001
ACAD
1000
ASC_BOUNDS
1002
{
1070
    19
1005
0
1002
}
  0
ARC
  5
91F5
330
18
100
AcDbEntity
  8
0
100
AcDbCircle
 10
-160.183233
 20
-992.4931779999999
 30
0.0
 40
1.0
100
AcDbArc
 50
197.180295
 51
270.0
  0
ARC
  5
91F6
330
18
100
AcDbEntity
  8
0
100
AcDbCircle
 10
-149.2980709999999
 20
-992.4931779999999
 30
0.0
 40
1.0
100
AcDbArc
 50
270.0
 51
0.0
  0
LINE
  5
91F7
330
18
100
AcDbEntity
  8
0
100
AcDbLine
 10
-148.2980709999999
 20
-970.4931779999999
 30
0.0
 11
-145.298071
 21
-970.4931779999999
 31
0.0
  0
LINE
  5
91F8
330
18
100
AcDbEntity
  8
0
100
AcDbLine
 10
-143.454202
 20
-970.4931779999999
 30
0.0
 11
-142.454202
 21
-970.4931779999999
 31
0.0
  0
LINE
  5
91F9
330
18
100
AcDbEntity
  8
0
100
AcDbLine
 10
-148.2980709999999
 20
-986.4931779999999
 30
0.0
 11
-145.298071
 21
-986.4931779999999
 31
0.0
  0
LINE
  5
91FA
330
18
100
AcDbEntity
  8
0
100
AcDbLine
 10
-143.454202
 20
-986.4931779999999
 30
0.0
 11
-142.454202
 21
-986.4931779999999
 31
0.0
  0
LINE
  5
91FB
330
18
100
AcDbEntity
  8
0
100
AcDbLine
 10
-145.298071
 20
-970.4931779999999
 30
0.0
 11
-145.298071
 21
-986.4931779999999
 31
0.0
  0
LINE
  5
91FC
330
18
100
AcDbEntity
  8
0
100
AcDbLine
 10
-143.454202
 20
-970.4931779999999
 30
0.0
 11
-143.454202
 21
-986.4931779999999
 31
0.0
  0
LINE
  5
91FD
330
18
100
AcDbEntity
  8
0
100
AcDbLine
 10
-142.454202
 20
-970.4931779999999
 30
0.0
 11
-142.454202
 21
-986.4931779999999
 31
0.0
  0
LINE
  5
91FE
330
18
100
AcDbEntity
  8
0
100
AcDbLine
 10
-145.298071
 20
-981.493178
 30
0.0
 11
-142.454202
 21
-981.493178
 31
0.0
  0
LINE
  5
91FF
330
18
100
AcDbEntity
  8
0
100
AcDbLine
 10
-145.298071
 20
-975.4931779999999
 30
0.0
 11
-142.454202
 21
-975.4931779999999
 31
0.0
  0
LINE
  5
9200
330
18
100
AcDbEntity
  8
0
100
AcDbLine
 10
-160.183233
 20
-963.493178
 30
0.0
 11
-149.2980709999999
 21
-963.493178
 31
0.0
1001
ACAD
1000
ASC_BOUNDS
1002
{
1070
    19
1005
0
1002
}
  0
ARC
  5
9201
330
18
100
AcDbEntity
  8
0
100
AcDbCircle
 10
-160.183233
 20
-964.493178
 30
0.0
 40
1.0
100
AcDbArc
 50
90.0
 51
162.8197049999999
  0
ARC
  5
9202
330
18
100
AcDbEntity
  8
0
100
AcDbCircle
 10
-149.2980709999999
 20
-964.493178
 30
0.0
 40
1.0
100
AcDbArc
 50
0.0
 51
90.0
  0
LINE
  5
920A
330
18
100
AcDbEntity
  8
0
100
AcDbLine
 10
-142.742646
 20
-1041.693178
 30
0.0
 11
-142.454202
 21
-1041.693178
 31
0.0
  0
LINE
  5
920B
330
18
100
AcDbEntity
  8
0
100
AcDbLine
 10
-142.742646
 20
-1032.293177999999
 30
0.0
 11
-142.742646
 21
-1041.693178
 31
0.0
  0
ARC
  5
920C
330
18
100
AcDbEntity
  8
0
100
AcDbCircle
 10
-138.854202
 20
-1036.993178
 30
0.0
 40
6.099999999999998
100
AcDbArc
 50
129.6019269999999
 51
230.398073
  0
LINE
  5
920D
330
18
100
AcDbEntity
  8
0
100
AcDbLine
 10
-142.454202
 20
-1032.293177999999
 30
0.0
 11
-142.454202
 21
-1041.693178
 31
0.0
  0
LINE
  5
920E
330
18
100
AcDbEntity
  8
0
100
AcDbLine
 10
-142.742646
 20
-1032.293177999999
 30
0.0
 11
-142.454202
 21
-1032.293177999999
 31
0.0
  0
LINE
  5
920F
330
18
100
AcDbEntity
  8
0
100
AcDbLine
 10
-142.742646
 20
-1232.293177999999
 30
0.0
 11
-142.454202
 21
-1232.293177999999
 31
0.0
  0
LINE
  5
9210
330
18
100
AcDbEntity
  8
0
100
AcDbLine
 10
-142.454202
 20
-1232.293177999999
 30
0.0
 11
-142.454202
 21
-1241.693178
 31
0.0
  0
ARC
  5
9211
330
18
100
AcDbEntity
  8
0
100
AcDbCircle
 10
-138.854202
 20
-1236.993178
 30
0.0
 40
6.099999999999998
100
AcDbArc
 50
129.6019269999999
 51
230.398073
  0
LINE
  5
9212
330
18
100
AcDbEntity
  8
0
100
AcDbLine
 10
-142.742646
 20
-1232.293177999999
 30
0.0
 11
-142.742646
 21
-1241.693178
 31
0.0
  0
LINE
  5
9213
330
18
100
AcDbEntity
  8
0
100
AcDbLine
 10
-142.742646
 20
-1241.693178
 30
0.0
 11
-142.454202
 21
-1241.693178
 31
0.0
  0
LINE
  5
9215
330
18
100
AcDbEntity
  8
0
100
AcDbLine
 10
-1122.023924
 20
-965.493178
 30
0.0
 11
-1122.023924
 21
-1310.493177999999
 31
0.0
  0
LINE
  5
9216
330
18
100
AcDbEntity
  8
0
100
AcDbLine
 10
-1110.023924
 20
-965.493178
 30
0.0
 11
-1110.023924
 21
-1310.493177999999
 31
0.0
  0
LINE
  5
9217
330
18
100
AcDbEntity
  8
0
100
AcDbLine
 10
-1110.023924
 20
-965.493178
 30
0.0
 11
-1122.023924
 21
-965.493178
 31
0.0
  0
LINE
  5
9218
330
18
100
AcDbEntity
  8
0
100
AcDbLine
 10
-1131.023924
 20
-966.4931779999999
 30
0.0
 11
-1122.023924
 21
-966.4931779999999
 31
0.0
  0
ARC
  5
9219
330
18
100
AcDbEntity
  8
0
100
AcDbCircle
 10
-1103.180054999999
 20
-964.493178
 30
0.0
 40
1.0
100
AcDbArc
 50
90.0
 51
180.0
  0
ARC
  5
921A
330
18
100
AcDbEntity
  8
0
100
AcDbCircle
 10
-1092.294893
 20
-964.493178
 30
0.0
 40
1.0
100
AcDbArc
 50
17.180295
 51
90.0
  0
LINE
  5
921B
330
18
100
AcDbEntity
  8
0
100
AcDbLine
 10
-1092.294893
 20
-963.493178
 30
0.0
 11
-1103.180054999999
 21
-963.493178
 31
0.0
1001
ACAD
1000
ASC_BOUNDS
1002
{
1070
    19
1005
0
1002
}
  0
LINE
  5
921C
330
18
100
AcDbEntity
  8
0
100
AcDbLine
 10
-1107.180055
 20
-975.4931779999999
 30
0.0
 11
-1110.023924
 21
-975.4931779999999
 31
0.0
  0
LINE
  5
921D
330
18
100
AcDbEntity
  8
0
100
AcDbLine
 10
-1107.180055
 20
-981.493178
 30
0.0
 11
-1110.023924
 21
-981.493178
 31
0.0
  0
LINE
  5
921E
330
18
100
AcDbEntity
  8
0
100
AcDbLine
 10
-1110.023924
 20
-970.4931779999999
 30
0.0
 11
-1110.023924
 21
-986.4931779999999
 31
0.0
  0
LINE
  5
921F
330
18
100
AcDbEntity
  8
0
100
AcDbLine
 10
-1109.023924
 20
-970.4931779999999
 30
0.0
 11
-1109.023924
 21
-986.4931779999999
 31
0.0
  0
LINE
  5
9220
330
18
100
AcDbEntity
  8
0
100
AcDbLine
 10
-1107.180055
 20
-970.4931779999999
 30
0.0
 11
-1107.180055
 21
-986.4931779999999
 31
0.0
  0
LINE
  5
9221
330
18
100
AcDbEntity
  8
0
100
AcDbLine
 10
-1109.023924
 20
-986.4931779999999
 30
0.0
 11
-1110.023924
 21
-986.4931779999999
 31
0.0
  0
LINE
  5
9222
330
18
100
AcDbEntity
  8
0
100
AcDbLine
 10
-1104.180055
 20
-986.4931779999999
 30
0.0
 11
-1107.180055
 21
-986.4931779999999
 31
0.0
  0
LINE
  5
9223
330
18
100
AcDbEntity
  8
0
100
AcDbLine
 10
-1109.023924
 20
-970.4931779999999
 30
0.0
 11
-1110.023924
 21
-970.4931779999999
 31
0.0
  0
LINE
  5
9224
330
18
100
AcDbEntity
  8
0
100
AcDbLine
 10
-1104.180055
 20
-970.4931779999999
 30
0.0
 11
-1107.180055
 21
-970.4931779999999
 31
0.0
  0
ARC
  5
9225
330
18
100
AcDbEntity
  8
0
100
AcDbCircle
 10
-1103.180054999999
 20
-992.4931779999999
 30
0.0
 40
1.0
100
AcDbArc
 50
180.0
 51
270.0
  0
ARC
  5
9226
330
18
100
AcDbEntity
  8
0
100
AcDbCircle
 10
-1092.294893
 20
-992.4931779999999
 30
0.0
 40
1.0
100
AcDbArc
 50
270.0
 51
342.819705
  0
LINE
  5
9227
330
18
100
AcDbEntity
  8
0
100
AcDbLine
 10
-1092.294893
 20
-993.4931779999999
 30
0.0
 11
-1103.180054999999
 21
-993.4931779999999
 31
0.0
1001
ACAD
1000
ASC_BOUNDS
1002
{
1070
    19
1005
0
1002
}
  0
LINE
  5
9228
330
18
100
AcDbEntity
  8
0
100
AcDbLine
 10
-1103.160826999999
 20
-963.5127780000001
 30
0.0
 11
-1103.160826999999
 21
-993.4735769999999
 31
0.0
1001
ACAD
1000
ASC_BOUNDS
1002
{
1070
    19
1005
0
1002
}
  0
LINE
  5
9229
330
18
100
AcDbEntity
  8
0
100
AcDbLine
 10
-1092.160827
 20
-963.5127780000001
 30
0.0
 11
-1092.160827
 21
-993.4735769999999
 31
0.0
1001
ACAD
1000
ASC_BOUNDS
1002
{
1070
    19
1005
0
1002
}
  0
ARC
  5
922A
330
18
100
AcDbEntity
  8
0
100
AcDbCircle
 10
-1137.576711
 20
-978.4931779999999
 30
0.0
 40
48.396656
100
AcDbArc
 50
342.819705
 51
17.180295
  0
LINE
  5
922B
330
18
100
AcDbEntity
  8
0
100
AcDbLine
 10
-1104.180055
 20
-964.493178
 30
0.0
 11
-1104.180055
 21
-992.4931779999999
 31
0.0
  0
LINE
  5
922C
330
18
100
AcDbEntity
  8
0
100
AcDbLine
 10
-1109.73548
 20
-1032.293177999999
 30
0.0
 11
-1110.023924
 21
-1032.293177999999
 31
0.0
  0
LINE
  5
922D
330
18
100
AcDbEntity
  8
0
100
AcDbLine
 10
-1110.023924
 20
-1032.293177999999
 30
0.0
 11
-1110.023924
 21
-1041.693178
 31
0.0
  0
ARC
  5
922E
330
18
100
AcDbEntity
  8
0
100
AcDbCircle
 10
-1113.623924
 20
-1036.993178
 30
0.0
 40
6.099999999999998
100
AcDbArc
 50
309.6019269999998
 51
50.39807299999999
  0
LINE
  5
922F
330
18
100
AcDbEntity
  8
0
100
AcDbLine
 10
-1109.73548
 20
-1032.293177999999
 30
0.0
 11
-1109.73548
 21
-1041.693178
 31
0.0
  0
LINE
  5
9230
330
18
100
AcDbEntity
  8
0
100
AcDbLine
 10
-1109.73548
 20
-1041.693178
 30
0.0
 11
-1110.023924
 21
-1041.693178
 31
0.0
  0
LINE
  5
9232
330
18
100
AcDbEntity
  8
0
100
AcDbLine
 10
-1109.73548
 20
-1241.693178
 30
0.0
 11
-1110.023924
 21
-1241.693178
 31
0.0
  0
LINE
  5
9233
330
18
100
AcDbEntity
  8
0
100
AcDbLine
 10
-1109.73548
 20
-1232.293177999999
 30
0.0
 11
-1109.73548
 21
-1241.693178
 31
0.0
  0
ARC
  5
9234
330
18
100
AcDbEntity
  8
0
100
AcDbCircle
 10
-1113.623924
 20
-1236.993178
 30
0.0
 40
6.099999999999998
100
AcDbArc
 50
309.6019269999998
 51
50.39807299999999
  0
LINE
  5
9235
330
18
100
AcDbEntity
  8
0
100
AcDbLine
 10
-1110.023924
 20
-1232.293177999999
 30
0.0
 11
-1110.023924
 21
-1241.693178
 31
0.0
  0
LINE
  5
9236
330
18
100
AcDbEntity
  8
0
100
AcDbLine
 10
-1109.73548
 20
-1232.293177999999
 30
0.0
 11
-1110.023924
 21
-1232.293177999999
 31
0.0
  0
LINE
  5
9238
330
18
100
AcDbEntity
  8
0
100
AcDbLine
 10
-1104.180055
 20
-1281.493178
 30
0.0
 11
-1104.180055
 21
-1309.493178
 31
0.0
  0
ARC
  5
9239
330
18
100
AcDbEntity
  8
0
100
AcDbCircle
 10
-1137.576711
 20
-1295.493178
 30
0.0
 40
48.396656
100
AcDbArc
 50
342.819705
 51
17.180295
  0
LINE
  5
923A
330
18
100
AcDbEntity
  8
0
100
AcDbLine
 10
-1092.160827
 20
-1280.512778
 30
0.0
 11
-1092.160827
 21
-1310.473577
 31
0.0
1001
ACAD
1000
ASC_BOUNDS
1002
{
1070
    19
1005
0
1002
}
  0
LINE
  5
923B
330
18
100
AcDbEntity
  8
0
100
AcDbLine
 10
-1103.160826999999
 20
-1280.512778
 30
0.0
 11
-1103.160826999999
 21
-1310.473577
 31
0.0
1001
ACAD
1000
ASC_BOUNDS
1002
{
1070
    19
1005
0
1002
}
  0
LINE
  5
923C
330
18
100
AcDbEntity
  8
0
100
AcDbLine
 10
-1092.294893
 20
-1310.493177999999
 30
0.0
 11
-1103.180054999999
 21
-1310.493177999999
 31
0.0
1001
ACAD
1000
ASC_BOUNDS
1002
{
1070
    19
1005
0
1002
}
  0
ARC
  5
923D
330
18
100
AcDbEntity
  8
0
100
AcDbCircle
 10
-1092.294893
 20
-1309.493178
 30
0.0
 40
1.0
100
AcDbArc
 50
270.0
 51
342.819705
  0
ARC
  5
923E
330
18
100
AcDbEntity
  8
0
100
AcDbCircle
 10
-1103.180054999999
 20
-1309.493178
 30
0.0
 40
1.0
100
AcDbArc
 50
180.0
 51
270.0
  0
LINE
  5
923F
330
18
100
AcDbEntity
  8
0
100
AcDbLine
 10
-1104.180055
 20
-1287.493178
 30
0.0
 11
-1107.180055
 21
-1287.493178
 31
0.0
  0
LINE
  5
9240
330
18
100
AcDbEntity
  8
0
100
AcDbLine
 10
-1109.023924
 20
-1287.493178
 30
0.0
 11
-1110.023924
 21
-1287.493178
 31
0.0
  0
LINE
  5
9241
330
18
100
AcDbEntity
  8
0
100
AcDbLine
 10
-1104.180055
 20
-1303.493178
 30
0.0
 11
-1107.180055
 21
-1303.493178
 31
0.0
  0
LINE
  5
9242
330
18
100
AcDbEntity
  8
0
100
AcDbLine
 10
-1109.023924
 20
-1303.493178
 30
0.0
 11
-1110.023924
 21
-1303.493178
 31
0.0
  0
LINE
  5
9243
330
18
100
AcDbEntity
  8
0
100
AcDbLine
 10
-1107.180055
 20
-1287.493178
 30
0.0
 11
-1107.180055
 21
-1303.493178
 31
0.0
  0
LINE
  5
9244
330
18
100
AcDbEntity
  8
0
100
AcDbLine
 10
-1109.023924
 20
-1287.493178
 30
0.0
 11
-1109.023924
 21
-1303.493178
 31
0.0
  0
LINE
  5
9245
330
18
100
AcDbEntity
  8
0
100
AcDbLine
 10
-1110.023924
 20
-1287.493178
 30
0.0
 11
-1110.023924
 21
-1303.493178
 31
0.0
  0
LINE
  5
9246
330
18
100
AcDbEntity
  8
0
100
AcDbLine
 10
-1107.180055
 20
-1298.493178
 30
0.0
 11
-1110.023924
 21
-1298.493178
 31
0.0
  0
LINE
  5
9247
330
18
100
AcDbEntity
  8
0
100
AcDbLine
 10
-1107.180055
 20
-1292.493177999999
 30
0.0
 11
-1110.023924
 21
-1292.493177999999
 31
0.0
  0
LINE
  5
9248
330
18
100
AcDbEntity
  8
0
100
AcDbLine
 10
-1092.294893
 20
-1280.493178
 30
0.0
 11
-1103.180054999999
 21
-1280.493178
 31
0.0
1001
ACAD
1000
ASC_BOUNDS
1002
{
1070
    19
1005
0
1002
}
  0
ARC
  5
9249
330
18
100
AcDbEntity
  8
0
100
AcDbCircle
 10
-1092.294893
 20
-1281.493178
 30
0.0
 40
1.0
100
AcDbArc
 50
17.180295
 51
90.0
  0
ARC
  5
924A
330
18
100
AcDbEntity
  8
0
100
AcDbCircle
 10
-1103.180054999999
 20
-1281.493178
 30
0.0
 40
1.0
100
AcDbArc
 50
90.0
 51
180.0
  0
LINE
  5
924B
330
18
100
AcDbEntity
  8
0
100
AcDbLine
 10
-1110.023924
 20
-1310.493177999999
 30
0.0
 11
-1122.023924
 21
-1310.493177999999
 31
0.0
  0
LINE
  5
924E
330
18
100
AcDbEntity
  8
0
100
AcDbLine
 10
-1131.023924
 20
-1309.493178
 30
0.0
 11
-1122.023924
 21
-1309.493178
 31
0.0
  0
LINE
  5
924F
330
18
100
AcDbEntity
  8
0
100
AcDbLine
 10
-1131.023924
 20
-966.4931779999999
 30
0.0
 11
-1131.023924
 21
-1309.493178
 31
0.0
  0
LINE
  5
9286
330
18
100
AcDbEntity
  8
0
100
AcDbLine
 10
-1131.023924
 20
-981.493178
 30
0.0
 11
-1134.180055
 21
-981.493178
 31
0.0
  0
LINE
  5
9287
330
18
100
AcDbEntity
  8
0
100
AcDbLine
 10
-1131.023924
 20
-975.4931779999999
 30
0.0
 11
-1134.180055
 21
-975.4931779999999
 31
0.0
  0
LINE
  5
9288
330
18
100
AcDbEntity
  8
0
100
AcDbLine
 10
-1133.180055
 20
-974.4931779999999
 30
0.0
 11
-1135.180054999999
 21
-976.4931779999999
 31
0.0
  0
LINE
  5
9289
330
18
100
AcDbEntity
  8
0
100
AcDbLine
 10
-1133.180055
 20
-982.493178
 30
0.0
 11
-1135.180054999999
 21
-980.493178
 31
0.0
  0
LINE
  5
928A
330
18
100
AcDbEntity
  8
0
100
AcDbLine
 10
-1134.180055
 20
-975.4931779999999
 30
0.0
 11
-1134.180055
 21
-981.493178
 31
0.0
  0
LINE
  5
928B
330
18
100
AcDbEntity
  8
0
100
AcDbLine
 10
-1135.180054999999
 20
-976.4931779999999
 30
0.0
 11
-1135.180054999999
 21
-980.493178
 31
0.0
  0
LINE
  5
928C
330
18
100
AcDbEntity
  8
0
100
AcDbLine
 10
-1131.023924
 20
-974.4931779999999
 30
0.0
 11
-1133.180055
 21
-974.4931779999999
 31
0.0
  0
LINE
  5
928D
330
18
100
AcDbEntity
  8
0
100
AcDbLine
 10
-1131.023924
 20
-982.493178
 30
0.0
 11
-1133.180055
 21
-982.493178
 31
0.0
  0
LINE
  5
928F
330
18
100
AcDbEntity
  8
0
100
AcDbLine
 10
-1131.023924
 20
-1299.493178
 30
0.0
 11
-1133.180055
 21
-1299.493178
 31
0.0
  0
LINE
  5
9290
330
18
100
AcDbEntity
  8
0
100
AcDbLine
 10
-1131.023924
 20
-1291.493178
 30
0.0
 11
-1133.180055
 21
-1291.493178
 31
0.0
  0
LINE
  5
9291
330
18
100
AcDbEntity
  8
0
100
AcDbLine
 10
-1135.180054999999
 20
-1293.493178
 30
0.0
 11
-1135.180054999999
 21
-1297.493178
 31
0.0
  0
LINE
  5
9292
330
18
100
AcDbEntity
  8
0
100
AcDbLine
 10
-1134.180055
 20
-1292.493177999999
 30
0.0
 11
-1134.180055
 21
-1298.493178
 31
0.0
  0
LINE
  5
9293
330
18
100
AcDbEntity
  8
0
100
AcDbLine
 10
-1133.180055
 20
-1299.493178
 30
0.0
 11
-1135.180054999999
 21
-1297.493178
 31
0.0
  0
LINE
  5
9294
330
18
100
AcDbEntity
  8
0
100
AcDbLine
 10
-1133.180055
 20
-1291.493178
 30
0.0
 11
-1135.180054999999
 21
-1293.493178
 31
0.0
  0
LINE
  5
9295
330
18
100
AcDbEntity
  8
0
100
AcDbLine
 10
-1131.023924
 20
-1292.493177999999
 30
0.0
 11
-1134.180055
 21
-1292.493177999999
 31
0.0
  0
LINE
  5
9296
330
18
100
AcDbEntity
  8
0
100
AcDbLine
 10
-1131.023924
 20
-1298.493178
 30
0.0
 11
-1134.180055
 21
-1298.493178
 31
0.0
  0
LINE
  5
92B6
330
18
100
AcDbEntity
  8
0
100
AcDbLine
 10
-1203.277541
 20
-1144.348597
 30
0.0
 11
-1205.970362
 21
-1142.619806
 31
0.0
  0
LINE
  5
92D5
330
18
100
AcDbEntity
  8
0
100
AcDbLine
 10
-1292.53037
 20
-1256.893178
 30
0.0
 11
-1446.523924
 21
-1018.114710999998
 31
0.0
  0
LINE
  5
92D6
330
18
100
AcDbEntity
  8
0
100
AcDbLine
 10
-1295.981156999999
 20
-1256.893178
 30
0.0
 11
-1446.523924
 21
-1023.465411999999
 31
0.0
  0
LINE
  5
92DB
330
18
100
AcDbEntity
  8
0
100
AcDbLine
 10
-1285.017478
 20
-1256.893178
 30
0.0
 11
-1131.023924
 21
-1018.114710999998
 31
0.0
  0
LINE
  5
92DC
330
18
100
AcDbEntity
  8
0
100
AcDbLine
 10
-1281.566692
 20
-1256.893178
 30
0.0
 11
-1131.023924
 21
-1023.465411999999
 31
0.0
  0
LINE
  5
92DD
330
18
100
AcDbEntity
  8
0
100
AcDbLine
 10
-1281.566692
 20
-1018.593178
 30
0.0
 11
-1131.023924
 21
-1252.020943999998
 31
0.0
  0
LINE
  5
92DE
330
18
100
AcDbEntity
  8
0
100
AcDbLine
 10
-1285.017478
 20
-1018.593178
 30
0.0
 11
-1131.023924
 21
-1257.371645
 31
0.0
  0
LINE
  5
92DF
330
18
100
AcDbEntity
  8
0
100
AcDbLine
 10
-1292.53037
 20
-1018.593178
 30
0.0
 11
-1446.523924
 21
-1257.371645
 31
0.0
  0
LINE
  5
92E0
330
18
100
AcDbEntity
  8
0
100
AcDbLine
 10
-1295.981156999999
 20
-1018.593178
 30
0.0
 11
-1446.523924
 21
-1252.020943999998
 31
0.0
  0
CIRCLE
  5
9345
330
18
100
AcDbEntity
  8
0
100
AcDbCircle
 10
-70.154202
 20
-1276.243178
 30
0.0
 40
16.65
  0
LINE
  5
9786
330
18
100
AcDbEntity
  8
0
100
AcDbLine
 10
-1807.623923999999
 20
-1310.443178
 30
0.0
 11
-1807.623923999999
 21
-963.4431779999999
 31
0.0
  0
LINE
  5
9787
330
18
100
AcDbEntity
  8
0
100
AcDbLine
 10
-1806.823923999999
 20
-1310.443178
 30
0.0
 11
-1806.823923999999
 21
-964.2431779999999
 31
0.0
  0
LINE
  5
9788
330
18
100
AcDbEntity
  8
0
100
AcDbLine
 10
-1806.823923999999
 20
-1310.443178
 30
0.0
 11
-1807.623923999999
 21
-1310.443178
 31
0.0
  0
LINE
  5
9789
330
18
100
AcDbEntity
  8
0
100
AcDbLine
 10
-1807.623923999999
 20
-963.4431779999999
 30
0.0
 11
-1458.023924
 21
-963.4431779999999
 31
0.0
  0
LINE
  5
978A
330
18
100
AcDbEntity
  8
0
100
AcDbLine
 10
-1806.823923999999
 20
-964.2431779999999
 30
0.0
 11
-1458.823924
 21
-964.2431779999999
 31
0.0
  0
LINE
  5
978B
330
18
100
AcDbEntity
  8
0
100
AcDbLine
 10
-1458.823924
 20
-964.2431779999999
 30
0.0
 11
-1458.823924
 21
-1310.443178
 31
0.0
  0
LINE
  5
978C
330
18
100
AcDbEntity
  8
0
100
AcDbLine
 10
-1458.023924
 20
-963.4431779999999
 30
0.0
 11
-1458.023924
 21
-1310.443178
 31
0.0
  0
LINE
  5
978D
330
18
100
AcDbEntity
  8
0
100
AcDbLine
 10
-1458.023924
 20
-1310.443178
 30
0.0
 11
-1458.823924
 21
-1310.443178
 31
0.0
  0
TEXT
  5
98E7
330
18
100
AcDbEntity
  8
0
100
AcDbText
 10
-518.1542020000001
 20
-1266.243178
 30
0.0
 40
4.0
  1
Serial No, H
  7
RCEXFONT
100
AcDbText
  0
LINE
  5
98E8
330
18
100
AcDbEntity
  8
0
100
AcDbLine
 10
-521.1542019999999
 20
-1251.243178
 30
0.0
 11
-445.1542019999999
 21
-1251.243178
 31
0.0
  0
LINE
  5
98E9
330
18
100
AcDbEntity
  8
0
100
AcDbLine
 10
-445.1542019999999
 20
-1271.243177999999
 30
0.0
 11
-521.1542019999999
 21
-1271.243177999999
 31
0.0
  0
LINE
  5
98EA
330
18
100
AcDbEntity
  8
0
100
AcDbLine
 10
-519.1542019999999
 20
-1253.243177999999
 30
0.0
 11
-447.1542019999999
 21
-1253.243177999999
 31
0.0
  0
LINE
  5
98EB
330
18
100
AcDbEntity
  8
0
100
AcDbLine
 10
-447.1542019999999
 20
-1269.243177999999
 30
0.0
 11
-519.1542019999999
 21
-1269.243177999999
 31
0.0
  0
LINE
  5
98EC
330
18
100
AcDbEntity
  8
0
100
AcDbLine
 10
-523.1542019999999
 20
-1269.243177999999
 30
0.0
 11
-523.1542019999999
 21
-1253.243177999999
 31
0.0
  0
ARC
  5
98ED
330
18
100
AcDbEntity
  8
0
100
AcDbCircle
 10
-519.1542019999999
 20
-1255.243177999999
 30
0.0
 40
2.0
100
AcDbArc
 50
90.0
 51
180.0
  0
LINE
  5
98EF
330
18
100
AcDbEntity
  8
0
100
AcDbLine
 10
-521.1542019999999
 20
-1267.243178
 30
0.0
 11
-521.1542019999999
 21
-1255.243177999999
 31
0.0
  0
ARC
  5
98F0
330
18
100
AcDbEntity
  8
0
100
AcDbCircle
 10
-521.1542019999999
 20
-1269.243177999999
 30
0.0
 40
2.0
100
AcDbArc
 50
180.0
 51
270.0
  0
ARC
  5
98F1
330
18
100
AcDbEntity
  8
0
100
AcDbCircle
 10
-519.1542019999999
 20
-1267.243178
 30
0.0
 40
2.0
100
AcDbArc
 50
180.0
 51
270.0
  0
ARC
  5
98F2
330
18
100
AcDbEntity
  8
0
100
AcDbCircle
 10
-521.1542019999999
 20
-1253.243177999999
 30
0.0
 40
2.0
100
AcDbArc
 50
90.0
 51
180.0
  0
LINE
  5
98F3
330
18
100
AcDbEntity
  8
0
100
AcDbLine
 10
-443.1542020000001
 20
-1253.243177999999
 30
0.0
 11
-443.1542020000001
 21
-1269.243177999999
 31
0.0
  0
ARC
  5
98F4
330
18
100
AcDbEntity
  8
0
100
AcDbCircle
 10
-447.1542019999999
 20
-1255.243177999999
 30
0.0
 40
2.0
100
AcDbArc
 50
0.0
 51
90.0
  0
LINE
  5
98F5
330
18
100
AcDbEntity
  8
0
100
AcDbLine
 10
-445.1542019999999
 20
-1255.243177999999
 30
0.0
 11
-445.1542019999999
 21
-1267.243178
 31
0.0
  0
ARC
  5
98F6
330
18
100
AcDbEntity
  8
0
100
AcDbCircle
 10
-445.1542019999999
 20
-1269.243177999999
 30
0.0
 40
2.0
100
AcDbArc
 50
270.0
 51
0.0
  0
ARC
  5
98F7
330
18
100
AcDbEntity
  8
0
100
AcDbCircle
 10
-447.1542019999999
 20
-1267.243178
 30
0.0
 40
2.0
100
AcDbArc
 50
270.0
 51
0.0
  0
ARC
  5
98F8
330
18
100
AcDbEntity
  8
0
100
AcDbCircle
 10
-445.1542019999999
 20
-1253.243177999999
 30
0.0
 40
2.0
100
AcDbArc
 50
0.0
 51
90.0
  0
LINE
  5
98F9
330
18
100
AcDbEntity
  8
0
100
AcDbLine
 10
-763.1542019999998
 20
-1142.743177999999
 30
0.0
 11
-853.1542019999998
 21
-1142.743177999999
 31
0.0
  0
LINE
  5
98FA
330
18
100
AcDbEntity
  8
0
100
AcDbLine
 10
-853.1542019999998
 20
-1132.743177999999
 30
0.0
 11
-763.1542019999998
 21
-1132.743177999999
 31
0.0
  0
LINE
  5
98FB
330
18
100
AcDbEntity
  8
0
100
AcDbLine
 10
-853.1542019999998
 20
-1142.743177999999
 30
0.0
 11
-853.1542019999998
 21
-1132.743177999999
 31
0.0
  0
LINE
  5
98FC
330
18
100
AcDbEntity
  8
0
100
AcDbLine
 10
-733.1542019999998
 20
-1137.743178
 30
0.0
 11
-763.1542019999998
 21
-1150.243177999999
 31
0.0
  0
LINE
  5
98FD
330
18
100
AcDbEntity
  8
0
100
AcDbLine
 10
-763.1542019999998
 20
-1125.243178
 30
0.0
 11
-733.1542019999998
 21
-1137.743178
 31
0.0
  0
LINE
  5
98FE
330
18
100
AcDbEntity
  8
0
100
AcDbLine
 10
-763.1542019999998
 20
-1125.243178
 30
0.0
 11
-763.1542019999998
 21
-1132.743177999999
 31
0.0
  0
LINE
  5
98FF
330
18
100
AcDbEntity
  8
0
100
AcDbLine
 10
-763.1542019999998
 20
-1142.743177999999
 30
0.0
 11
-763.1542019999998
 21
-1150.243177999999
 31
0.0
  0
CIRCLE
  5
9926
330
18
100
AcDbEntity
  8
0
100
AcDbCircle
 10
-653.1542019999998
 20
-1236.993178
 30
0.0
 40
4.700002999999998
  0
LINE
  5
9927
330
18
100
AcDbEntity
  8
0
100
AcDbLine
 10
-654.6497335545939
 20
-1238.488709554594
 30
0.0
 11
-651.6586704454058
 21
-1235.497646445406
 31
0.0
  0
LINE
  5
9928
330
18
100
AcDbEntity
  8
0
100
AcDbLine
 10
-654.6497335545939
 20
-1235.497646445406
 30
0.0
 11
-651.6586704454058
 21
-1238.488709554594
 31
0.0
  0
CIRCLE
  5
992B
330
18
100
AcDbEntity
  8
0
100
AcDbCircle
 10
-653.1542019999998
 20
-1036.993178
 30
0.0
 40
4.700002999999998
  0
LINE
  5
992C
330
18
100
AcDbEntity
  8
0
100
AcDbLine
 10
-654.6497335545939
 20
-1038.488709554594
 30
0.0
 11
-651.6586704454058
 21
-1035.497646445405
 31
0.0
  0
LINE
  5
992D
330
18
100
AcDbEntity
  8
0
100
AcDbLine
 10
-654.6497335545939
 20
-1035.497646445405
 30
0.0
 11
-651.6586704454058
 21
-1038.488709554594
 31
0.0
  0
LWPOLYLINE
  5
9A5E
330
18
100
AcDbEntity
  8
0
100
AcDbPolyline
 90
        3
 70
     0
 43
1.0
 10
-492.9542030000002
 20
-1258.443178
 42
0.4142140000000002
 10
-491.5542030000001
 20
-1257.043177999999
 42
0.4142140000000002
 10
-492.9542030000002
 20
-1255.643178
 42
1.0
  0
SOLID
  5
9A5F
330
18
100
AcDbEntity
  8
0
100
AcDbTrace
 10
-513.6542020000002
 20
-1257.743178
 30
0.0
 11
-513.6542020000002
 21
-1257.843177999999
 31
0.0
 12
-513.9639850000001
 22
-1257.71693
 32
0.0
 13
-513.9913840000001
 23
-1257.875757999999
 33
0.0
  0
SOLID
  5
9A60
330
18
100
AcDbEntity
  8
0
100
AcDbTrace
 10
-514.6542020000001
 20
-1255.143178
 30
0.0
 11
-513.6542020000002
 21
-1255.143178
 31
0.0
 12
-514.6542020000001
 22
-1257.743178
 32
0.0
 13
-513.6542020000002
 23
-1257.743178
 33
0.0
  0
LWPOLYLINE
  5
9A61
330
18
100
AcDbEntity
  8
0
100
AcDbPolyline
 90
        2
 70
     0
 43
0.7
 10
-514.9542020000001
 20
-1258.393178
 42
0.4142140000000002
 10
-514.3042020000001
 20
-1257.743178
 42
1.0
  0
LWPOLYLINE
  5
9A62
330
18
100
AcDbEntity
  8
0
100
AcDbPolyline
 90
        2
 70
     0
 43
0.5086000000000001
 10
-514.7542020000002
 20
-1258.688878
 42
0.4142140000000002
 10
-513.9085020000001
 20
-1257.843177999999
 42
1.0
  0
LWPOLYLINE
  5
9A63
330
18
100
AcDbEntity
  8
0
100
AcDbPolyline
 90
        2
 70
     0
 43
0.6488000000000002
 10
-514.9542020000001
 20
-1256.867578
 42
0.4142140000000002
 10
-514.3298020000002
 20
-1256.243178
 42
1.0
  0
LINE
  5
9A64
330
18
100
AcDbEntity
  8
0
100
AcDbLine
 10
-514.6542020000001
 20
-1255.143178
 30
0.0
 11
-513.6542020000002
 21
-1255.143178
 31
0.0
  0
ARC
  5
9A65
330
18
100
AcDbEntity
  8
0
100
AcDbCircle
 10
-514.7542020000002
 20
-1257.843177999999
 30
0.0
 40
1.1
100
AcDbArc
 50
270.0000200000019
 51
0.0
  0
SOLID
  5
9A66
330
18
100
AcDbEntity
  8
0
100
AcDbTrace
 10
-516.9542020000001
 20
-1257.443177999999
 30
0.0
 11
-516.8542020000002
 21
-1257.443177999999
 31
0.0
 12
-516.9869700000001
 22
-1256.905704
 32
0.0
 13
-516.6977950000001
 23
-1256.866454
 33
0.0
  0
LINE
  5
9A67
330
18
100
AcDbEntity
  8
0
100
AcDbLine
 10
-516.9542020000001
 20
-1257.443177999999
 30
0.0
 11
-514.9542020000001
 21
-1257.443177999999
 31
0.0
  0
SOLID
  5
9A68
330
18
100
AcDbEntity
  8
0
100
AcDbTrace
 10
-517.5542020000001
 20
-1258.043178
 30
0.0
 11
-517.5542020000001
 21
-1258.943177999999
 31
0.0
 12
-514.9542020000001
 22
-1258.043178
 32
0.0
 13
-514.9542020000001
 23
-1258.943177999999
 33
0.0
  0
LWPOLYLINE
  5
9A69
330
18
100
AcDbEntity
  8
0
100
AcDbPolyline
 90
        2
 70
     0
 43
0.5
 10
-517.9042020000001
 20
-1256.243178
 42
0.4142140000000002
 10
-516.9542020000001
 20
-1257.193178
 42
1.0
  0
LWPOLYLINE
  5
9A6A
330
18
100
AcDbEntity
  8
0
100
AcDbPolyline
 90
        2
 70
     0
 43
0.5
 10
-517.4042020000001
 20
-1256.243178
 42
0.4142140000000002
 10
-516.8542020000002
 20
-1256.793177999999
 42
1.0
  0
LINE
  5
9A6B
330
18
100
AcDbEntity
  8
0
100
AcDbLine
 10
-517.5542020000001
 20
-1258.043178
 30
0.0
 11
-514.9542020000001
 21
-1258.043178
 31
0.0
  0
LINE
  5
9A6C
330
18
100
AcDbEntity
  8
0
100
AcDbLine
 10
-517.5542020000001
 20
-1258.943177999999
 30
0.0
 11
-514.7542020000002
 21
-1258.943177999999
 31
0.0
  0
ARC
  5
9A6D
330
18
100
AcDbEntity
  8
0
100
AcDbCircle
 10
-516.8542020000002
 20
-1256.243178
 30
0.0
 40
0.3
100
AcDbArc
 50
179.9999799999979
 51
270.0000300000029
  0
LWPOLYLINE
  5
9A6E
330
18
100
AcDbEntity
  8
0
100
AcDbPolyline
 90
        2
 70
     0
 43
1.0
 10
-517.6542020000002
 20
-1256.243178
 10
-517.6542020000002
 20
-1255.143178
  0
LINE
  5
9A6F
330
18
100
AcDbEntity
  8
0
100
AcDbLine
 10
-518.1542020000001
 20
-1255.143178
 30
0.0
 11
-518.1542020000001
 21
-1256.243178
 31
0.0
  0
LINE
  5
9A70
330
18
100
AcDbEntity
  8
0
100
AcDbLine
 10
-518.1542020000001
 20
-1255.143178
 30
0.0
 11
-517.1542020000002
 21
-1255.143178
 31
0.0
  0
LINE
  5
9A71
330
18
100
AcDbEntity
  8
0
100
AcDbLine
 10
-517.1542020000002
 20
-1255.143178
 30
0.0
 11
-517.1542020000002
 21
-1256.243178
 31
0.0
  0
LINE
  5
9A72
330
18
100
AcDbEntity
  8
0
100
AcDbLine
 10
-517.5542020000001
 20
-1258.043178
 30
0.0
 11
-517.5542020000001
 21
-1258.943177999999
 31
0.0
  0
ARC
  5
9A73
330
18
100
AcDbEntity
  8
0
100
AcDbCircle
 10
-516.9542020000001
 20
-1256.243178
 30
0.0
 40
1.199999999999999
100
AcDbArc
 50
179.9999799999979
 51
270.0000300000029
  0
SOLID
  5
9A74
330
18
100
AcDbEntity
  8
0
100
AcDbTrace
 10
-514.9542020000001
 20
-1258.943177999999
 30
0.0
 11
-514.7542020000002
 21
-1258.943177999999
 31
0.0
 12
-514.9669340000001
 22
-1258.747108999999
 32
0.0
 13
-514.7389060000001
 23
-1258.691066999999
 33
0.0
  0
SOLID
  5
9A75
330
18
100
AcDbEntity
  8
0
100
AcDbTrace
 10
-514.9542020000001
 20
-1258.043178
 30
0.0
 11
-514.9542020000001
 21
-1258.943177999999
 31
0.0
 12
-514.9542020000001
 22
-1258.943177999999
 32
0.0
 13
-514.7542020000002
 23
-1258.943177999999
 33
0.0
  0
SOLID
  5
9A76
330
18
100
AcDbEntity
  8
0
100
AcDbTrace
 10
-516.8542020000002
 20
-1257.443177999999
 30
0.0
 11
-516.8542020000002
 21
-1256.543178
 31
0.0
 12
-514.9542020000001
 22
-1257.443177999999
 32
0.0
 13
-514.9542020000001
 23
-1256.543178
 33
0.0
  0
LWPOLYLINE
  5
9A77
330
18
100
AcDbEntity
  8
0
100
AcDbPolyline
 90
        2
 70
     0
 43
0.3
 10
-514.9542020000001
 20
-1257.293178
 42
0.4142140000000002
 10
-514.8042020000001
 20
-1257.143178
 42
0.4142140000000002
  0
LINE
  5
9A78
330
18
100
AcDbEntity
  8
0
100
AcDbLine
 10
-516.8542020000002
 20
-1256.543178
 30
0.0
 11
-514.9542020000001
 21
-1256.543178
 31
0.0
  0
LINE
  5
9A79
330
18
100
AcDbEntity
  8
0
100
AcDbLine
 10
-514.6542020000001
 20
-1255.143178
 30
0.0
 11
-514.6542020000001
 21
-1256.243178
 31
0.0
  0
LINE
  5
9A7A
330
18
100
AcDbEntity
  8
0
100
AcDbLine
 10
-514.6542020000001
 20
-1257.143178
 30
0.0
 11
-514.6542020000001
 21
-1257.743178
 31
0.0
  0
ARC
  5
9A7B
330
18
100
AcDbEntity
  8
0
100
AcDbCircle
 10
-514.9542020000001
 20
-1257.143178
 30
0.0
 40
0.3
100
AcDbArc
 50
270.0000200000019
 51
0.0
  0
ARC
  5
9A7C
330
18
100
AcDbEntity
  8
0
100
AcDbCircle
 10
-514.9542020000001
 20
-1256.243178
 30
0.0
 40
0.3
100
AcDbArc
 50
270.0000200000019
 51
0.0
  0
ARC
  5
9A7D
330
18
100
AcDbEntity
  8
0
100
AcDbCircle
 10
-514.9542020000001
 20
-1257.743178
 30
0.0
 40
0.3
100
AcDbArc
 50
270.0000200000019
 51
0.0
  0
LWPOLYLINE
  5
9A7E
330
18
100
AcDbEntity
  8
0
100
AcDbPolyline
 90
        2
 70
     0
 43
0.7705
 10
-504.5689510000001
 20
-1256.443178
 42
0.4142140000000002
 10
-505.3542010000001
 20
-1255.657927999999
 42
1.0
  0
ARC
  5
9A7F
330
18
100
AcDbEntity
  8
0
100
AcDbCircle
 10
-497.6542000000002
 20
-1256.343177999999
 30
0.0
 40
1.199999999999999
100
AcDbArc
 50
0.0
 51
89.9999820000008
  0
LWPOLYLINE
  5
9A80
330
18
100
AcDbEntity
  8
0
100
AcDbPolyline
 90
        2
 70
     0
 43
0.9
 10
-496.9042000000001
 20
-1256.343177999999
 42
0.4142140000000002
 10
-497.6542000000002
 20
-1255.593177999999
 42
1.0
  0
LWPOLYLINE
  5
9A81
330
18
100
AcDbEntity
  8
0
100
AcDbPolyline
 90
        2
 70
     0
 43
0.9
 10
-502.4042010000001
 20
-1256.543178
 42
0.4142140000000002
 10
-503.3542010000001
 20
-1255.593177999999
 42
1.0
  0
LWPOLYLINE
  5
9A82
330
18
100
AcDbEntity
  8
0
100
AcDbPolyline
 90
        2
 70
     0
 43
0.9
 10
-508.6042020000001
 20
-1256.343177999999
 42
0.4142140000000002
 10
-509.3542020000001
 20
-1255.593177999999
 42
1.0
  0
ARC
  5
9A83
330
18
100
AcDbEntity
  8
0
100
AcDbCircle
 10
-503.3542010000001
 20
-1256.543178
 30
0.0
 40
1.399999999999999
100
AcDbArc
 50
0.0
 51
89.9999820000008
  0
ARC
  5
9A84
330
18
100
AcDbEntity
  8
0
100
AcDbCircle
 10
-509.3542020000001
 20
-1256.343177999999
 30
0.0
 40
1.199999999999999
100
AcDbArc
 50
0.0
 51
89.9999820000008
  0
SOLID
  5
9A85
330
18
100
AcDbEntity
  8
0
100
AcDbTrace
 10
-501.9542010000002
 20
-1256.543178
 30
0.0
 11
-502.9542010000001
 21
-1256.543178
 31
0.0
 12
-502.9542010000001
 22
-1256.443178
 32
0.0
 13
-502.9542010000001
 23
-1256.443178
 33
0.0
  0
SOLID
  5
9A86
330
18
100
AcDbEntity
  8
0
100
AcDbTrace
 10
-501.9542010000002
 20
-1258.943177999999
 30
0.0
 11
-502.9542010000001
 21
-1258.943177999999
 31
0.0
 12
-501.9542010000002
 22
-1256.543178
 32
0.0
 13
-502.9542010000001
 23
-1256.543178
 33
0.0
  0
LWPOLYLINE
  5
9A87
330
18
100
AcDbEntity
  8
0
100
AcDbPolyline
 90
        2
 70
     0
 43
0.5
 10
-502.7042010000001
 20
-1256.443178
 42
0.4142140000000002
 10
-503.3542010000001
 20
-1255.793178
 42
1.0
  0
LINE
  5
9A88
330
18
100
AcDbEntity
  8
0
100
AcDbLine
 10
-502.9542010000001
 20
-1258.943177999999
 30
0.0
 11
-501.9542010000002
 21
-1258.943177999999
 31
0.0
  0
SOLID
  5
9A89
330
18
100
AcDbEntity
  8
0
100
AcDbTrace
 10
-509.1542020000002
 20
-1256.343177999999
 30
0.0
 11
-508.1542020000001
 21
-1256.343177999999
 31
0.0
 12
-509.1542020000002
 22
-1258.043178
 32
0.0
 13
-508.1542020000001
 23
-1258.943177999999
 33
0.0
  0
SOLID
  5
9A8A
330
18
100
AcDbEntity
  8
0
100
AcDbTrace
 10
-511.2542010000002
 20
-1258.043178
 30
0.0
 11
-511.2542020000002
 21
-1258.943177999999
 31
0.0
 12
-509.1542020000002
 22
-1258.043178
 32
0.0
 13
-508.1542020000001
 23
-1258.943177999999
 33
0.0
  0
LINE
  5
9A8B
330
18
100
AcDbEntity
  8
0
100
AcDbLine
 10
-511.2542020000002
 20
-1258.943177999999
 30
0.0
 11
-508.1542020000001
 21
-1258.943177999999
 31
0.0
  0
SOLID
  5
9A8C
330
18
100
AcDbEntity
  8
0
100
AcDbTrace
 10
-511.2542020000002
 20
-1256.543178
 30
0.0
 11
-511.2542010000002
 21
-1257.443177999999
 31
0.0
 12
-509.1542020000002
 22
-1256.543178
 32
0.0
 13
-509.1542020000002
 23
-1257.443177999999
 33
0.0
  0
SOLID
  5
9A8D
330
18
100
AcDbEntity
  8
0
100
AcDbTrace
 10
-511.8542020000001
 20
-1255.143178
 30
0.0
 11
-511.8542020000001
 21
-1256.043178
 31
0.0
 12
-509.4542020000002
 22
-1255.143178
 32
0.0
 13
-509.4542020000002
 23
-1256.043178
 33
0.0
  0
LWPOLYLINE
  5
9A8E
330
18
100
AcDbEntity
  8
0
100
AcDbPolyline
 90
        2
 70
     0
 43
0.9
 10
-511.2542020000002
 20
-1256.993178
 42
0.4142140000000002
 10
-512.0042020000002
 20
-1257.743178
 42
1.0
  0
LINE
  5
9A8F
330
18
100
AcDbEntity
  8
0
100
AcDbLine
 10
-511.2542010000002
 20
-1258.043178
 30
0.0
 11
-509.1542020000002
 21
-1258.043178
 31
0.0
  0
LINE
  5
9A90
330
18
100
AcDbEntity
  8
0
100
AcDbLine
 10
-511.8542020000001
 20
-1256.043178
 30
0.0
 11
-509.4542020000002
 21
-1256.043178
 31
0.0
  0
LINE
  5
9A91
330
18
100
AcDbEntity
  8
0
100
AcDbLine
 10
-511.8542020000001
 20
-1255.143178
 30
0.0
 11
-509.3542020000001
 21
-1255.143178
 31
0.0
  0
LINE
  5
9A92
330
18
100
AcDbEntity
  8
0
100
AcDbLine
 10
-511.2542010000002
 20
-1257.443177999999
 30
0.0
 11
-509.1542020000002
 21
-1257.443177999999
 31
0.0
  0
LINE
  5
9A93
330
18
100
AcDbEntity
  8
0
100
AcDbLine
 10
-511.2542020000002
 20
-1256.543178
 30
0.0
 11
-509.1542020000002
 21
-1256.543178
 31
0.0
  0
ARC
  5
9A94
330
18
100
AcDbEntity
  8
0
100
AcDbCircle
 10
-511.2542020000002
 20
-1257.743178
 30
0.0
 40
1.199999999999999
100
AcDbArc
 50
89.9999820000008
 51
270.0
  0
ARC
  5
9A95
330
18
100
AcDbEntity
  8
0
100
AcDbCircle
 10
-511.2542010000002
 20
-1257.743178
 30
0.0
 40
0.3
100
AcDbArc
 50
89.9999820000008
 51
270.0
  0
LWPOLYLINE
  5
9A96
330
18
100
AcDbEntity
  8
0
100
AcDbPolyline
 90
        2
 70
     0
 43
0.9
 10
-512.0042020000002
 20
-1257.743178
 42
0.4142140000000002
 10
-511.2542010000002
 20
-1258.493178
 42
1.0
  0
LINE
  5
9A97
330
18
100
AcDbEntity
  8
0
100
AcDbLine
 10
-513.6542020000002
 20
-1255.143178
 30
0.0
 11
-513.6542020000002
 21
-1257.843177999999
 31
0.0
  0
LINE
  5
9A98
330
18
100
AcDbEntity
  8
0
100
AcDbLine
 10
-511.8542020000001
 20
-1255.143178
 30
0.0
 11
-511.8542020000001
 21
-1256.043178
 31
0.0
  0
SOLID
  5
9A99
330
18
100
AcDbEntity
  8
0
100
AcDbTrace
 10
-509.4542020000002
 20
-1255.143178
 30
0.0
 11
-509.3542020000001
 21
-1255.143178
 31
0.0
 12
-509.4542020000002
 22
-1255.718177999999
 32
0.0
 13
-509.2472480000002
 23
-1255.474092
 33
0.0
  0
LINE
  5
9A9A
330
18
100
AcDbEntity
  8
0
100
AcDbLine
 10
-509.1542020000002
 20
-1256.343177999999
 30
0.0
 11
-509.1542020000002
 21
-1256.543178
 31
0.0
  0
LINE
  5
9A9B
330
18
100
AcDbEntity
  8
0
100
AcDbLine
 10
-509.1542020000002
 20
-1257.443177999999
 30
0.0
 11
-509.1542020000002
 21
-1258.043178
 31
0.0
  0
ARC
  5
9A9C
330
18
100
AcDbEntity
  8
0
100
AcDbCircle
 10
-509.4542020000002
 20
-1256.343177999999
 30
0.0
 40
0.3
100
AcDbArc
 50
0.0
 51
89.9999820000008
  0
LWPOLYLINE
  5
9A9D
330
18
100
AcDbEntity
  8
0
100
AcDbPolyline
 90
        2
 70
     0
 43
0.65
 10
-508.8292020000001
 20
-1256.343177999999
 42
0.4142140000000002
 10
-509.4542020000002
 20
-1255.718177999999
 42
1.0
  0
ARC
  5
9A9E
330
18
100
AcDbEntity
  8
0
100
AcDbCircle
 10
-505.3542010000001
 20
-1256.443178
 30
0.0
 40
0.4
100
AcDbArc
 50
0.0
 51
89.9999820000008
  0
SOLID
  5
9A9F
330
18
100
AcDbEntity
  8
0
100
AcDbTrace
 10
-505.9542010000002
 20
-1256.043178
 30
0.0
 11
-506.9542010000001
 21
-1255.143178
 31
0.0
 12
-503.3542010000001
 22
-1256.043178
 32
0.0
 13
-503.3542010000001
 23
-1255.143178
 33
0.0
  0
LINE
  5
9AA0
330
18
100
AcDbEntity
  8
0
100
AcDbLine
 10
-506.9542010000001
 20
-1255.143178
 30
0.0
 11
-503.3542010000001
 21
-1255.143178
 31
0.0
  0
SOLID
  5
9AA1
330
18
100
AcDbEntity
  8
0
100
AcDbTrace
 10
-505.9542010000002
 20
-1258.943177999999
 30
0.0
 11
-506.9542010000001
 21
-1258.943177999999
 31
0.0
 12
-505.9542010000002
 22
-1256.043178
 32
0.0
 13
-506.9542010000001
 23
-1255.143178
 33
0.0
  0
LINE
  5
9AA2
330
18
100
AcDbEntity
  8
0
100
AcDbLine
 10
-506.9542010000001
 20
-1255.143178
 30
0.0
 11
-506.9542010000001
 21
-1258.943177999999
 31
0.0
  0
LINE
  5
9AA3
330
18
100
AcDbEntity
  8
0
100
AcDbLine
 10
-506.9542010000001
 20
-1258.943177999999
 30
0.0
 11
-505.9542010000002
 21
-1258.943177999999
 31
0.0
  0
LINE
  5
9AA4
330
18
100
AcDbEntity
  8
0
100
AcDbLine
 10
-505.9542010000002
 20
-1256.043178
 30
0.0
 11
-505.9542010000002
 21
-1258.943177999999
 31
0.0
  0
LINE
  5
9AA5
330
18
100
AcDbEntity
  8
0
100
AcDbLine
 10
-508.1542020000001
 20
-1256.343177999999
 30
0.0
 11
-508.1542020000001
 21
-1258.943177999999
 31
0.0
  0
LINE
  5
9AA6
330
18
100
AcDbEntity
  8
0
100
AcDbLine
 10
-505.9542010000002
 20
-1256.043178
 30
0.0
 11
-505.3542010000001
 21
-1256.043178
 31
0.0
  0
SOLID
  5
9AA7
330
18
100
AcDbEntity
  8
0
100
AcDbTrace
 10
-503.9542010000001
 20
-1256.443178
 30
0.0
 11
-503.9542010000001
 21
-1256.343177999999
 31
0.0
 12
-504.2673530000001
 22
-1256.615082
 32
0.0
 13
-504.2542010000001
 23
-1256.193178
 33
0.0
  0
SOLID
  5
9AA8
330
18
100
AcDbEntity
  8
0
100
AcDbTrace
 10
-503.9542010000001
 20
-1256.443178
 30
0.0
 11
-503.9542010000001
 21
-1256.343177999999
 31
0.0
 12
-504.2542010000001
 22
-1256.193178
 32
0.0
 13
-504.5689510000001
 23
-1256.443178
 33
0.0
  0
SOLID
  5
9AA9
330
18
100
AcDbEntity
  8
0
100
AcDbTrace
 10
-503.9542010000001
 20
-1258.943177999999
 30
0.0
 11
-504.9542010000002
 21
-1258.943177999999
 31
0.0
 12
-503.9542010000001
 22
-1256.443178
 32
0.0
 13
-504.9542010000002
 23
-1256.443178
 33
0.0
  0
LWPOLYLINE
  5
9AAA
330
18
100
AcDbEntity
  8
0
100
AcDbPolyline
 90
        2
 70
     0
 43
0.3
 10
-504.1042010000001
 20
-1256.343177999999
 42
0.4142140000000002
 10
-504.2542010000001
 20
-1256.193178
 42
1.0
  0
LINE
  5
9AAB
330
18
100
AcDbEntity
  8
0
100
AcDbLine
 10
-502.9542010000001
 20
-1256.443178
 30
0.0
 11
-502.9542010000001
 21
-1258.943177999999
 31
0.0
  0
LINE
  5
9AAC
330
18
100
AcDbEntity
  8
0
100
AcDbLine
 10
-503.9542010000001
 20
-1256.343177999999
 30
0.0
 11
-503.9542010000001
 21
-1258.943177999999
 31
0.0
  0
LINE
  5
9AAD
330
18
100
AcDbEntity
  8
0
100
AcDbLine
 10
-504.9542010000002
 20
-1256.443178
 30
0.0
 11
-504.9542010000002
 21
-1258.943177999999
 31
0.0
  0
LINE
  5
9AAE
330
18
100
AcDbEntity
  8
0
100
AcDbLine
 10
-504.9542010000002
 20
-1258.943177999999
 30
0.0
 11
-503.9542010000001
 21
-1258.943177999999
 31
0.0
  0
LINE
  5
9AAF
330
18
100
AcDbEntity
  8
0
100
AcDbLine
 10
-504.2542010000001
 20
-1256.043178
 30
0.0
 11
-503.3542010000001
 21
-1256.043178
 31
0.0
  0
ARC
  5
9AB0
330
18
100
AcDbEntity
  8
0
100
AcDbCircle
 10
-503.3542010000001
 20
-1256.443178
 30
0.0
 40
0.4
100
AcDbArc
 50
0.0
 51
89.9999820000008
  0
ARC
  5
9AB1
330
18
100
AcDbEntity
  8
0
100
AcDbCircle
 10
-504.2542010000001
 20
-1256.343177999999
 30
0.0
 40
0.3
100
AcDbArc
 50
0.0
 51
89.9999820000008
  0
LINE
  5
9AB2
330
18
100
AcDbEntity
  8
0
100
AcDbLine
 10
-499.5542000000001
 20
-1258.943177999999
 30
0.0
 11
-496.4542000000001
 21
-1258.943177999999
 31
0.0
  0
SOLID
  5
9AB3
330
18
100
AcDbEntity
  8
0
100
AcDbTrace
 10
-499.5542000000001
 20
-1258.043178
 30
0.0
 11
-499.5542000000001
 21
-1258.943177999999
 31
0.0
 12
-497.4542000000002
 22
-1258.043178
 32
0.0
 13
-496.4542000000001
 23
-1258.943177999999
 33
0.0
  0
SOLID
  5
9AB4
330
18
100
AcDbEntity
  8
0
100
AcDbTrace
 10
-497.4542000000002
 20
-1256.343177999999
 30
0.0
 11
-496.4542000000001
 21
-1256.343177999999
 31
0.0
 12
-497.4542000000002
 22
-1258.043178
 32
0.0
 13
-496.4542000000001
 23
-1258.943177999999
 33
0.0
  0
LINE
  5
9AB5
330
18
100
AcDbEntity
  8
0
100
AcDbLine
 10
-499.5542000000001
 20
-1256.543178
 30
0.0
 11
-497.4542000000002
 21
-1256.543178
 31
0.0
  0
LINE
  5
9AB6
330
18
100
AcDbEntity
  8
0
100
AcDbLine
 10
-499.5542000000001
 20
-1257.443177999999
 30
0.0
 11
-497.4542000000002
 21
-1257.443177999999
 31
0.0
  0
LINE
  5
9AB7
330
18
100
AcDbEntity
  8
0
100
AcDbLine
 10
-499.5542000000001
 20
-1258.043178
 30
0.0
 11
-497.4542000000002
 21
-1258.043178
 31
0.0
  0
SOLID
  5
9AB8
330
18
100
AcDbEntity
  8
0
100
AcDbTrace
 10
-499.5542000000001
 20
-1256.543178
 30
0.0
 11
-499.5542000000001
 21
-1257.443177999999
 31
0.0
 12
-497.4542000000002
 22
-1256.543178
 32
0.0
 13
-497.4542000000002
 23
-1257.443177999999
 33
0.0
  0
ARC
  5
9AB9
330
18
100
AcDbEntity
  8
0
100
AcDbCircle
 10
-499.5542000000001
 20
-1257.743178
 30
0.0
 40
0.3
100
AcDbArc
 50
89.9999820000008
 51
270.0
  0
ARC
  5
9ABA
330
18
100
AcDbEntity
  8
0
100
AcDbCircle
 10
-499.5542000000001
 20
-1257.743178
 30
0.0
 40
1.199999999999999
100
AcDbArc
 50
89.9999820000008
 51
270.0
  0
LINE
  5
9ABB
330
18
100
AcDbEntity
  8
0
100
AcDbLine
 10
-500.1542000000001
 20
-1255.143178
 30
0.0
 11
-497.6542000000002
 21
-1255.143178
 31
0.0
  0
LINE
  5
9ABC
330
18
100
AcDbEntity
  8
0
100
AcDbLine
 10
-500.1542000000001
 20
-1256.043178
 30
0.0
 11
-497.7542000000002
 21
-1256.043178
 31
0.0
  0
LWPOLYLINE
  5
9ABD
330
18
100
AcDbEntity
  8
0
100
AcDbPolyline
 90
        2
 70
     0
 43
0.9
 10
-499.5542000000001
 20
-1256.993178
 42
0.4142140000000002
 10
-500.3042000000001
 20
-1257.743178
 42
1.0
  0
SOLID
  5
9ABE
330
18
100
AcDbEntity
  8
0
100
AcDbTrace
 10
-500.1542000000001
 20
-1255.143178
 30
0.0
 11
-500.1542000000001
 21
-1256.043178
 31
0.0
 12
-497.7542000000002
 22
-1255.143178
 32
0.0
 13
-497.7542000000002
 23
-1256.043178
 33
0.0
  0
LWPOLYLINE
  5
9ABF
330
18
100
AcDbEntity
  8
0
100
AcDbPolyline
 90
        2
 70
     0
 43
0.9
 10
-500.3042000000001
 20
-1257.743178
 42
0.4142140000000002
 10
-499.5542000000001
 20
-1258.493178
 42
1.0
  0
LINE
  5
9AC0
330
18
100
AcDbEntity
  8
0
100
AcDbLine
 10
-500.1542000000001
 20
-1255.143178
 30
0.0
 11
-500.1542000000001
 21
-1256.043178
 31
0.0
  0
LINE
  5
9AC1
330
18
100
AcDbEntity
  8
0
100
AcDbLine
 10
-501.9542010000002
 20
-1256.543178
 30
0.0
 11
-501.9542010000002
 21
-1258.943177999999
 31
0.0
  0
ARC
  5
9AC2
330
18
100
AcDbEntity
  8
0
100
AcDbCircle
 10
-497.7542000000002
 20
-1256.343177999999
 30
0.0
 40
0.3
100
AcDbArc
 50
0.0
 51
89.9999820000008
  0
LINE
  5
9AC3
330
18
100
AcDbEntity
  8
0
100
AcDbLine
 10
-497.4542000000002
 20
-1257.443177999999
 30
0.0
 11
-497.4542000000002
 21
-1258.043178
 31
0.0
  0
LINE
  5
9AC4
330
18
100
AcDbEntity
  8
0
100
AcDbLine
 10
-497.4542000000002
 20
-1256.343177999999
 30
0.0
 11
-497.4542000000002
 21
-1256.543178
 31
0.0
  0
SOLID
  5
9AC5
330
18
100
AcDbEntity
  8
0
100
AcDbTrace
 10
-497.7542000000002
 20
-1255.143178
 30
0.0
 11
-497.6542000000002
 21
-1255.143178
 31
0.0
 12
-497.7542000000002
 22
-1255.718177999999
 32
0.0
 13
-497.5472460000001
 23
-1255.474092
 33
0.0
  0
LWPOLYLINE
  5
9AC6
330
18
100
AcDbEntity
  8
0
100
AcDbPolyline
 90
        2
 70
     0
 43
0.65
 10
-497.1292000000001
 20
-1256.343177999999
 42
0.4142140000000002
 10
-497.7542000000002
 20
-1255.718177999999
 42
1.0
  0
LINE
  5
9AC7
330
18
100
AcDbEntity
  8
0
100
AcDbLine
 10
-494.2542020000002
 20
-1257.943178
 30
0.0
 11
-492.9542030000002
 21
-1257.943178
 31
0.0
  0
LINE
  5
9AC8
330
18
100
AcDbEntity
  8
0
100
AcDbLine
 10
-494.2542020000002
 20
-1256.143178
 30
0.0
 11
-492.9542030000002
 21
-1256.143178
 31
0.0
  0
LINE
  5
9AC9
330
18
100
AcDbEntity
  8
0
100
AcDbLine
 10
-495.2542020000001
 20
-1255.143178
 30
0.0
 11
-492.9542030000002
 21
-1255.143178
 31
0.0
  0
LINE
  5
9ACA
330
18
100
AcDbEntity
  8
0
100
AcDbLine
 10
-495.2542020000001
 20
-1258.943177999999
 30
0.0
 11
-492.9542030000002
 21
-1258.943177999999
 31
0.0
  0
SOLID
  5
9ACB
330
18
100
AcDbEntity
  8
0
100
AcDbTrace
 10
-492.9542030000002
 20
-1255.143178
 30
0.0
 11
-492.9542030000002
 21
-1256.143178
 31
0.0
 12
-495.2542020000001
 22
-1255.143178
 32
0.0
 13
-494.2542020000002
 23
-1256.143178
 33
0.0
  0
SOLID
  5
9ACC
330
18
100
AcDbEntity
  8
0
100
AcDbTrace
 10
-495.2542020000001
 20
-1258.943177999999
 30
0.0
 11
-494.2542020000002
 21
-1257.943178
 31
0.0
 12
-492.9542030000002
 22
-1258.943177999999
 32
0.0
 13
-492.9542030000002
 23
-1257.943178
 33
0.0
  0
LINE
  5
9ACD
330
18
100
AcDbEntity
  8
0
100
AcDbLine
 10
-496.4542000000001
 20
-1256.343177999999
 30
0.0
 11
-496.4542000000001
 21
-1258.943177999999
 31
0.0
  0
LINE
  5
9ACE
330
18
100
AcDbEntity
  8
0
100
AcDbLine
 10
-494.2542020000002
 20
-1256.143178
 30
0.0
 11
-494.2542020000002
 21
-1257.943178
 31
0.0
  0
LINE
  5
9ACF
330
18
100
AcDbEntity
  8
0
100
AcDbLine
 10
-495.2542020000001
 20
-1255.143178
 30
0.0
 11
-495.2542020000001
 21
-1258.943177999999
 31
0.0
  0
SOLID
  5
9AD0
330
18
100
AcDbEntity
  8
0
100
AcDbTrace
 10
-495.2542020000001
 20
-1255.143178
 30
0.0
 11
-494.2542020000002
 21
-1256.143178
 31
0.0
 12
-495.2542020000001
 22
-1258.943177999999
 32
0.0
 13
-494.2542020000002
 23
-1257.943178
 33
0.0
  0
ARC
  5
9AD1
330
18
100
AcDbEntity
  8
0
100
AcDbCircle
 10
-492.9542030000002
 20
-1257.043177999999
 30
0.0
 40
1.9
100
AcDbArc
 50
270.0000200000019
 51
89.9999820000008
  0
ARC
  5
9AD2
330
18
100
AcDbEntity
  8
0
100
AcDbCircle
 10
-492.9542030000002
 20
-1257.043177999999
 30
0.0
 40
0.9
100
AcDbArc
 50
270.0000200000019
 51
89.9999820000008
  0
ARC
  5
9AD3
330
18
100
AcDbEntity
  8
0
100
AcDbCircle
 10
-486.7542020000001
 20
-1256.343177999999
 30
0.0
 40
1.199999999999999
100
AcDbArc
 50
0.0
 51
89.9999820000008
  0
LWPOLYLINE
  5
9AD4
330
18
100
AcDbEntity
  8
0
100
AcDbPolyline
 90
        2
 70
     0
 43
0.9
 10
-486.0042020000001
 20
-1256.343177999999
 42
0.4142140000000002
 10
-486.7542020000001
 20
-1255.593177999999
 42
1.0
  0
ARC
  5
9AD5
330
18
100
AcDbEntity
  8
0
100
AcDbCircle
 10
-488.6542020000002
 20
-1257.743178
 30
0.0
 40
1.199999999999999
100
AcDbArc
 50
89.9999820000008
 51
270.0
  0
LINE
  5
9AD6
330
18
100
AcDbEntity
  8
0
100
AcDbLine
 10
-488.6542020000002
 20
-1256.543178
 30
0.0
 11
-486.5542020000001
 21
-1256.543178
 31
0.0
  0
LINE
  5
9AD7
330
18
100
AcDbEntity
  8
0
100
AcDbLine
 10
-488.6542020000002
 20
-1257.443177999999
 30
0.0
 11
-486.5542020000001
 21
-1257.443177999999
 31
0.0
  0
LINE
  5
9AD8
330
18
100
AcDbEntity
  8
0
100
AcDbLine
 10
-489.2542020000002
 20
-1255.143178
 30
0.0
 11
-486.7542020000001
 21
-1255.143178
 31
0.0
  0
LINE
  5
9AD9
330
18
100
AcDbEntity
  8
0
100
AcDbLine
 10
-489.2542020000002
 20
-1256.043178
 30
0.0
 11
-486.8542020000001
 21
-1256.043178
 31
0.0
  0
LINE
  5
9ADA
330
18
100
AcDbEntity
  8
0
100
AcDbLine
 10
-488.6542020000002
 20
-1258.043178
 30
0.0
 11
-486.5542020000001
 21
-1258.043178
 31
0.0
  0
SOLID
  5
9ADB
330
18
100
AcDbEntity
  8
0
100
AcDbTrace
 10
-489.2542020000002
 20
-1255.143178
 30
0.0
 11
-489.2542020000002
 21
-1256.043178
 31
0.0
 12
-486.8542020000001
 22
-1255.143178
 32
0.0
 13
-486.8542020000001
 23
-1256.043178
 33
0.0
  0
SOLID
  5
9ADC
330
18
100
AcDbEntity
  8
0
100
AcDbTrace
 10
-488.6542020000002
 20
-1256.543178
 30
0.0
 11
-488.6542020000002
 21
-1257.443177999999
 31
0.0
 12
-486.5542020000001
 22
-1256.543178
 32
0.0
 13
-486.5542020000001
 23
-1257.443177999999
 33
0.0
  0
LINE
  5
9ADD
330
18
100
AcDbEntity
  8
0
100
AcDbLine
 10
-488.6542020000002
 20
-1258.943177999999
 30
0.0
 11
-485.5542020000001
 21
-1258.943177999999
 31
0.0
  0
SOLID
  5
9ADE
330
18
100
AcDbEntity
  8
0
100
AcDbTrace
 10
-488.6542020000002
 20
-1258.043178
 30
0.0
 11
-488.6542020000002
 21
-1258.943177999999
 31
0.0
 12
-486.5542020000001
 22
-1258.043178
 32
0.0
 13
-485.5542020000001
 23
-1258.943177999999
 33
0.0
  0
LINE
  5
9ADF
330
18
100
AcDbEntity
  8
0
100
AcDbLine
 10
-489.2542020000002
 20
-1255.143178
 30
0.0
 11
-489.2542020000002
 21
-1256.043178
 31
0.0
  0
ARC
  5
9AE0
330
18
100
AcDbEntity
  8
0
100
AcDbCircle
 10
-488.6542020000002
 20
-1257.743178
 30
0.0
 40
0.3
100
AcDbArc
 50
89.9999820000008
 51
270.0
  0
LWPOLYLINE
  5
9AE1
330
18
100
AcDbEntity
  8
0
100
AcDbPolyline
 90
        2
 70
     0
 43
0.9
 10
-488.6542020000002
 20
-1256.993178
 42
0.4142140000000002
 10
-489.4042020000001
 20
-1257.743178
 42
1.0
  0
LWPOLYLINE
  5
9AE2
330
18
100
AcDbEntity
  8
0
100
AcDbPolyline
 90
        2
 70
     0
 43
0.9
 10
-489.4042020000001
 20
-1257.743178
 42
0.4142140000000002
 10
-488.6542020000002
 20
-1258.493178
 42
1.0
  0
LINE
  5
9AE3
330
18
100
AcDbEntity
  8
0
100
AcDbLine
 10
-485.5542020000001
 20
-1256.343177999999
 30
0.0
 11
-485.5542020000001
 21
-1258.943177999999
 31
0.0
  0
ARC
  5
9AE4
330
18
100
AcDbEntity
  8
0
100
AcDbCircle
 10
-486.8542020000001
 20
-1256.343177999999
 30
0.0
 40
0.3
100
AcDbArc
 50
0.0
 51
89.9999820000008
  0
LINE
  5
9AE5
330
18
100
AcDbEntity
  8
0
100
AcDbLine
 10
-486.5542020000001
 20
-1257.443177999999
 30
0.0
 11
-486.5542020000001
 21
-1258.043178
 31
0.0
  0
LINE
  5
9AE6
330
18
100
AcDbEntity
  8
0
100
AcDbLine
 10
-486.5542020000001
 20
-1256.343177999999
 30
0.0
 11
-486.5542020000001
 21
-1256.543178
 31
0.0
  0
SOLID
  5
9AE7
330
18
100
AcDbEntity
  8
0
100
AcDbTrace
 10
-486.8542020000001
 20
-1255.143178
 30
0.0
 11
-486.7542020000001
 21
-1255.143178
 31
0.0
 12
-486.8542020000001
 22
-1255.718177999999
 32
0.0
 13
-486.6472480000001
 23
-1255.474092
 33
0.0
  0
SOLID
  5
9AE8
330
18
100
AcDbEntity
  8
0
100
AcDbTrace
 10
-486.5542020000001
 20
-1256.343177999999
 30
0.0
 11
-485.5542020000001
 21
-1256.343177999999
 31
0.0
 12
-486.5542020000001
 22
-1258.043178
 32
0.0
 13
-485.5542020000001
 23
-1258.943177999999
 33
0.0
  0
LWPOLYLINE
  5
9AE9
330
18
100
AcDbEntity
  8
0
100
AcDbPolyline
 90
        2
 70
     0
 43
0.65
 10
-486.2292020000001
 20
-1256.343177999999
 42
0.4142140000000002
 10
-486.8542020000001
 20
-1255.718177999999
 42
1.0
  0
LINE
  5
9AEB
330
18
100
AcDbEntity
  8
0
100
AcDbLine
 10
-1446.5239242415
 20
-1019.961758490715
 30
0.0
 11
-1443.655343708225
 21
-1017.093177957441
 31
0.0
  0
LINE
  5
9AEC
330
18
100
AcDbEntity
  8
0
100
AcDbLine
 10
-1446.5239242415
 20
-1042.412398793387
 30
0.0
 11
-1421.204703405552
 21
-1017.093177957441
 31
0.0
  0
LINE
  5
9AED
330
18
100
AcDbEntity
  8
0
100
AcDbLine
 10
-1446.5239242415
 20
-1064.86303909606
 30
0.0
 11
-1398.75406310288
 21
-1017.093177957441
 31
0.0
  0
LINE
  5
9AEE
330
18
100
AcDbEntity
  8
0
100
AcDbLine
 10
-1446.5239242415
 20
-1087.313679398734
 30
0.0
 11
-1376.303422800207
 21
-1017.093177957441
 31
0.0
  0
LINE
  5
9AEF
330
18
100
AcDbEntity
  8
0
100
AcDbLine
 10
-1446.5239242415
 20
-1109.764319701406
 30
0.0
 11
-1353.852782497534
 21
-1017.093177957441
 31
0.0
  0
LINE
  5
9AF0
330
18
100
AcDbEntity
  8
0
100
AcDbLine
 10
-1446.5239242415
 20
-1132.214960004079
 30
0.0
 11
-1331.402142194861
 21
-1017.093177957441
 31
0.0
  0
LINE
  5
9AF1
330
18
100
AcDbEntity
  8
0
100
AcDbLine
 10
-1446.5239242415
 20
-1154.665600306752
 30
0.0
 11
-1308.951501892188
 21
-1017.093177957441
 31
0.0
  0
LINE
  5
9AF2
330
18
100
AcDbEntity
  8
0
100
AcDbLine
 10
-1446.5239242415
 20
-1177.116240609425
 30
0.0
 11
-1286.500861589515
 21
-1017.093177957441
 31
0.0
  0
LINE
  5
9AF3
330
18
100
AcDbEntity
  8
0
100
AcDbLine
 10
-1446.5239242415
 20
-1199.566880912098
 30
0.0
 11
-1264.050221286842
 21
-1017.093177957441
 31
0.0
  0
LINE
  5
9AF4
330
18
100
AcDbEntity
  8
0
100
AcDbLine
 10
-1446.5239242415
 20
-1222.017521214771
 30
0.0
 11
-1241.59958098417
 21
-1017.093177957441
 31
0.0
  0
LINE
  5
9AF5
330
18
100
AcDbEntity
  8
0
100
AcDbLine
 10
-1446.5239242415
 20
-1244.468161517443
 30
0.0
 11
-1219.148940681497
 21
-1017.093177957441
 31
0.0
  0
LINE
  5
9AF6
330
18
100
AcDbEntity
  8
0
100
AcDbLine
 10
-1436.498300378824
 20
-1256.893177957441
 30
0.0
 11
-1196.698300378824
 21
-1017.093177957441
 31
0.0
  0
LINE
  5
9AF7
330
18
100
AcDbEntity
  8
0
100
AcDbLine
 10
-1414.047660076151
 20
-1256.893177957441
 30
0.0
 11
-1174.247660076151
 21
-1017.09317795744
 31
0.0
  0
LINE
  5
9AF8
330
18
100
AcDbEntity
  8
0
100
AcDbLine
 10
-1391.597019773478
 20
-1256.893177957441
 30
0.0
 11
-1151.797019773478
 21
-1017.093177957441
 31
0.0
  0
LINE
  5
9AF9
330
18
100
AcDbEntity
  8
0
100
AcDbLine
 10
-1369.146379470805
 20
-1256.893177957441
 30
0.0
 11
-1131.0239242415
 21
-1018.770722728135
 31
0.0
  0
LINE
  5
9AFA
330
18
100
AcDbEntity
  8
0
100
AcDbLine
 10
-1346.695739168132
 20
-1256.893177957441
 30
0.0
 11
-1131.023924241499
 21
-1041.221363030808
 31
0.0
  0
LINE
  5
9AFB
330
18
100
AcDbEntity
  8
0
100
AcDbLine
 10
-1324.245098865459
 20
-1256.893177957441
 30
0.0
 11
-1131.023924241499
 21
-1063.672003333481
 31
0.0
  0
LINE
  5
9AFC
330
18
100
AcDbEntity
  8
0
100
AcDbLine
 10
-1301.794458562786
 20
-1256.893177957441
 30
0.0
 11
-1131.023924241499
 21
-1086.122643636153
 31
0.0
  0
LINE
  5
9AFD
330
18
100
AcDbEntity
  8
0
100
AcDbLine
 10
-1279.343818260114
 20
-1256.893177957441
 30
0.0
 11
-1131.0239242415
 21
-1108.573283938826
 31
0.0
  0
LINE
  5
9AFE
330
18
100
AcDbEntity
  8
0
100
AcDbLine
 10
-1256.893177957441
 20
-1256.893177957441
 30
0.0
 11
-1131.023924241499
 21
-1131.023924241499
 31
0.0
  0
LINE
  5
9AFF
330
18
100
AcDbEntity
  8
0
100
AcDbLine
 10
-1234.442537654768
 20
-1256.893177957441
 30
0.0
 11
-1131.023924241499
 21
-1153.474564544172
 31
0.0
  0
LINE
  5
9B00
330
18
100
AcDbEntity
  8
0
100
AcDbLine
 10
-1211.991897352095
 20
-1256.893177957441
 30
0.0
 11
-1131.0239242415
 21
-1175.925204846845
 31
0.0
  0
LINE
  5
9B01
330
18
100
AcDbEntity
  8
0
100
AcDbLine
 10
-1189.541257049422
 20
-1256.893177957441
 30
0.0
 11
-1131.023924241499
 21
-1198.375845149518
 31
0.0
  0
LINE
  5
9B02
330
18
100
AcDbEntity
  8
0
100
AcDbLine
 10
-1167.090616746749
 20
-1256.893177957441
 30
0.0
 11
-1131.0239242415
 21
-1220.826485452191
 31
0.0
  0
LINE
  5
9B03
330
18
100
AcDbEntity
  8
0
100
AcDbLine
 10
-1144.639976444076
 20
-1256.893177957441
 30
0.0
 11
-1131.0239242415
 21
-1243.277125754864
 31
0.0
  0
LINE
  5
9B04
330
18
100
AcDbEntity
  8
0
100
AcDbLine
 10
-1437.183658363303
 20
-1256.893177957441
 30
0.0
 11
-1446.5239242415
 21
-1247.552912079244
 31
0.0
  0
LINE
  5
9B05
330
18
100
AcDbEntity
  8
0
100
AcDbLine
 10
-1414.73301806063
 20
-1256.89317795744
 30
0.0
 11
-1446.5239242415
 21
-1225.102271776571
 31
0.0
  0
LINE
  5
9B06
330
18
100
AcDbEntity
  8
0
100
AcDbLine
 10
-1392.282377757957
 20
-1256.893177957441
 30
0.0
 11
-1446.5239242415
 21
-1202.651631473898
 31
0.0
  0
LINE
  5
9B07
330
18
100
AcDbEntity
  8
0
100
AcDbLine
 10
-1369.831737455284
 20
-1256.893177957441
 30
0.0
 11
-1446.5239242415
 21
-1180.200991171225
 31
0.0
  0
LINE
  5
9B08
330
18
100
AcDbEntity
  8
0
100
AcDbLine
 10
-1347.381097152611
 20
-1256.89317795744
 30
0.0
 11
-1446.5239242415
 21
-1157.750350868552
 31
0.0
  0
LINE
  5
9B09
330
18
100
AcDbEntity
  8
0
100
AcDbLine
 10
-1324.930456849939
 20
-1256.893177957441
 30
0.0
 11
-1446.5239242415
 21
-1135.299710565879
 31
0.0
  0
LINE
  5
9B0A
330
18
100
AcDbEntity
  8
0
100
AcDbLine
 10
-1302.479816547266
 20
-1256.89317795744
 30
0.0
 11
-1446.5239242415
 21
-1112.849070263207
 31
0.0
  0
LINE
  5
9B0B
330
18
100
AcDbEntity
  8
0
100
AcDbLine
 10
-1280.029176244593
 20
-1256.893177957441
 30
0.0
 11
-1446.5239242415
 21
-1090.398429960534
 31
0.0
  0
LINE
  5
9B0C
330
18
100
AcDbEntity
  8
0
100
AcDbLine
 10
-1257.57853594192
 20
-1256.893177957441
 30
0.0
 11
-1446.5239242415
 21
-1067.947789657861
 31
0.0
  0
LINE
  5
9B0D
330
18
100
AcDbEntity
  8
0
100
AcDbLine
 10
-1235.127895639247
 20
-1256.89317795744
 30
0.0
 11
-1446.5239242415
 21
-1045.497149355188
 31
0.0
  0
LINE
  5
9B0E
330
18
100
AcDbEntity
  8
0
100
AcDbLine
 10
-1212.677255336574
 20
-1256.893177957441
 30
0.0
 11
-1446.5239242415
 21
-1023.046509052515
 31
0.0
  0
LINE
  5
9B0F
330
18
100
AcDbEntity
  8
0
100
AcDbLine
 10
-1190.226615033901
 20
-1256.893177957441
 30
0.0
 11
-1430.026615033901
 21
-1017.093177957441
 31
0.0
  0
LINE
  5
9B10
330
18
100
AcDbEntity
  8
0
100
AcDbLine
 10
-1167.775974731228
 20
-1256.893177957441
 30
0.0
 11
-1407.575974731228
 21
-1017.093177957441
 31
0.0
  0
LINE
  5
9B11
330
18
100
AcDbEntity
  8
0
100
AcDbLine
 10
-1145.325334428556
 20
-1256.893177957441
 30
0.0
 11
-1385.125334428556
 21
-1017.093177957441
 31
0.0
  0
LINE
  5
9B12
330
18
100
AcDbEntity
  8
0
100
AcDbLine
 10
-1131.023924241499
 20
-1248.743947841824
 30
0.0
 11
-1362.674694125883
 21
-1017.093177957441
 31
0.0
  0
LINE
  5
9B13
330
18
100
AcDbEntity
  8
0
100
AcDbLine
 10
-1131.0239242415
 20
-1226.293307539151
 30
0.0
 11
-1340.22405382321
 21
-1017.093177957441
 31
0.0
  0
LINE
  5
9B14
330
18
100
AcDbEntity
  8
0
100
AcDbLine
 10
-1131.0239242415
 20
-1203.842667236478
 30
0.0
 11
-1317.773413520537
 21
-1017.093177957441
 31
0.0
  0
LINE
  5
9B15
330
18
100
AcDbEntity
  8
0
100
AcDbLine
 10
-1131.0239242415
 20
-1181.392026933805
 30
0.0
 11
-1295.322773217864
 21
-1017.093177957441
 31
0.0
  0
LINE
  5
9B16
330
18
100
AcDbEntity
  8
0
100
AcDbLine
 10
-1131.0239242415
 20
-1158.941386631132
 30
0.0
 11
-1272.872132915191
 21
-1017.093177957441
 31
0.0
  0
LINE
  5
9B17
330
18
100
AcDbEntity
  8
0
100
AcDbLine
 10
-1131.0239242415
 20
-1136.490746328459
 30
0.0
 11
-1250.421492612518
 21
-1017.093177957441
 31
0.0
  0
LINE
  5
9B18
330
18
100
AcDbEntity
  8
0
100
AcDbLine
 10
-1131.0239242415
 20
-1114.040106025786
 30
0.0
 11
-1227.970852309846
 21
-1017.09317795744
 31
0.0
  0
LINE
  5
9B19
330
18
100
AcDbEntity
  8
0
100
AcDbLine
 10
-1131.0239242415
 20
-1091.589465723114
 30
0.0
 11
-1205.520212007173
 21
-1017.093177957441
 31
0.0
  0
LINE
  5
9B1A
330
18
100
AcDbEntity
  8
0
100
AcDbLine
 10
-1131.0239242415
 20
-1069.138825420441
 30
0.0
 11
-1183.0695717045
 21
-1017.09317795744
 31
0.0
  0
LINE
  5
9B1B
330
18
100
AcDbEntity
  8
0
100
AcDbLine
 10
-1131.023924241499
 20
-1046.688185117768
 30
0.0
 11
-1160.618931401827
 21
-1017.093177957441
 31
0.0
  0
LINE
  5
9B1C
330
18
100
AcDbEntity
  8
0
100
AcDbLine
 10
-1131.0239242415
 20
-1024.237544815095
 30
0.0
 11
-1138.168291099154
 21
-1017.093177957441
 31
0.0
  0
LINE
  5
9B1D
330
18
100
AcDbEntity
  8
0
100
AcDbLine
 10
-488.7057907412811
 20
-1230.922892999998
 30
0.0
 11
-480.1648651412811
 21
-1230.922892999998
 31
0.0
  0
LINE
  5
9B1E
330
18
100
AcDbEntity
  8
0
100
AcDbLine
 10
-488.7057907412811
 20
-1227.720045899998
 30
0.0
 11
-479.8089932412811
 21
-1227.720045899998
 31
0.0
  0
ELLIPSE
  5
9B1F
330
18
100
AcDbEntity
  8
0
100
AcDbEllipse
 10
-486.5705593412811
 20
-1236.972715299999
 30
0.0
 11
-3.019673222773844
 21
3.019673222773844
 31
0.0
210
0.0
220
0.0
230
1.0
 40
0.9999999880192969
 41
-0.785398483547068
 42
2.356194484201993
  0
LINE
  5
9B20
330
18
100
AcDbEntity
  8
0
100
AcDbLine
 10
-530.6986785000001
 20
-1227.720045899998
 30
0.0
 11
-527.1399595
 21
-1227.720045899998
 31
0.0
  0
ELLIPSE
  5
9B21
330
18
100
AcDbEntity
  8
0
100
AcDbEllipse
 10
-531.0545504
 20
-1237.328587199999
 30
0.0
 11
2.768033770961179
 21
2.768033770961179
 31
0.0
210
0.0
220
0.0
230
1.0
 40
0.9999999999999854
 41
3.926991166053089
 42
5.49778714378213
  0
LINE
  5
9B22
330
18
100
AcDbEntity
  8
0
100
AcDbLine
 10
-541.0189636000001
 20
-1238.040330999999
 30
0.0
 11
-541.0189636000001
 21
-1241.243178099999
 31
0.0
  0
LINE
  5
9B23
330
18
100
AcDbEntity
  8
0
100
AcDbLine
 10
-541.0189636000001
 20
-1241.243178099999
 30
0.0
 11
-531.0545504
 21
-1241.243178099999
 31
0.0
  0
ELLIPSE
  5
9B24
330
18
100
AcDbEntity
  8
0
100
AcDbEllipse
 10
-538.8837322
 20
-1231.634636799999
 30
0.0
 11
-3.019673204684967
 21
3.019673204684967
 31
0.0
210
0.0
220
0.0
230
1.0
 40
0.9999999999999694
 41
0.7853978143316134
 42
2.356195013791105
  0
ELLIPSE
  5
9B25
330
18
100
AcDbEntity
  8
0
100
AcDbEllipse
 10
-538.8837322
 20
-1231.634636799999
 30
0.0
 11
-3.019673204684968
 21
3.019673204684969
 31
0.0
210
0.0
220
0.0
230
1.0
 40
0.999999999999984
 41
0.7853981633974563
 42
2.356194490192336
  0
LINE
  5
9B26
330
18
100
AcDbEntity
  8
0
100
AcDbLine
 10
-541.0189636000001
 20
-1238.040330999999
 30
0.0
 11
-531.7662942000001
 21
-1238.040330999999
 31
0.0
  0
LINE
  5
9B27
330
18
100
AcDbEntity
  8
0
100
AcDbLine
 10
-543.154195
 20
-1227.720045899998
 30
0.0
 11
-539.5954760000001
 21
-1227.720045899998
 31
0.0
  0
LINE
  5
9B28
330
18
100
AcDbEntity
  8
0
100
AcDbLine
 10
-543.154195
 20
-1227.720045899998
 30
0.0
 11
-543.154195
 21
-1231.634636799999
 31
0.0
  0
LINE
  5
9B29
330
18
100
AcDbEntity
  8
0
100
AcDbLine
 10
-538.5278603
 20
-1232.702252499999
 30
0.0
 11
-531.7662942000001
 21
-1232.702252499999
 31
0.0
  0
LINE
  5
9B2A
330
18
100
AcDbEntity
  8
0
100
AcDbLine
 10
-538.8837322
 20
-1235.905099599999
 30
0.0
 11
-531.7662942000001
 21
-1235.905099599999
 31
0.0
  0
LINE
  5
9B2B
330
18
100
AcDbEntity
  8
0
100
AcDbLine
 10
-539.5954760000001
 20
-1227.720045899998
 30
0.0
 11
-539.5954760000001
 21
-1231.634636799999
 31
0.0
  0
LINE
  5
9B2C
330
18
100
AcDbEntity
  8
0
100
AcDbLine
 10
-530.6986785000001
 20
-1227.720045899998
 30
0.0
 11
-530.6986785000001
 21
-1231.634636799999
 31
0.0
  0
LINE
  5
9B2D
330
18
100
AcDbEntity
  8
0
100
AcDbLine
 10
-530.6986785000001
 20
-1234.837483899998
 30
0.0
 11
-530.6986785000001
 21
-1236.972715299999
 31
0.0
  0
ELLIPSE
  5
9B2E
330
18
100
AcDbEntity
  8
0
100
AcDbEllipse
 10
-538.5278603
 20
-1231.634636799999
 30
0.0
 11
0.7549183011712472
 21
0.7549183011712472
 31
0.0
210
0.0
220
0.0
230
1.0
 40
0.9999999999998754
 41
2.356194141126432
 42
3.926991340586079
  0
ELLIPSE
  5
9B2F
330
18
100
AcDbEntity
  8
0
100
AcDbEllipse
 10
-531.7662942000001
 20
-1234.837483899998
 30
0.0
 11
0.7549183011713158
 21
0.7549183011713156
 31
0.0
210
0.0
220
0.0
230
1.0
 40
0.9999999999997701
 41
3.926991166053206
 42
5.497787143782023
  0
ELLIPSE
  5
9B30
330
18
100
AcDbEntity
  8
0
100
AcDbEllipse
 10
-531.7662942000001
 20
-1231.634636799999
 30
0.0
 11
0.7549183011713158
 21
0.7549183011713156
 31
0.0
210
0.0
220
0.0
230
1.0
 40
0.9999999999997701
 41
3.926991166053206
 42
5.497787143782023
  0
ELLIPSE
  5
9B31
330
18
100
AcDbEntity
  8
0
100
AcDbEllipse
 10
-531.7662942000001
 20
-1236.972715299999
 30
0.0
 11
0.7549183011713158
 21
0.7549183011713156
 31
0.0
210
0.0
220
0.0
230
1.0
 40
0.9999999999997701
 41
3.926991166053206
 42
5.497787143782023
  0
LINE
  5
9B32
330
18
100
AcDbEntity
  8
0
100
AcDbLine
 10
-509.7022328412811
 20
-1227.720045899998
 30
0.0
 11
-496.8908444412811
 21
-1227.720045899998
 31
0.0
  0
LINE
  5
9B33
330
18
100
AcDbEntity
  8
0
100
AcDbLine
 10
-509.7022328412811
 20
-1241.243178099999
 30
0.0
 11
-506.1435138412811
 21
-1241.243178099999
 31
0.0
  0
LINE
  5
9B34
330
18
100
AcDbEntity
  8
0
100
AcDbLine
 10
-509.7022328412811
 20
-1227.720045899998
 30
0.0
 11
-509.7022328412811
 21
-1241.243178099999
 31
0.0
  0
LINE
  5
9B35
330
18
100
AcDbEntity
  8
0
100
AcDbLine
 10
-510.7698521000001
 20
-1231.990508699998
 30
0.0
 11
-510.7698521000001
 21
-1241.243178099999
 31
0.0
  0
ELLIPSE
  5
9B36
330
18
100
AcDbEntity
  8
0
100
AcDbEllipse
 10
-521.8018810000001
 20
-1236.972715299999
 30
0.0
 11
-3.019673222773854
 21
3.019673222773854
 31
0.0
210
0.0
220
0.0
230
1.0
 40
0.9999999880192767
 41
-0.7853984835470649
 42
2.356194484201982
  0
LINE
  5
9B37
330
18
100
AcDbEntity
  8
0
100
AcDbLine
 10
-521.8018810000001
 20
-1241.243178099999
 30
0.0
 11
-510.7698521000001
 21
-1241.243178099999
 31
0.0
  0
LINE
  5
9B38
330
18
100
AcDbEntity
  8
0
100
AcDbLine
 10
-521.8018810000001
 20
-1238.040330999999
 30
0.0
 11
-514.3285711
 21
-1238.040330999999
 31
0.0
  0
LINE
  5
9B39
330
18
100
AcDbEntity
  8
0
100
AcDbLine
 10
-523.9371124
 20
-1230.922892999998
 30
0.0
 11
-515.3961868000001
 21
-1230.922892999998
 31
0.0
  0
LINE
  5
9B3A
330
18
100
AcDbEntity
  8
0
100
AcDbLine
 10
-523.9371124
 20
-1227.720045899998
 30
0.0
 11
-515.0403113412811
 21
-1227.720045899998
 31
0.0
  0
LINE
  5
9B3B
330
18
100
AcDbEntity
  8
0
100
AcDbLine
 10
-521.8018810000001
 20
-1235.905099599999
 30
0.0
 11
-514.3285711
 21
-1235.905099599999
 31
0.0
  0
LINE
  5
9B3C
330
18
100
AcDbEntity
  8
0
100
AcDbLine
 10
-521.8018810000001
 20
-1232.702252499999
 30
0.0
 11
-514.3285711
 21
-1232.702252499999
 31
0.0
  0
LINE
  5
9B3D
330
18
100
AcDbEntity
  8
0
100
AcDbLine
 10
-527.1399595
 20
-1227.720045899998
 30
0.0
 11
-527.1399595
 21
-1237.328587199999
 31
0.0
  0
LINE
  5
9B3E
330
18
100
AcDbEntity
  8
0
100
AcDbLine
 10
-523.9371124
 20
-1227.720045899998
 30
0.0
 11
-523.9371124
 21
-1230.922892999998
 31
0.0
  0
ELLIPSE
  5
9B3F
330
18
100
AcDbEntity
  8
0
100
AcDbEllipse
 10
-521.8018810000001
 20
-1236.972715299999
 30
0.0
 11
0.7549183605137984
 21
0.7549183605137984
 31
0.0
210
0.0
220
0.0
230
1.0
 40
0.9999998427842418
 41
0.7853979278460254
 42
3.926990895595126
  0
LINE
  5
9B40
330
18
100
AcDbEntity
  8
0
100
AcDbLine
 10
-514.3285711
 20
-1231.990508699998
 30
0.0
 11
-514.3285711
 21
-1232.702252499999
 31
0.0
  0
LINE
  5
9B41
330
18
100
AcDbEntity
  8
0
100
AcDbLine
 10
-514.3285711
 20
-1235.905099599999
 30
0.0
 11
-514.3285711
 21
-1238.040330999999
 31
0.0
  0
ELLIPSE
  5
9B42
330
18
100
AcDbEntity
  8
0
100
AcDbEllipse
 10
-515.3961868000001
 20
-1231.990508699998
 30
0.0
 11
-0.7549183011713328
 21
0.7549183011713328
 31
0.0
210
0.0
220
0.0
230
0.9999999999999998
 40
0.9999999999998202
 41
3.926990816987331
 42
5.497786829622739
  0
ELLIPSE
  5
9B43
330
18
100
AcDbEntity
  8
0
100
AcDbEllipse
 10
-515.0403113412811
 20
-1231.990508699998
 30
0.0
 11
3.019673204684958
 21
3.019673204684957
 31
0.0
210
0.0
220
0.0
230
1.0
 40
0.9999999999999872
 41
5.497787143782131
 42
7.068583156417759
  0
LINE
  5
9B44
330
18
100
AcDbEntity
  8
0
100
AcDbLine
 10
-491.9086378412811
 20
-1232.702252499999
 30
0.0
 11
-491.9086378412811
 21
-1241.243178099999
 31
0.0
  0
LINE
  5
9B45
330
18
100
AcDbEntity
  8
0
100
AcDbLine
 10
-506.1435138412811
 20
-1230.922892999998
 30
0.0
 11
-506.1435138412811
 21
-1241.243178099999
 31
0.0
  0
LINE
  5
9B46
330
18
100
AcDbEntity
  8
0
100
AcDbLine
 10
-495.4673568412811
 20
-1232.346380599999
 30
0.0
 11
-495.4673568412811
 21
-1241.243178099999
 31
0.0
  0
LINE
  5
9B47
330
18
100
AcDbEntity
  8
0
100
AcDbLine
 10
-499.026075841281
 20
-1231.990508699998
 30
0.0
 11
-499.026075841281
 21
-1241.243178099999
 31
0.0
  0
LINE
  5
9B48
330
18
100
AcDbEntity
  8
0
100
AcDbLine
 10
-502.5847948412812
 20
-1232.346380599999
 30
0.0
 11
-502.5847948412812
 21
-1241.243178099999
 31
0.0
  0
LINE
  5
9B49
330
18
100
AcDbEntity
  8
0
100
AcDbLine
 10
-502.5847948412812
 20
-1241.243178099999
 30
0.0
 11
-499.026075841281
 21
-1241.243178099999
 31
0.0
  0
LINE
  5
9B4A
330
18
100
AcDbEntity
  8
0
100
AcDbLine
 10
-495.4673568412811
 20
-1241.243178099999
 30
0.0
 11
-491.9086378412811
 21
-1241.243178099999
 31
0.0
  0
LINE
  5
9B4B
330
18
100
AcDbEntity
  8
0
100
AcDbLine
 10
-500.0936951000001
 20
-1230.922892999998
 30
0.0
 11
-496.8908444412811
 21
-1230.922892999998
 31
0.0
  0
LINE
  5
9B4C
330
18
100
AcDbEntity
  8
0
100
AcDbLine
 10
-506.1435138412811
 20
-1230.922892999998
 30
0.0
 11
-504.0082824412811
 21
-1230.922892999998
 31
0.0
  0
ELLIPSE
  5
9B4D
330
18
100
AcDbEntity
  8
0
100
AcDbEllipse
 10
-504.0082824412811
 20
-1232.346380599999
 30
0.0
 11
1.006557734895023
 21
1.006557734895023
 31
0.0
210
0.0
220
0.0
230
1.0
 40
0.9999999999999518
 41
5.497787143782113
 42
7.068583156417776
  0
ELLIPSE
  5
9B4E
330
18
100
AcDbEntity
  8
0
100
AcDbEllipse
 10
-500.0936951000001
 20
-1231.990508699998
 30
0.0
 11
-0.7549183011713328
 21
0.7549183011713328
 31
0.0
210
0.0
220
0.0
230
0.9999999999999998
 40
0.9999999999998202
 41
3.926990816987331
 42
5.497786829622793
  0
LINE
  5
9B4F
330
18
100
AcDbEntity
  8
0
100
AcDbLine
 10
-488.7057907412811
 20
-1227.720045899998
 30
0.0
 11
-488.7057907412811
 21
-1230.922892999998
 31
0.0
  0
ELLIPSE
  5
9B50
330
18
100
AcDbEntity
  8
0
100
AcDbEllipse
 10
-496.8908444412811
 20
-1232.346380599999
 30
0.0
 11
-1.006557734895003
 21
1.006557734895003
 31
0.0
210
0.0
220
0.0
230
1.0
 40
0.9999999999999918
 41
3.926990816987245
 42
5.497786829622892
  0
ELLIPSE
  5
9B51
330
18
100
AcDbEntity
  8
0
100
AcDbEllipse
 10
-496.8908444412811
 20
-1232.702252499999
 30
0.0
 11
-3.522952072132443
 21
3.522952072132443
 31
0.0
210
0.0
220
0.0
230
1.0
 40
0.9999999999999912
 41
3.926990816987245
 42
5.497786829622874
  0
ELLIPSE
  5
9B52
330
18
100
AcDbEntity
  8
0
100
AcDbEllipse
 10
-447.4246539000001
 20
-1231.990508699998
 30
0.0
 11
-3.019673204684935
 21
3.019673204684935
 31
0.0
210
0.0
220
0.0
230
0.9999999999999998
 40
0.9999999999999882
 41
3.926990816987247
 42
5.497786829622877
  0
LINE
  5
9B53
330
18
100
AcDbEntity
  8
0
100
AcDbLine
 10
-454.1862271174381
 20
-1238.040330999999
 30
0.0
 11
-446.7129172174382
 21
-1238.040330999999
 31
0.0
  0
LINE
  5
9B54
330
18
100
AcDbEntity
  8
0
100
AcDbLine
 10
-454.1862200000001
 20
-1241.243178099999
 30
0.0
 11
-443.1541982174381
 21
-1241.243178099999
 31
0.0
  0
LINE
  5
9B55
330
18
100
AcDbEntity
  8
0
100
AcDbLine
 10
-454.1862271174381
 20
-1235.905099599999
 30
0.0
 11
-446.7129172174382
 21
-1235.905099599999
 31
0.0
  0
LINE
  5
9B56
330
18
100
AcDbEntity
  8
0
100
AcDbLine
 10
-454.1862200000001
 20
-1232.702252499999
 30
0.0
 11
-446.7129172174382
 21
-1232.702252499999
 31
0.0
  0
ELLIPSE
  5
9B57
330
18
100
AcDbEntity
  8
0
100
AcDbEllipse
 10
-447.7805293587191
 20
-1231.990508699998
 30
0.0
 11
-0.7549183011712927
 21
0.7549183011712927
 31
0.0
210
0.0
220
0.0
230
1.0
 40
0.9999999999998731
 41
3.926990816987304
 42
5.497786829622819
  0
LINE
  5
9B58
330
18
100
AcDbEntity
  8
0
100
AcDbLine
 10
-474.4709147412812
 20
-1241.243178099999
 30
0.0
 11
-466.2858646000001
 21
-1241.243178099999
 31
0.0
  0
LINE
  5
9B59
330
18
100
AcDbEntity
  8
0
100
AcDbLine
 10
-474.4709147412812
 20
-1227.720045899998
 30
0.0
 11
-466.2858646000001
 21
-1227.720045899998
 31
0.0
  0
LINE
  5
9B5A
330
18
100
AcDbEntity
  8
0
100
AcDbLine
 10
-470.9121957412811
 20
-1231.278764899998
 30
0.0
 11
-466.2858646000001
 21
-1231.278764899998
 31
0.0
  0
LINE
  5
9B5B
330
18
100
AcDbEntity
  8
0
100
AcDbLine
 10
-470.9121957412811
 20
-1237.684459099999
 30
0.0
 11
-466.2858646000001
 21
-1237.684459099999
 31
0.0
  0
LINE
  5
9B5C
330
18
100
AcDbEntity
  8
0
100
AcDbLine
 10
-474.4709147412812
 20
-1227.720045899998
 30
0.0
 11
-474.4709147412812
 21
-1241.243178099999
 31
0.0
  0
LINE
  5
9B5D
330
18
100
AcDbEntity
  8
0
100
AcDbLine
 10
-475.5385340000001
 20
-1231.990508699998
 30
0.0
 11
-475.5385340000001
 21
-1241.243178099999
 31
0.0
  0
LINE
  5
9B5E
330
18
100
AcDbEntity
  8
0
100
AcDbLine
 10
-486.5705593412811
 20
-1241.243178099999
 30
0.0
 11
-475.5385340000001
 21
-1241.243178099999
 31
0.0
  0
ELLIPSE
  5
9B5F
330
18
100
AcDbEntity
  8
0
100
AcDbEllipse
 10
-479.8089932412811
 20
-1231.990508699998
 30
0.0
 11
-3.019673204684947
 21
3.019673204684947
 31
0.0
210
0.0
220
0.0
230
0.9999999999999998
 40
0.9999999999999943
 41
3.926990816987244
 42
5.497786829622866
  0
LINE
  5
9B60
330
18
100
AcDbEntity
  8
0
100
AcDbLine
 10
-486.5705593412811
 20
-1238.040330999999
 30
0.0
 11
-479.0972530000001
 21
-1238.040330999999
 31
0.0
  0
LINE
  5
9B61
330
18
100
AcDbEntity
  8
0
100
AcDbLine
 10
-486.5705593412811
 20
-1235.905099599999
 30
0.0
 11
-479.0972530000001
 21
-1235.905099599999
 31
0.0
  0
LINE
  5
9B62
330
18
100
AcDbEntity
  8
0
100
AcDbLine
 10
-486.5705593412811
 20
-1232.702252499999
 30
0.0
 11
-479.0972530000001
 21
-1232.702252499999
 31
0.0
  0
LINE
  5
9B63
330
18
100
AcDbEntity
  8
0
100
AcDbLine
 10
-479.0972530000001
 20
-1231.990508699998
 30
0.0
 11
-479.0972530000001
 21
-1232.702252499999
 31
0.0
  0
LINE
  5
9B64
330
18
100
AcDbEntity
  8
0
100
AcDbLine
 10
-479.0972530000001
 20
-1235.905099599999
 30
0.0
 11
-479.0972530000001
 21
-1238.040330999999
 31
0.0
  0
ELLIPSE
  5
9B65
330
18
100
AcDbEntity
  8
0
100
AcDbEllipse
 10
-480.1648651412811
 20
-1231.990508699998
 30
0.0
 11
-0.7549183011713044
 21
0.7549183011713044
 31
0.0
210
0.0
220
0.0
230
1.0
 40
0.9999999999998953
 41
3.926990816987293
 42
5.497786829622777
  0
ELLIPSE
  5
9B66
330
18
100
AcDbEntity
  8
0
100
AcDbEllipse
 10
-486.5705593412811
 20
-1236.972715299999
 30
0.0
 11
0.7549183605137582
 21
0.7549183605137581
 31
0.0
210
0.0
220
0.0
230
1.0
 40
0.999999842784295
 41
0.7853979278460522
 42
3.926990895595099
  0
LINE
  5
9B67
330
18
100
AcDbEntity
  8
0
100
AcDbLine
 10
-470.9121957412811
 20
-1231.278764899998
 30
0.0
 11
-470.9121957412811
 21
-1237.684459099999
 31
0.0
  0
ELLIPSE
  5
9B68
330
18
100
AcDbEntity
  8
0
100
AcDbEllipse
 10
-454.1862200000001
 20
-1236.972715299999
 30
0.0
 11
-3.019673222773844
 21
3.019673222773844
 31
0.0
210
0.0
220
0.0
230
1.0
 40
0.9999999880192969
 41
-0.785398483547068
 42
2.356194484201993
  0
ELLIPSE
  5
9B69
330
18
100
AcDbEntity
  8
0
100
AcDbEllipse
 10
-466.2858646000001
 20
-1234.481611999999
 30
0.0
 11
4.781149320027912
 21
4.781149320027912
 31
0.0
210
0.0
220
0.0
230
1.0
 40
0.9999999668377837
 41
3.926991182634197
 42
7.068583172998882
  0
ELLIPSE
  5
9B6A
330
18
100
AcDbEntity
  8
0
100
AcDbEllipse
 10
-466.2858646000001
 20
-1234.481611999999
 30
0.0
 11
-2.264754923367706
 21
2.264754923367706
 31
0.0
210
0.0
220
0.0
230
0.9999999999999998
 40
0.9999999824669545
 41
2.356194830491672
 42
5.49778682085636
  0
LINE
  5
9B6B
330
18
100
AcDbEntity
  8
0
100
AcDbLine
 10
-456.3214514000001
 20
-1230.922892999998
 30
0.0
 11
-447.7805293587191
 21
-1230.922892999998
 31
0.0
  0
LINE
  5
9B6C
330
18
100
AcDbEntity
  8
0
100
AcDbLine
 10
-456.3214514000001
 20
-1227.720045899998
 30
0.0
 11
-456.3214514000001
 21
-1230.922892999998
 31
0.0
  0
ELLIPSE
  5
9B6D
330
18
100
AcDbEntity
  8
0
100
AcDbEllipse
 10
-454.1862271174381
 20
-1236.972715299999
 30
0.0
 11
0.7549183605137582
 21
0.7549183605137581
 31
0.0
210
0.0
220
0.0
230
1.0
 40
0.999999842784295
 41
0.7853979278460522
 42
3.926990895595099
  0
LINE
  5
9B6E
330
18
100
AcDbEntity
  8
0
100
AcDbLine
 10
-456.3214514000001
 20
-1227.720045899998
 30
0.0
 11
-447.4246539000001
 21
-1227.720045899998
 31
0.0
  0
LINE
  5
9B6F
330
18
100
AcDbEntity
  8
0
100
AcDbLine
 10
-443.1541982174381
 20
-1231.990508699998
 30
0.0
 11
-443.1541982174381
 21
-1241.243178099999
 31
0.0
  0
LINE
  5
9B70
330
18
100
AcDbEntity
  8
0
100
AcDbLine
 10
-446.7129172174382
 20
-1231.990508699998
 30
0.0
 11
-446.7129172174382
 21
-1232.702252499999
 31
0.0
  0
LINE
  5
9B71
330
18
100
AcDbEntity
  8
0
100
AcDbLine
 10
-446.7129172174382
 20
-1235.905099599999
 30
0.0
 11
-446.7129172174382
 21
-1238.040330999999
 31
0.0
  0
VIEWPORT
  5
37
330
15
100
AcDbEntity
 67
     1
  8
0
100
AcDbViewport
 10
296.9865003830768
 20
210.000879861889
 30
0.0
 40
655.1710945024009
 41
422.6766612391424
 68
     1
 69
     1
 12
296.9865003830768
 22
210.000879861889
 13
0.0
 23
0.0
 14
10.0
 24
10.0
 15
10.0
 25
10.0
 16
0.0
 26
0.0
 36
1.0
 17
0.0
 27
0.0
 37
0.0
 42
50.0
 43
0.0
 44
0.0
 45
422.6766612391424
 50
0.0
 51
0.0
 72
   100
 90
    32768
  1

281
     0
 71
     1
 74
     0
110
0.0
120
0.0
130
0.0
111
1.0
121
0.0
131
0.0
112
0.0
122
1.0
132
0.0
 79
     0
146
0.0
  0
ENDSEC
  0
SECTION
  2
OBJECTS
  0
DICTIONARY
  5
C
330
0
100
AcDbDictionary
281
     1
  3
ACAD_GROUP
350
D
  3
ACAD_IMAGE_VARS
350
7A9
  3
ACAD_LAYOUT
350
1AD
  3
ACAD_MLINESTYLE
350
1B
  3
ACAD_PLOTSETTINGS
350
1AE
  3
ACAD_PLOTSTYLENAME
350
1AB
  3
AcDbVariableDictionary
350
92AF
  0
DICTIONARY
  5
D
102
{ACAD_REACTORS
330
C
102
}
330
C
100
AcDbDictionary
281
     1
  3
*A1
350
49BD
  3
*A2
350
49BE
  0
RASTERVARIABLES
  5
7A9
102
{ACAD_REACTORS
330
C
102
}
330
C
100
AcDbRasterVariables
 90
        0
 70
     1
 71
     1
 72
     0
  0
DICTIONARY
  5
1AD
102
{ACAD_REACTORS
330
C
102
}
330
C
100
AcDbDictionary
281
     1
  3
Model
350
1AF
  3
ﾚｲｱｳﾄ1
350
1B0
  0
DICTIONARY
  5
1B
102
{ACAD_REACTORS
330
C
102
}
330
C
100
AcDbDictionary
281
     1
  3
STANDARD
350
1C
  0
DICTIONARY
  5
1AE
102
{ACAD_REACTORS
330
C
102
}
330
C
100
AcDbDictionary
281
     1
  3
トレース紙Ａ１
350
49BF
  3
トレース紙Ａ２
350
49C0
  3
トレース紙Ａ２_LP-2150_Win98
350
16D1
  3
トレース紙Ａ２_LP-2150_WinNT40
350
CDE
  3
トレース紙Ａ３
350
49C1
  3
トレース紙Ａ３_LP-2150_WinNT40
350
49C2
  3
トレース紙Ａ４
350
49C3
  3
トレース紙Ａ４_LP-2150_Win98
350
49C4
  3
トレース紙Ａ４_LP-2150_WinNT40
350
49C5
  3
モデル
350
49C6
  3
モデル XL-5810
350
49C7
  3
普通紙Ａ１からＡ３
350
49C8
  3
普通紙Ａ１からＡ３ XL-5810
350
49C9
  3
普通紙Ａ２からＡ３
350
49CA
  3
普通紙Ａ２からＡ３ XL-5810
350
49CB
  3
普通紙Ａ２からＡ３_NX610
350
CDF
  3
普通紙Ａ３
350
49CC
  3
普通紙Ａ３ XL-5810
350
49CD
  3
普通紙Ａ３_NX610
350
49CE
  3
普通紙Ａ４
350
49CF
  3
普通紙Ａ４ XL-5810
350
49D0
  3
普通紙Ａ４_NX610
350
49D1
  0
ACDBDICTIONARYWDFLT
  5
1AB
102
{ACAD_REACTORS
330
C
102
}
330
C
100
AcDbDictionary
281
     1
  3
Normal
350
1AC
100
AcDbDictionaryWithDefault
340
1AC
  0
DICTIONARY
  5
92AF
102
{ACAD_REACTORS
330
C
102
}
330
C
100
AcDbDictionary
281
     1
  3
SORTENTS
350
92B0
  0
GROUP
  5
49BD
102
{ACAD_REACTORS
330
D
102
}
330
D
100
AcDbGroup
300

 70
     1
 71
     1
  0
GROUP
  5
49BE
102
{ACAD_REACTORS
330
D
102
}
330
D
100
AcDbGroup
300

 70
     1
 71
     1
  0
LAYOUT
  5
1AF
102
{ACAD_REACTORS
330
1AD
102
}
330
1AD
100
AcDbPlotSettings
  1
モデル
  2
FUJITSU XL-5800
  4
モデル
  6

 40
5.87375
 41
5.704405999999998
 42
5.873749
 43
5.873749
 44
210.057999
 45
296.925995
 46
-934.06
 47
-482.3299999999998
 48
0.0
 49
0.0
140
0.0
141
0.0
142
1.0
143
1.0
 70
 11956
 72
     1
 73
     0
 74
     0
  7
LineScale_10.ctb
 75
    16
147
1.0
148
1033.210332
149
625.0
100
AcDbLayout
  1
Model
 70
     0
 71
     0
 10
0.0
 20
0.0
 11
12.0
 21
9.0
 12
0.0
 22
0.0
 32
0.0
 14
0.0
 24
0.0
 34
0.0
 15
0.0
 25
0.0
 35
0.0
146
0.0
 13
0.0
 23
0.0
 33
0.0
 16
1.0
 26
0.0
 36
0.0
 17
0.0
 27
1.0
 37
0.0
 76
     0
330
18
  0
LAYOUT
  5
1B0
102
{ACAD_REACTORS
330
1AD
102
}
330
1AD
100
AcDbPlotSettings
  1

  2
SII LP-2150 (D-SCAN)
  4

  6
A1
 40
3.174999999999998
 41
3.174999999999998
 42
3.174987999999998
 43
3.174987999999998
 44
593.979004
 45
419.988983
 46
-0.8100000000000001
 47
-3.799999999999998
 48
0.0
 49
0.0
140
841.0
141
594.0
142
1.0
143
1.0
 70
   688
 72
     1
 73
     0
 74
     4
  7
LineScale_10.ctb
 75
    16
147
1.0
148
0.0
149
0.0
100
AcDbLayout
  1
ﾚｲｱｳﾄ1
 70
     1
 71
     1
 10
-0.027002
 20
-0.030288
 11
593.927183
 21
419.94639
 12
0.0
 22
0.0
 32
0.0
 14
-0.0451288823862797
 24
-0.0110595613249416
 34
-0.0015258207003583
 15
594.0181296485397
 25
420.0128192851031
 35
0.0000000349246037
146
0.0
 13
0.0
 23
0.0
 33
0.0
 16
1.0
 26
0.0
 36
0.0
 17
0.0
 27
1.0
 37
0.0
 76
     0
330
15
331
37
  0
MLINESTYLE
  5
1C
102
{ACAD_REACTORS
330
1B
102
}
330
1B
100
AcDbMlineStyle
  2
STANDARD
 70
     0
  3

 62
   256
 51
90.0
 52
90.0
 71
     2
 49
0.5
 62
   256
  6
BYLAYER
 49
-0.5
 62
   256
  6
BYLAYER
  0
PLOTSETTINGS
  5
49BF
102
{ACAD_REACTORS
330
1AE
102
}
330
1AE
100
AcDbPlotSettings
  1
トレース紙Ａ１
  2
SII LP-2150 (D-SCAN)
  4
User117
  6
A1
 40
3.174999952316283
 41
3.174999952316283
 42
3.17498779296875
 43
3.17498779296875
 44
840.9939575195313
 45
593.97900390625
 46
1.0
 47
-7.0
 48
0.0
 49
0.0
140
841.0
141
594.0
142
1.0
143
1.0
 70
   688
 72
     1
 73
     0
 74
     4
  7
LineScale_10.ctb
 75
    16
147
1.0
148
0.0
149
0.0
  0
PLOTSETTINGS
  5
49C0
102
{ACAD_REACTORS
330
1AE
102
}
330
1AE
100
AcDbPlotSettings
  1
トレース紙Ａ２
  2
SII LP-2150 (D-SCAN)
  4
User118
  6
A1
 40
3.174999952316283
 41
3.174999952316283
 42
3.17498779296875
 43
3.17498779296875
 44
593.97900390625
 45
419.9889831542968
 46
0.5
 47
-6.5
 48
0.0
 49
0.0
140
594.0
141
420.0
142
1.0
143
1.0
 70
   688
 72
     1
 73
     0
 74
     4
  7
LineScale_10.ctb
 75
    16
147
1.0
148
0.0
149
0.0
  0
PLOTSETTINGS
  5
16D1
102
{ACAD_REACTORS
330
1AE
102
}
330
1AE
100
AcDbPlotSettings
  1
トレース紙Ａ２_LP-2150_Win98
  2
SII LP-2150 (D-SCAN)
  4
User66
  6
A1
 40
3.174999952316283
 41
3.174999952316283
 42
3.17498779296875
 43
3.17498779296875
 44
593.97900390625
 45
419.9889831542968
 46
-3.879999999999999
 47
-2.399999999999999
 48
0.0
 49
0.0
140
594.0
141
420.0
142
1.0
143
1.0
 70
   688
 72
     1
 73
     0
 74
     4
  7
LineScale_10.ctb
 75
    16
147
1.0
148
0.0
149
0.0
  0
PLOTSETTINGS
  5
CDE
102
{ACAD_REACTORS
330
1AE
102
}
330
1AE
100
AcDbPlotSettings
  1
トレース紙Ａ２_LP-2150_WinNT40
  2
SII LP-2150 (D-SCAN)
  4
User118
  6
A1
 40
3.174999952316283
 41
3.174999952316283
 42
3.17498779296875
 43
3.17498779296875
 44
593.97900390625
 45
419.9889831542968
 46
-0.8100000000000001
 47
-3.799999999999998
 48
0.0
 49
0.0
140
841.0
141
594.0
142
1.0
143
1.0
 70
   688
 72
     1
 73
     0
 74
     4
  7
LineScale_10.ctb
 75
    16
147
1.0
148
0.0
149
0.0
  0
PLOTSETTINGS
  5
49C1
102
{ACAD_REACTORS
330
1AE
102
}
330
1AE
100
AcDbPlotSettings
  1
トレース紙Ａ３
  2
SII LP-2150 (D-SCAN)
  4
User257
  6
A1
 40
3.174999952316283
 41
3.174999952316283
 42
3.17498779296875
 43
3.17498779296875
 44
419.9889831542968
 45
296.989501953125
 46
1.0
 47
-6.0
 48
0.0
 49
0.0
140
420.0
141
297.0
142
1.0
143
1.0
 70
   688
 72
     1
 73
     0
 74
     4
  7
LineScale_10.ctb
 75
    16
147
1.0
148
0.0
149
0.0
  0
PLOTSETTINGS
  5
49C2
102
{ACAD_REACTORS
330
1AE
102
}
330
1AE
100
AcDbPlotSettings
  1
トレース紙Ａ３_LP-2150_WinNT40
  2
SII LP-2150 (D-SCAN)
  4
User257
  6
A1
 40
3.174999952316283
 41
3.174999952316283
 42
3.17498779296875
 43
3.17498779296875
 44
419.9889831542968
 45
296.989501953125
 46
1.85
 47
-5.879999999999999
 48
0.0
 49
0.0
140
420.0
141
297.0
142
1.0
143
1.0
 70
   688
 72
     1
 73
     0
 74
     4
  7
LineScale_10.ctb
 75
    16
147
1.0
148
0.0
149
0.0
  0
PLOTSETTINGS
  5
49C3
102
{ACAD_REACTORS
330
1AE
102
}
330
1AE
100
AcDbPlotSettings
  1
トレース紙Ａ４
  2
SII LP-2150 (D-SCAN)
  4
User258
  6
A1
 40
3.174999952316283
 41
3.174999952316283
 42
3.17498779296875
 43
3.175003051757812
 44
296.989501953125
 45
209.9944915771484
 46
0.8
 47
-2.0
 48
0.0
 49
0.0
140
210.0
141
297.0
142
1.0
143
1.0
 70
   688
 72
     1
 73
     1
 74
     4
  7
LineScale_10.ctb
 75
    16
147
1.0
148
0.0
149
0.0
  0
PLOTSETTINGS
  5
49C4
102
{ACAD_REACTORS
330
1AE
102
}
330
1AE
100
AcDbPlotSettings
  1
トレース紙Ａ４_LP-2150_Win98
  2
SII LP-2150 (D-SCAN)
  4
A4
  6
A1
 40
3.174999952316283
 41
3.174999952316283
 42
3.17498779296875
 43
3.175003051757812
 44
296.989501953125
 45
209.9944915771484
 46
-3.29
 47
-3.859999999999999
 48
0.0
 49
0.0
140
210.0
141
297.0
142
1.0
143
1.0
 70
   688
 72
     1
 73
     1
 74
     4
  7
LineScale_10.ctb
 75
    16
147
1.0
148
0.0
149
0.0
  0
PLOTSETTINGS
  5
49C5
102
{ACAD_REACTORS
330
1AE
102
}
330
1AE
100
AcDbPlotSettings
  1
トレース紙Ａ４_LP-2150_WinNT40
  2
SII LP-2150 (D-SCAN)
  4
User258
  6
A1
 40
3.174999952316283
 41
3.174999952316283
 42
3.17498779296875
 43
3.175003051757812
 44
296.989501953125
 45
209.9944915771484
 46
-0.14
 47
-2.339999999999998
 48
0.0
 49
0.0
140
210.0
141
297.0
142
1.0
143
1.0
 70
   688
 72
     1
 73
     1
 74
     4
  7
LineScale_10.ctb
 75
    16
147
1.0
148
0.0
149
0.0
  0
PLOTSETTINGS
  5
49C6
102
{ACAD_REACTORS
330
1AE
102
}
330
1AE
100
AcDbPlotSettings
  1
モデル
  2
FUJITSU XL-5800
  4
A4
  6

 40
5.873749732971191
 41
5.704405784606932
 42
5.873748779296875
 43
5.873748779296875
 44
210.0579986572264
 45
296.9259948730469
 46
-934.06
 47
-482.3299999999998
 48
0.0
 49
0.0
140
0.0
141
0.0
142
1.0
143
1.0
 70
  1716
 72
     1
 73
     0
 74
     0
  7
LineScale_10.ctb
 75
    16
147
1.0
148
1033.210332103321
149
625.0
  0
PLOTSETTINGS
  5
49C7
102
{ACAD_REACTORS
330
1AE
102
}
330
1AE
100
AcDbPlotSettings
  1
モデル XL-5810
  2
\\PROLIANT1500\FUJITSU XL-5810
  4
A4
  6

 40
5.873749732971191
 41
5.704405784606932
 42
5.873748779296875
 43
5.873748779296875
 44
210.0579986572264
 45
296.9259948730469
 46
-588.8099999999998
 47
-890.54
 48
0.0
 49
0.0
140
0.0
141
0.0
142
1.0
143
1.0
 70
  1716
 72
     1
 73
     1
 74
     0
  7
LineScale_10.ctb
 75
    16
147
1.0
148
1033.210332103321
149
625.0
  0
PLOTSETTINGS
  5
49C8
102
{ACAD_REACTORS
330
1AE
102
}
330
1AE
100
AcDbPlotSettings
  1
普通紙Ａ１からＡ３
  2
FUJITSU XL-5800
  4
A3
  6
A1
 40
5.873749732971191
 41
5.873747825622557
 42
5.70440673828125
 43
5.873748779296875
 44
296.9259948730469
 45
420.1159973144531
 46
-4.129999999999999
 47
-7.07
 48
0.0
 49
0.0
140
841.0
141
594.0
142
1.0
143
2.0
 70
   688
 72
     1
 73
     1
 74
     4
  7
LineScale_05.ctb
 75
    17
147
0.5
148
0.0
149
0.0
  0
PLOTSETTINGS
  5
49C9
102
{ACAD_REACTORS
330
1AE
102
}
330
1AE
100
AcDbPlotSettings
  1
普通紙Ａ１からＡ３ XL-5810
  2
\\PROLIANT1500\FUJITSU XL-5810
  4
A3
  6
A1
 40
5.873749732971191
 41
5.873747825622557
 42
5.70440673828125
 43
5.873748779296875
 44
296.9259948730469
 45
420.1159973144531
 46
-4.129999999999999
 47
-7.07
 48
0.0
 49
0.0
140
841.0
141
594.0
142
1.0
143
2.0
 70
   688
 72
     1
 73
     1
 74
     4
  7
LineScale_05.ctb
 75
    17
147
0.5
148
0.0
149
0.0
  0
PLOTSETTINGS
  5
49CA
102
{ACAD_REACTORS
330
1AE
102
}
330
1AE
100
AcDbPlotSettings
  1
普通紙Ａ２からＡ３
  2
FUJITSU XL-5800
  4
A3
  6
A1
 40
5.873749732971191
 41
5.873747825622557
 42
5.70440673828125
 43
5.873748779296875
 44
296.9259948730469
 45
420.1159973144531
 46
-5.0
 47
-7.0
 48
0.0
 49
0.0
140
594.0
141
420.0
142
0.7071066999999999
143
1.0
 70
   672
 72
     1
 73
     1
 74
     4
  7
LineScale_07.ctb
 75
     0
147
0.7071066999999999
148
0.0
149
0.0
  0
PLOTSETTINGS
  5
49CB
102
{ACAD_REACTORS
330
1AE
102
}
330
1AE
100
AcDbPlotSettings
  1
普通紙Ａ２からＡ３ XL-5810
  2
\\PROLIANT1500\FUJITSU XL-5810
  4
A3
  6
A1
 40
5.873749732971191
 41
5.873747825622557
 42
5.70440673828125
 43
5.873748779296875
 44
296.9259948730469
 45
420.1159973144531
 46
-5.0
 47
-7.0
 48
0.0
 49
0.0
140
594.0
141
420.0
142
0.7071066999999999
143
1.0
 70
   672
 72
     1
 73
     1
 74
     4
  7
LineScale_07.ctb
 75
     0
147
0.7071066999999999
148
0.0
149
0.0
  0
PLOTSETTINGS
  5
CDF
102
{ACAD_REACTORS
330
1AE
102
}
330
1AE
100
AcDbPlotSettings
  1
普通紙Ａ２からＡ３_NX610
  2
RICOH IPSiO NX610
  4
A3
  6
A1
 40
5.831416606903076
 41
4.307413101196288
 42
8.244415283203125
 43
5.789093017578125
 44
296.9683227539062
 45
419.9889831542968
 46
-5.809999999999998
 47
-5.769999999999998
 48
0.0
 49
0.0
140
594.0
141
420.0
142
0.7071066999999999
143
1.0
 70
   672
 72
     1
 73
     1
 74
     4
  7
LineScale_07.ctb
 75
     0
147
0.7071066999999999
148
0.0
149
0.0
  0
PLOTSETTINGS
  5
49CC
102
{ACAD_REACTORS
330
1AE
102
}
330
1AE
100
AcDbPlotSettings
  1
普通紙Ａ３
  2
FUJITSU XL-5800
  4
A3
  6
A1
 40
5.873749732971191
 41
5.873747825622557
 42
5.70440673828125
 43
5.873748779296875
 44
296.9259948730469
 45
420.1159973144531
 46
-3.83
 47
-6.82
 48
0.0
 49
0.0
140
420.0
141
297.0
142
1.0
143
1.0
 70
   688
 72
     1
 73
     1
 74
     4
  7
LineScale_10.ctb
 75
    16
147
1.0
148
0.0
149
0.0
  0
PLOTSETTINGS
  5
49CD
102
{ACAD_REACTORS
330
1AE
102
}
330
1AE
100
AcDbPlotSettings
  1
普通紙Ａ３ XL-5810
  2
\\PROLIANT1500\FUJITSU XL-5810
  4
A3
  6
A1
 40
5.873749732971191
 41
5.873747825622557
 42
5.70440673828125
 43
5.873748779296875
 44
296.9259948730469
 45
420.1159973144531
 46
-3.83
 47
-6.82
 48
0.0
 49
0.0
140
420.0
141
297.0
142
1.0
143
1.0
 70
   688
 72
     1
 73
     1
 74
     4
  7
LineScale_10.ctb
 75
    16
147
1.0
148
0.0
149
0.0
  0
PLOTSETTINGS
  5
49CE
102
{ACAD_REACTORS
330
1AE
102
}
330
1AE
100
AcDbPlotSettings
  1
普通紙Ａ３_NX610
  2
RICOH IPSiO NX610
  4
A3
  6
A1
 40
5.831416606903076
 41
4.307413101196288
 42
8.244415283203125
 43
5.789093017578125
 44
296.9683227539062
 45
419.9889831542968
 46
-5.809999999999998
 47
-5.769999999999998
 48
0.0
 49
0.0
140
420.0
141
297.0
142
1.0
143
1.0
 70
   688
 72
     1
 73
     1
 74
     4
  7
LineScale_10.ctb
 75
    16
147
1.0
148
0.0
149
0.0
  0
PLOTSETTINGS
  5
49CF
102
{ACAD_REACTORS
330
1AE
102
}
330
1AE
100
AcDbPlotSettings
  1
普通紙Ａ４
  2
FUJITSU XL-5800
  4
A4
  6
A1
 40
5.873749732971191
 41
5.704405784606932
 42
5.873748779296875
 43
5.873748779296875
 44
210.0579986572264
 45
296.9259948730469
 46
-6.82
 47
-3.83
 48
0.0
 49
0.0
140
420.0
141
297.0
142
1.0
143
1.0
 70
   688
 72
     1
 73
     0
 74
     4
  7
LineScale_10.ctb
 75
    16
147
1.0
148
0.0
149
0.0
  0
PLOTSETTINGS
  5
49D0
102
{ACAD_REACTORS
330
1AE
102
}
330
1AE
100
AcDbPlotSettings
  1
普通紙Ａ４ XL-5810
  2
\\PROLIANT1500\FUJITSU XL-5810
  4
A4
  6
A1
 40
5.873749732971191
 41
5.704405784606932
 42
5.873748779296875
 43
5.873748779296875
 44
210.0579986572264
 45
296.9259948730469
 46
-6.82
 47
-3.83
 48
0.0
 49
0.0
140
420.0
141
297.0
142
1.0
143
1.0
 70
   688
 72
     1
 73
     0
 74
     4
  7
LineScale_10.ctb
 75
    16
147
1.0
148
0.0
149
0.0
  0
PLOTSETTINGS
  5
49D1
102
{ACAD_REACTORS
330
1AE
102
}
330
1AE
100
AcDbPlotSettings
  1
普通紙Ａ４_NX610
  2
RICOH IPSiO NX610
  4
A4
  6
A1
 40
5.831416606903076
 41
4.942422866821289
 42
7.609405517578125
 43
5.789093017578125
 44
209.9733276367186
 45
296.9683227539062
 46
-5.82
 47
-4.919999999999999
 48
0.0
 49
0.0
140
420.0
141
297.0
142
1.0
143
1.0
 70
   688
 72
     1
 73
     0
 74
     4
  7
LineScale_10.ctb
 75
    16
147
1.0
148
0.0
149
0.0
  0
ACDBPLACEHOLDER
  5
1AC
102
{ACAD_REACTORS
330
1AB
102
}
330
1AB
  0
DICTIONARYVAR
  5
92B0
102
{ACAD_REACTORS
330
92AF
102
}
330
92AF
100
DictionaryVariables
280
     0
  1
96
  0
ENDSEC
  0
EOF
