  0
SECTION
  2
HEADER
  9
$ACADVER
  1
AC1015
  9
$ACADMAINTVER
 70
     6
  9
$DWGCODEPAGE
  3
ANSI_932
  9
$INSBASE
 10
0.0
 20
0.0
 30
0.0
  9
$EXTMIN
 10
152.6964227920934
 20
-796.6129177520447
 30
-0.0000000100019835
  9
$EXTMAX
 10
2334.182730032686
 20
202.6381983811798
 30
0.0000000100019837
  9
$LIMMIN
 10
-841.0
 20
-594.0
  9
$LIMMAX
 10
841.0
 20
594.0
  9
$ORTHOMODE
 70
     1
  9
$REGENMODE
 70
     1
  9
$FILLMODE
 70
     1
  9
$QTEXTMODE
 70
     0
  9
$MIRRTEXT
 70
     0
  9
$LTSCALE
 40
7.0
  9
$ATTMODE
 70
     1
  9
$TEXTSIZE
 40
3.2
  9
$TRACEWID
 40
1.0
  9
$TEXTSTYLE
  7
DIMFONT
  9
$CLAYER
  8
0
  9
$CELTYPE
  6
ByLayer
  9
$CECOLOR
 62
   256
  9
$CELTSCALE
 40
1.0
  9
$DISPSILH
 70
     0
  9
$DIMSCALE
 40
4.0
  9
$DIMASZ
 40
3.0
  9
$DIMEXO
 40
0.0
  9
$DIMDLI
 40
10.0
  9
$DIMRND
 40
0.0
  9
$DIMDLE
 40
0.0
  9
$DIMEXE
 40
1.0
  9
$DIMTP
 40
0.0
  9
$DIMTM
 40
0.0
  9
$DIMTXT
 40
3.2
  9
$DIMCEN
 40
0.0
  9
$DIMTSZ
 40
0.0
  9
$DIMTOL
 70
     0
  9
$DIMLIM
 70
     0
  9
$DIMTIH
 70
     0
  9
$DIMTOH
 70
     0
  9
$DIMSE1
 70
     0
  9
$DIMSE2
 70
     0
  9
$DIMTAD
 70
     3
  9
$DIMZIN
 70
     8
  9
$DIMBLK
  1

  9
$DIMASO
 70
     1
  9
$DIMSHO
 70
     1
  9
$DIMPOST
  1

  9
$DIMAPOST
  1

  9
$DIMALT
 70
     0
  9
$DIMALTD
 70
     2
  9
$DIMALTF
 40
25.4
  9
$DIMLFAC
 40
1.0
  9
$DIMTOFL
 70
     1
  9
$DIMTVP
 40
0.0
  9
$DIMTIX
 70
     0
  9
$DIMSOXD
 70
     0
  9
$DIMSAH
 70
     1
  9
$DIMBLK1
  1
OPEN
  9
$DIMBLK2
  1
OPEN
  9
$DIMSTYLE
  2
1_4
  9
$DIMCLRD
 70
     0
  9
$DIMCLRE
 70
     0
  9
$DIMCLRT
 70
     0
  9
$DIMTFAC
 40
0.75
  9
$DIMGAP
 40
1.0
  9
$DIMJUST
 70
     0
  9
$DIMSD1
 70
     0
  9
$DIMSD2
 70
     0
  9
$DIMTOLJ
 70
     1
  9
$DIMTZIN
 70
     8
  9
$DIMALTZ
 70
     0
  9
$DIMALTTZ
 70
     0
  9
$DIMUPT
 70
     0
  9
$DIMDEC
 70
     4
  9
$DIMTDEC
 70
     4
  9
$DIMALTU
 70
     2
  9
$DIMALTTD
 70
     2
  9
$DIMTXSTY
  7
DIMFONT
  9
$DIMAUNIT
 70
     0
  9
$DIMADEC
 70
     2
  9
$DIMALTRND
 40
0.0
  9
$DIMAZIN
 70
     2
  9
$DIMDSEP
 70
    46
  9
$DIMATFIT
 70
     1
  9
$DIMFRAC
 70
     0
  9
$DIMLDRBLK
  1

  9
$DIMLUNIT
 70
     2
  9
$DIMLWD
 70
    -2
  9
$DIMLWE
 70
    -2
  9
$DIMTMOVE
 70
     1
  9
$LUNITS
 70
     2
  9
$LUPREC
 70
     4
  9
$SKETCHINC
 40
1.0
  9
$FILLETRAD
 40
0.0
  9
$AUNITS
 70
     0
  9
$AUPREC
 70
     4
  9
$MENU
  1
acad
  9
$ELEVATION
 40
0.0
  9
$PELEVATION
 40
0.0
  9
$THICKNESS
 40
0.0
  9
$LIMCHECK
 70
     0
  9
$CHAMFERA
 40
0.0
  9
$CHAMFERB
 40
0.0
  9
$CHAMFERC
 40
0.0
  9
$CHAMFERD
 40
0.0
  9
$SKPOLY
 70
     0
  9
$TDCREATE
 40
2453365.400985775
  9
$TDUCREATE
 40
2453365.025985775
  9
$TDUPDATE
 40
2453634.676235706
  9
$TDUUPDATE
 40
2453634.301235706
  9
$TDINDWG
 40
0.1686861690
  9
$TDUSRTIMER
 40
0.1686859838
  9
$USRTIMER
 70
     1
  9
$ANGBASE
 50
0.0
  9
$ANGDIR
 70
     0
  9
$PDMODE
 70
    35
  9
$PDSIZE
 40
0.5
  9
$PLINEWID
 40
0.0
  9
$SPLFRAME
 70
     0
  9
$SPLINETYPE
 70
     6
  9
$SPLINESEGS
 70
     8
  9
$HANDSEED
  5
F5AB
  9
$SURFTAB1
 70
     6
  9
$SURFTAB2
 70
     6
  9
$SURFTYPE
 70
     6
  9
$SURFU
 70
     6
  9
$SURFV
 70
     6
  9
$UCSBASE
  2

  9
$UCSNAME
  2

  9
$UCSORG
 10
0.0
 20
0.0
 30
0.0
  9
$UCSXDIR
 10
1.0
 20
0.0
 30
0.0
  9
$UCSYDIR
 10
0.0
 20
1.0
 30
0.0
  9
$UCSORTHOREF
  2

  9
$UCSORTHOVIEW
 70
     0
  9
$UCSORGTOP
 10
0.0
 20
0.0
 30
0.0
  9
$UCSORGBOTTOM
 10
0.0
 20
0.0
 30
0.0
  9
$UCSORGLEFT
 10
0.0
 20
0.0
 30
0.0
  9
$UCSORGRIGHT
 10
0.0
 20
0.0
 30
0.0
  9
$UCSORGFRONT
 10
0.0
 20
0.0
 30
0.0
  9
$UCSORGBACK
 10
0.0
 20
0.0
 30
0.0
  9
$PUCSBASE
  2

  9
$PUCSNAME
  2

  9
$PUCSORG
 10
0.0
 20
0.0
 30
0.0
  9
$PUCSXDIR
 10
1.0
 20
0.0
 30
0.0
  9
$PUCSYDIR
 10
0.0
 20
1.0
 30
0.0
  9
$PUCSORTHOREF
  2

  9
$PUCSORTHOVIEW
 70
     0
  9
$PUCSORGTOP
 10
0.0
 20
0.0
 30
0.0
  9
$PUCSORGBOTTOM
 10
0.0
 20
0.0
 30
0.0
  9
$PUCSORGLEFT
 10
0.0
 20
0.0
 30
0.0
  9
$PUCSORGRIGHT
 10
0.0
 20
0.0
 30
0.0
  9
$PUCSORGFRONT
 10
0.0
 20
0.0
 30
0.0
  9
$PUCSORGBACK
 10
0.0
 20
0.0
 30
0.0
  9
$USERI1
 70
     0
  9
$USERI2
 70
     0
  9
$USERI3
 70
     0
  9
$USERI4
 70
     0
  9
$USERI5
 70
     0
  9
$USERR1
 40
0.0
  9
$USERR2
 40
0.0
  9
$USERR3
 40
0.0
  9
$USERR4
 40
0.0
  9
$USERR5
 40
0.0
  9
$WORLDVIEW
 70
     1
  9
$SHADEDGE
 70
     3
  9
$SHADEDIF
 70
    70
  9
$TILEMODE
 70
     1
  9
$MAXACTVP
 70
    48
  9
$PINSBASE
 10
0.0
 20
0.0
 30
0.0
  9
$PLIMCHECK
 70
     0
  9
$PEXTMIN
 10
0.0
 20
0.0
 30
0.0
  9
$PEXTMAX
 10
594.0
 20
420.0
 30
0.0
  9
$PLIMMIN
 10
-0.027002
 20
-0.030288
  9
$PLIMMAX
 10
593.927183
 20
419.94639
  9
$UNITMODE
 70
     0
  9
$VISRETAIN
 70
     0
  9
$PLINEGEN
 70
     1
  9
$PSLTSCALE
 70
     1
  9
$TREEDEPTH
 70
  3020
  9
$CMLSTYLE
  2
STANDARD
  9
$CMLJUST
 70
     0
  9
$CMLSCALE
 40
20.0
  9
$PROXYGRAPHICS
 70
     1
  9
$MEASUREMENT
 70
     1
  9
$CELWEIGHT
370
    -1
  9
$ENDCAPS
280
     0
  9
$JOINSTYLE
280
     0
  9
$LWDISPLAY
290
     0
  9
$INSUNITS
 70
     0
  9
$HYPERLINKBASE
  1

  9
$STYLESHEET
  1

  9
$XEDIT
290
     1
  9
$CEPSNTYPE
380
     0
  9
$PSTYLEMODE
290
     1
  9
$FINGERPRINTGUID
  2
{7FD28A7C-F8BA-11D3-9BCC-00A0C977751D}
  9
$VERSIONGUID
  2
{096387B4-4C0A-4E86-9D24-C56C06651AB2}
  9
$EXTNAMES
290
     1
  9
$PSVPSCALE
 40
0.0
  9
$OLESTARTUP
290
     0
  0
ENDSEC
  0
SECTION
  2
CLASSES
  0
CLASS
  1
LWPOLYLINE
  2
AcDbPolyline
  3
AutoCAD 2000
 90
    32768
280
     0
281
     1
  0
CLASS
  1
ACDBDICTIONARYWDFLT
  2
AcDbDictionaryWithDefault
  3
AutoCAD 2000
 90
        0
280
     0
281
     0
  0
CLASS
  1
ACDBPLACEHOLDER
  2
AcDbPlaceHolder
  3
AutoCAD 2000
 90
        0
280
     0
281
     0
  0
CLASS
  1
LAYOUT
  2
AcDbLayout
  3
AutoCAD 2000
 90
        0
280
     0
281
     0
  0
CLASS
  1
PLOTSETTINGS
  2
AcDbPlotSettings
  3
AutoCAD 2000
 90
        0
280
     0
281
     0
  0
CLASS
  1
RASTERVARIABLES
  2
AcDbRasterVariables
  3
ISM
 90
        0
280
     0
281
     0
  0
CLASS
  1
DICTIONARYVAR
  2
AcDbDictionaryVar
  3
AutoCAD 2000
 90
        0
280
     0
281
     0
  0
CLASS
  1
IMAGE
  2
AcDbRasterImage
  3
ISM
 90
    32895
280
     0
281
     1
  0
CLASS
  1
OLE2FRAME
  2
AcDbOle2Frame
  3
AutoCAD 2000
 90
    32768
280
     0
281
     1
  0
CLASS
  1
HATCH
  2
AcDbHatch
  3
AutoCAD 2000
 90
    32768
280
     0
281
     1
  0
CLASS
  1
IMAGEDEF
  2
AcDbRasterImageDef
  3
ISM
 90
    32768
280
     0
281
     0
  0
CLASS
  1
IMAGEDEF_REACTOR
  2
AcDbRasterImageDefReactor
  3
ISM
 90
    32769
280
     0
281
     0
  0
CLASS
  1
IDBUFFER
  2
AcDbIdBuffer
  3
AutoCAD 2000
 90
    32768
280
     0
281
     0
  0
CLASS
  1
SPATIAL_FILTER
  2
AcDbSpatialFilter
  3
AutoCAD 2000
 90
    32768
280
     0
281
     0
  0
CLASS
  1
XRECORD
  2
AcDbXrecord
  3
AutoCAD 2000
 90
    32768
280
     0
281
     0
  0
CLASS
  1
SORTENTSTABLE
  2
AcDbSortentsTable
  3
AutoCAD 2000
 90
    32768
280
     0
281
     0
  0
CLASS
  1
LAYER_INDEX
  2
AcDbLayerIndex
  3
AutoCAD 2000
 90
    32768
280
     0
281
     0
  0
CLASS
  1
SPATIAL_INDEX
  2
AcDbSpatialIndex
  3
AutoCAD 2000
 90
    32768
280
     0
281
     0
  0
CLASS
  1
OBJECT_PTR
  2
CAseDLPNTableRecord
  3
"ASE-LPNTableRecord"
 90
    32769
280
     0
281
     0
  0
CLASS
  1
VBA_PROJECT
  2
AcDbVbaProject
  3
"acadvba"
 90
    32769
280
     0
281
     0
  0
CLASS
  1
WIPEOUT
  2
AcDbWipeout
  3
WipeOut|AutoCAD Express Tool|expresstools@autodesk.com
 90
    32895
280
     0
281
     1
  0
CLASS
  1
WIPEOUTVARIABLES
  2
AcDbWipeoutVariables
  3
WipeOut|AutoCAD Express Tool|expresstools@autodesk.com
 90
    32768
280
     0
281
     0
  0
CLASS
  1
RTEXT
  2
RText
  3
RText|AutoCAD Express Tool|expresstools@autodesk.com
 90
    32768
280
     0
281
     1
  0
CLASS
  1
ARCALIGNEDTEXT
  2
AcDbArcAlignedText
  3
ATEXT|AutoCAD Express Tool|expresstools@autodesk.com
 90
    32768
280
     0
281
     1
  0
ENDSEC
  0
SECTION
  2
TABLES
  0
TABLE
  2
VPORT
  5
8
330
0
100
AcDbSymbolTable
 70
     3
  0
VPORT
  5
F5AA
330
8
100
AcDbSymbolTableRecord
100
AcDbViewportTableRecord
  2
*Active
 70
     0
 10
0.0
 20
0.0
 11
1.0
 21
1.0
 12
1243.439576412389
 22
-296.9873596854324
 13
0.0
 23
0.0
 14
5.0
 24
5.0
 15
10.0
 25
10.0
 16
0.0
 26
0.0
 36
1.0
 17
0.0
 27
0.0
 37
0.0
 40
1374.381918452345
 41
1.593716143011917
 42
50.0
 43
0.0
 44
0.0
 50
0.0
 51
0.0
 71
     0
 72
   100
 73
     1
 74
     0
 75
     0
 76
     0
 77
     0
 78
     0
281
     0
 65
     1
110
0.0
120
0.0
130
0.0
111
1.0
121
0.0
131
0.0
112
0.0
122
1.0
132
0.0
 79
     0
146
0.0
  0
ENDTAB
  0
TABLE
  2
LTYPE
  5
5
330
0
100
AcDbSymbolTable
 70
     4
  0
LTYPE
  5
12
330
5
100
AcDbSymbolTableRecord
100
AcDbLinetypeTableRecord
  2
ByBlock
 70
     0
  3

 72
    65
 73
     0
 40
0.0
  0
LTYPE
  5
13
330
5
100
AcDbSymbolTableRecord
100
AcDbLinetypeTableRecord
  2
ByLayer
 70
     0
  3

 72
    65
 73
     0
 40
0.0
  0
LTYPE
  5
14
330
5
100
AcDbSymbolTableRecord
100
AcDbLinetypeTableRecord
  2
CONTINUOUS
 70
     0
  3
Solid line
 72
    65
 73
     0
 40
0.0
  0
LTYPE
  5
22
330
5
100
AcDbSymbolTableRecord
100
AcDbLinetypeTableRecord
  2
CENTER
 70
     0
  3
____ _ ____ _ ____ _ ____ _ ____ _ ____ _ ____ 
 72
    65
 73
     4
 40
2.0
 49
1.25
 74
     0
 49
-0.25
 74
     0
 49
0.25
 74
     0
 49
-0.25
 74
     0
  0
LTYPE
  5
23
330
5
100
AcDbSymbolTableRecord
100
AcDbLinetypeTableRecord
  2
HIDDEN
 70
     0
  3
__ __ __ __ __ __ __ __ __ __ __ __ __ __ __ __
 72
    65
 73
     2
 40
0.375
 49
0.25
 74
     0
 49
-0.125
 74
     0
  0
LTYPE
  5
24
330
5
100
AcDbSymbolTableRecord
100
AcDbLinetypeTableRecord
  2
PHANTOM
 70
     0
  3
______  __  __  ______  __  __  ______  __  __ 
 72
    65
 73
     6
 40
2.5
 49
1.25
 74
     0
 49
-0.25
 74
     0
 49
0.25
 74
     0
 49
-0.25
 74
     0
 49
0.25
 74
     0
 49
-0.25
 74
     0
  0
ENDTAB
  0
TABLE
  2
LAYER
  5
2
330
0
100
AcDbSymbolTable
 70
    14
  0
LAYER
  5
E
330
2
100
AcDbSymbolTableRecord
100
AcDbLayerTableRecord
  2
0
 70
     0
 62
     7
  6
CONTINUOUS
370
    -3
390
1AC
  0
LAYER
  5
25
330
2
100
AcDbSymbolTableRecord
100
AcDbLayerTableRecord
  2
CENTER
 70
     0
 62
     1
  6
CENTER
370
    -3
390
1AC
  0
LAYER
  5
26
330
2
100
AcDbSymbolTableRecord
100
AcDbLayerTableRecord
  2
DIM1-1
 70
     0
 62
     1
  6
CONTINUOUS
370
    -3
390
1AC
  0
LAYER
  5
27
330
2
100
AcDbSymbolTableRecord
100
AcDbLayerTableRecord
  2
DRAW
 70
     0
 62
     7
  6
CONTINUOUS
370
    -3
390
1AC
  0
LAYER
  5
28
330
2
100
AcDbSymbolTableRecord
100
AcDbLayerTableRecord
  2
DRAW1
 70
     0
 62
     3
  6
CONTINUOUS
370
    -3
390
1AC
  0
LAYER
  5
29
330
2
100
AcDbSymbolTableRecord
100
AcDbLayerTableRecord
  2
DRAW2
 70
     0
 62
     4
  6
CONTINUOUS
370
    -3
390
1AC
  0
LAYER
  5
2A
330
2
100
AcDbSymbolTableRecord
100
AcDbLayerTableRecord
  2
DRAW3
 70
     0
 62
     1
  6
CONTINUOUS
370
    -3
390
1AC
  0
LAYER
  5
2C
330
2
100
AcDbSymbolTableRecord
100
AcDbLayerTableRecord
  2
HIDDEN
 70
     0
 62
     7
  6
HIDDEN
370
    -3
390
1AC
  0
LAYER
  5
2D
330
2
100
AcDbSymbolTableRecord
100
AcDbLayerTableRecord
  2
IMAGE
 70
     0
 62
     1
  6
PHANTOM
370
    -3
390
1AC
  0
LAYER
  5
2E
330
2
100
AcDbSymbolTableRecord
100
AcDbLayerTableRecord
  2
NOTE
 70
     0
 62
     7
  6
CONTINUOUS
370
    -3
390
1AC
  0
LAYER
  5
2F
330
2
100
AcDbSymbolTableRecord
100
AcDbLayerTableRecord
  2
POINT
 70
     0
 62
     6
  6
CONTINUOUS
290
     0
370
    -3
390
1AC
  0
LAYER
  5
133
330
2
100
AcDbSymbolTableRecord
100
AcDbLayerTableRecord
  2
DEFPOINTS
 70
     0
 62
     7
  6
CONTINUOUS
290
     0
370
    -3
390
1AC
  0
LAYER
  5
1B8
330
2
100
AcDbSymbolTableRecord
100
AcDbLayerTableRecord
  2
FRAME
 70
     0
 62
     7
  6
CONTINUOUS
370
    -3
390
1AC
  0
LAYER
  5
41AD
330
2
100
AcDbSymbolTableRecord
100
AcDbLayerTableRecord
  2
SYMBOL
 70
     0
 62
     7
  6
CONTINUOUS
370
    -3
390
1AC
  0
ENDTAB
  0
TABLE
  2
STYLE
  5
3
330
0
100
AcDbSymbolTable
 70
     3
  0
STYLE
  5
F
330
3
100
AcDbSymbolTableRecord
100
AcDbTextStyleTableRecord
  2
STANDARD
 70
     0
 40
0.0
 41
1.0
 50
0.0
 71
     0
 42
2.5
  3
txt
  4

  0
STYLE
  5
30
330
3
100
AcDbSymbolTableRecord
100
AcDbTextStyleTableRecord
  2
DIMFONT
 70
     0
 40
0.0
 41
1.0
 50
10.0
 71
     0
 42
3.2
  3
romans.shx
  4
extfont.shx
  0
STYLE
  5
C38
330
3
100
AcDbSymbolTableRecord
100
AcDbTextStyleTableRecord
  2
RCEXFONT
 70
     0
 40
0.0
 41
1.0
 50
0.0
 71
     0
 42
3.2
  3
romanc.shx
  4
extfont.shx
  0
ENDTAB
  0
TABLE
  2
VIEW
  5
6
330
0
100
AcDbSymbolTable
 70
     5
  0
VIEW
  5
C27
330
6
100
AcDbSymbolTableRecord
100
AcDbViewTableRecord
  2
View1
 70
     0
 40
1250.0
 10
0.0
 20
0.0
 41
2066.420664
 11
0.0
 21
0.0
 31
1.0
 12
0.0
 22
0.0
 32
0.0
 42
50.0
 43
0.0
 44
0.0
 50
0.0
 71
     0
281
     0
 72
     1
110
0.0
120
0.0
130
0.0
111
1.0
121
0.0
131
0.0
112
0.0
122
1.0
132
0.0
 79
     0
146
0.0
  0
VIEW
  5
C2A
330
6
100
AcDbSymbolTableRecord
100
AcDbViewTableRecord
  2
A4
 70
     0
 40
314.214893
 10
103.822243
 20
144.519751
 41
519.4401179999998
 11
0.0
 21
0.0
 31
1.0
 12
0.0
 22
0.0
 32
0.0
 42
50.0
 43
0.0
 44
0.0
 50
0.0
 71
     0
281
     1
 72
     1
110
0.0
120
0.0
130
0.0
111
1.0
121
0.0
131
0.0
112
0.0
122
1.0
132
0.0
 79
     0
146
0.0
  0
VIEW
  5
C2B
330
6
100
AcDbSymbolTableRecord
100
AcDbViewTableRecord
  2
A3
 70
     0
 40
314.214893
 10
205.819492
 20
151.3197509999999
 41
519.4401179999998
 11
0.0
 21
0.0
 31
1.0
 12
0.0
 22
0.0
 32
0.0
 42
50.0
 43
0.0
 44
0.0
 50
0.0
 71
     0
281
     1
 72
     1
110
0.0
120
0.0
130
0.0
111
1.0
121
0.0
131
0.0
112
0.0
122
1.0
132
0.0
 79
     0
146
0.0
  0
VIEW
  5
C2C
330
6
100
AcDbSymbolTableRecord
100
AcDbViewTableRecord
  2
A2
 70
     0
 40
444.348344
 10
293.3145019999999
 20
213.319492
 41
734.56848
 11
0.0
 21
0.0
 31
1.0
 12
0.0
 22
0.0
 32
0.0
 42
50.0
 43
0.0
 44
0.0
 50
0.0
 71
     0
281
     1
 72
     1
110
0.0
120
0.0
130
0.0
111
1.0
121
0.0
131
0.0
112
0.0
122
1.0
132
0.0
 79
     0
146
0.0
  0
VIEW
  5
C2D
330
6
100
AcDbSymbolTableRecord
100
AcDbViewTableRecord
  2
A1
 70
     0
 40
628.2954049999998
 10
422.5084999999998
 20
293.438495
 41
1038.658087
 11
0.0
 21
0.0
 31
1.0
 12
0.0
 22
0.0
 32
0.0
 42
50.0
 43
0.0
 44
0.0
 50
0.0
 71
     0
281
     1
 72
     1
110
0.0
120
0.0
130
0.0
111
1.0
121
0.0
131
0.0
112
0.0
122
1.0
132
0.0
 79
     0
146
0.0
  0
ENDTAB
  0
TABLE
  2
UCS
  5
7
330
0
100
AcDbSymbolTable
 70
     0
  0
ENDTAB
  0
TABLE
  2
APPID
  5
9
330
0
100
AcDbSymbolTable
 70
     1
  0
APPID
  5
10
330
9
100
AcDbSymbolTableRecord
100
AcDbRegAppTableRecord
  2
ACAD
 70
     0
  0
ENDTAB
  0
TABLE
  2
DIMSTYLE
  5
A
330
0
100
AcDbSymbolTable
 70
     3
100
AcDbDimStyleTable
 71
     0
  0
DIMSTYLE
105
43
330
A
100
AcDbSymbolTableRecord
100
AcDbDimStyleTableRecord
  2
1_1
 70
     0
 41
3.0
 42
0.0
 43
10.0
 44
1.0
 73
     0
 74
     0
 77
     3
 78
     8
 79
     2
140
3.2
141
0.0
146
0.75
147
1.0
172
     1
173
     1
179
     2
284
     8
340
30
341
125
343
125
344
125
  0
DIMSTYLE
105
4E
330
A
100
AcDbSymbolTableRecord
100
AcDbDimStyleTableRecord
  2
1_4
 70
     0
 40
4.0
 41
3.0
 42
0.0
 43
10.0
 44
1.0
 73
     0
 74
     0
 77
     3
 78
     8
 79
     2
140
3.2
141
0.0
146
0.75
147
1.0
172
     1
173
     1
179
     2
284
     8
340
30
341
125
343
125
344
125
  0
DIMSTYLE
105
C39
330
A
100
AcDbSymbolTableRecord
100
AcDbDimStyleTableRecord
  2
STANDARD
 70
     0
340
F
  0
ENDTAB
  0
TABLE
  2
BLOCK_RECORD
  5
1
330
0
100
AcDbSymbolTable
 70
    24
  0
BLOCK_RECORD
  5
18
330
1
100
AcDbSymbolTableRecord
100
AcDbBlockTableRecord
  2
*MODEL_SPACE
340
1AF
  0
BLOCK_RECORD
  5
15
330
1
100
AcDbSymbolTableRecord
100
AcDbBlockTableRecord
  2
*PAPER_SPACE
340
1B0
  0
BLOCK_RECORD
  5
125
330
1
100
AcDbSymbolTableRecord
100
AcDbBlockTableRecord
  2
_OPEN
340
0
102
{BLKREFS
331
F2A3
331
F2A4
331
F1CF
331
F1D0
331
F224
331
F225
331
F236
331
F237
331
F205
331
F206
331
F210
331
F211
331
F21B
331
F21C
331
F1D8
331
F1D9
331
F1F3
331
F1F4
331
F1EA
331
F1EB
331
F1E1
331
F1E2
331
F23F
331
F240
331
F248
331
F249
331
F22D
331
F22E
331
F2CF
331
F2D0
331
F2EE
331
F2EF
331
F321
331
F322
331
F381
331
F382
331
F387
331
F388
331
F38D
331
F38E
331
F390
331
F395
331
F396
331
F398
331
F39D
331
F39E
331
F3A3
331
F3A4
331
F3A9
331
F3AA
331
F3AF
331
F3B0
331
F3B5
331
F3B6
331
F3BD
331
F3BE
331
F3C5
331
F3C6
331
F3F9
331
F415
331
F416
331
F41B
331
F41C
331
F422
331
F423
331
F428
331
F429
102
}
  0
BLOCK_RECORD
  5
1484
330
1
100
AcDbSymbolTableRecord
100
AcDbBlockTableRecord
  2
_Dot
340
0
  0
BLOCK_RECORD
  5
4108
330
1
100
AcDbSymbolTableRecord
100
AcDbBlockTableRecord
  2
3
340
0
102
{BLKREFS
331
53B2
331
53B3
102
}
  0
BLOCK_RECORD
  5
5AC0
330
1
100
AcDbSymbolTableRecord
100
AcDbBlockTableRecord
  2
*D3
340
0
  0
BLOCK_RECORD
  5
5AD8
330
1
100
AcDbSymbolTableRecord
100
AcDbBlockTableRecord
  2
*D4
340
0
  0
BLOCK_RECORD
  5
5B14
330
1
100
AcDbSymbolTableRecord
100
AcDbBlockTableRecord
  2
*D5
340
0
  0
BLOCK_RECORD
  5
5B20
330
1
100
AcDbSymbolTableRecord
100
AcDbBlockTableRecord
  2
*D6
340
0
  0
BLOCK_RECORD
  5
6D89
330
1
100
AcDbSymbolTableRecord
100
AcDbBlockTableRecord
  2
6-05
340
0
102
{BLKREFS
331
6DE2
331
F3DA
102
}
  0
BLOCK_RECORD
  5
6DE1
330
1
100
AcDbSymbolTableRecord
100
AcDbBlockTableRecord
  2
A$C9270
340
0
102
{BLKREFS
331
EC6F
102
}
  0
BLOCK_RECORD
  5
6DE5
330
1
100
AcDbSymbolTableRecord
100
AcDbBlockTableRecord
  2
6-12
340
0
102
{BLKREFS
331
6E7C
331
F3CF
102
}
  0
BLOCK_RECORD
  5
6E74
330
1
100
AcDbSymbolTableRecord
100
AcDbBlockTableRecord
  2
A$CA052
340
0
102
{BLKREFS
331
EC6E
102
}
  0
BLOCK_RECORD
  5
6E89
330
1
100
AcDbSymbolTableRecord
100
AcDbBlockTableRecord
  2
A$CA1A3
340
0
102
{BLKREFS
331
ECBA
102
}
  0
BLOCK_RECORD
  5
EC73
330
1
100
AcDbSymbolTableRecord
100
AcDbBlockTableRecord
  2
*D12
340
0
  0
BLOCK_RECORD
  5
EC7F
330
1
100
AcDbSymbolTableRecord
100
AcDbBlockTableRecord
  2
*D13
340
0
  0
BLOCK_RECORD
  5
EC8D
330
1
100
AcDbSymbolTableRecord
100
AcDbBlockTableRecord
  2
*D14
340
0
  0
BLOCK_RECORD
  5
ECBC
330
1
100
AcDbSymbolTableRecord
100
AcDbBlockTableRecord
  2
*D15
340
0
  0
BLOCK_RECORD
  5
F071
330
1
100
AcDbSymbolTableRecord
100
AcDbBlockTableRecord
  2
*D16
340
0
  0
BLOCK_RECORD
  5
F07E
330
1
100
AcDbSymbolTableRecord
100
AcDbBlockTableRecord
  2
*D17
340
0
  0
BLOCK_RECORD
  5
F0D6
330
1
100
AcDbSymbolTableRecord
100
AcDbBlockTableRecord
  2
*D18
340
0
  0
BLOCK_RECORD
  5
F101
330
1
100
AcDbSymbolTableRecord
100
AcDbBlockTableRecord
  2
*D19
340
0
  0
BLOCK_RECORD
  5
F10D
330
1
100
AcDbSymbolTableRecord
100
AcDbBlockTableRecord
  2
*D20
340
0
  0
BLOCK_RECORD
  5
F17D
330
1
100
AcDbSymbolTableRecord
100
AcDbBlockTableRecord
  2
*D21
340
0
  0
BLOCK_RECORD
  5
F2B7
330
1
100
AcDbSymbolTableRecord
100
AcDbBlockTableRecord
  2
*D22
340
0
  0
BLOCK_RECORD
  5
F2D6
330
1
100
AcDbSymbolTableRecord
100
AcDbBlockTableRecord
  2
*D23
340
0
  0
ENDTAB
  0
ENDSEC
  0
SECTION
  2
BLOCKS
  0
BLOCK
  5
19
330
18
100
AcDbEntity
  8
0
100
AcDbBlockBegin
  2
*MODEL_SPACE
 70
     0
 10
0.0
 20
0.0
 30
0.0
  3
*MODEL_SPACE
  1

  0
ENDBLK
  5
1A
330
18
100
AcDbEntity
  8
0
100
AcDbBlockEnd
  0
BLOCK
  5
16
330
15
100
AcDbEntity
 67
     1
  8
0
100
AcDbBlockBegin
  2
*PAPER_SPACE
 70
     0
 10
0.0
 20
0.0
 30
0.0
  3
*PAPER_SPACE
  1

  0
ENDBLK
  5
17
330
15
100
AcDbEntity
 67
     1
  8
0
100
AcDbBlockEnd
  0
BLOCK
  5
126
330
125
100
AcDbEntity
  8
0
100
AcDbBlockBegin
  2
_OPEN
 70
     0
 10
0.0
 20
0.0
 30
0.0
  3
_OPEN
  1

  0
LINE
  5
127
330
125
100
AcDbEntity
  8
0
  6
ByBlock
 62
     0
100
AcDbLine
 10
-1.0
 20
0.166667
 30
0.0
 11
0.0
 21
0.0
 31
0.0
  0
LINE
  5
128
330
125
100
AcDbEntity
  8
0
  6
ByBlock
 62
     0
100
AcDbLine
 10
0.0
 20
0.0
 30
0.0
 11
-1.0
 21
-0.166667
 31
0.0
  0
LINE
  5
129
330
125
100
AcDbEntity
  8
0
  6
ByBlock
 62
     0
100
AcDbLine
 10
0.0
 20
0.0
 30
0.0
 11
-1.0
 21
0.0
 31
0.0
  0
ENDBLK
  5
12A
330
125
100
AcDbEntity
  8
0
100
AcDbBlockEnd
  0
BLOCK
  5
1487
330
1484
100
AcDbEntity
  8
0
100
AcDbBlockBegin
  2
_Dot
 70
     0
 10
0.0
 20
0.0
 30
0.0
  3
_Dot
  1

  0
LWPOLYLINE
  5
1485
330
1484
100
AcDbEntity
  8
NOTE
 62
     0
100
AcDbPolyline
 90
        2
 70
     1
 43
0.5
 10
-0.25
 20
0.0
 42
1.0
 10
0.25
 20
0.0
 42
1.0
  0
LINE
  5
1486
330
1484
100
AcDbEntity
  8
NOTE
 62
     0
370
    -2
100
AcDbLine
 10
-0.5
 20
0.0
 30
0.0
 11
-1.0
 21
0.0
 31
0.0
  0
ENDBLK
  5
1488
330
1484
100
AcDbEntity
  8
0
100
AcDbBlockEnd
  0
BLOCK
  5
4120
330
4108
100
AcDbEntity
  8
0
100
AcDbBlockBegin
  2
3
 70
     0
 10
0.0
 20
0.0
 30
0.0
  3
3
  1

  0
LINE
  5
4109
330
4108
100
AcDbEntity
  8
CENTER
100
AcDbLine
 10
12.0
 20
-25.0
 30
0.0
 11
-20.0
 21
-25.0
 31
0.0
  0
CIRCLE
  5
410A
330
4108
100
AcDbEntity
  8
DRAW1
100
AcDbCircle
 10
-10.0
 20
-25.0
 30
0.0
 40
4.75
  0
LINE
  5
410B
330
4108
100
AcDbEntity
  8
CENTER
100
AcDbLine
 10
-10.0
 20
-35.0
 30
0.0
 11
-10.0
 21
-15.0
 31
0.0
  0
CIRCLE
  5
410C
330
4108
100
AcDbEntity
  8
DRAW1
100
AcDbCircle
 10
-10.0
 20
-25.0
 30
0.0
 40
1.5
  0
LINE
  5
410D
330
4108
100
AcDbEntity
  8
DRAW2
100
AcDbLine
 10
2.0
 20
-7.75
 30
0.0
 11
3.0
 21
-7.75
 31
0.0
  0
LINE
  5
410E
330
4108
100
AcDbEntity
  8
DRAW1
  6
Continuous
100
AcDbLine
 10
50.0
 20
-2.0
 30
0.0
 11
50.0
 21
0.0
 31
0.0
  0
LINE
  5
410F
330
4108
100
AcDbEntity
  8
DRAW1
  6
Continuous
100
AcDbLine
 10
0.0
 20
0.0
 30
0.0
 11
0.0
 21
-50.0
 31
0.0
  0
LINE
  5
4110
330
4108
100
AcDbEntity
  8
DRAW1
  6
Continuous
100
AcDbLine
 10
2.0
 20
-2.0
 30
0.0
 11
2.0
 21
-50.0
 31
0.0
  0
LINE
  5
4111
330
4108
100
AcDbEntity
  8
DRAW1
  6
Continuous
100
AcDbLine
 10
2.0
 20
-50.0
 30
0.0
 11
0.0
 21
-50.0
 31
0.0
  0
LINE
  5
4112
330
4108
100
AcDbEntity
  8
DRAW1
  6
Continuous
100
AcDbLine
 10
0.0
 20
0.0
 30
0.0
 11
0.0
 21
-50.0
 31
0.0
  0
LINE
  5
4113
330
4108
100
AcDbEntity
  8
DRAW1
  6
Continuous
100
AcDbLine
 10
50.0
 20
0.0
 30
0.0
 11
0.0
 21
0.0
 31
0.0
  0
LINE
  5
4114
330
4108
100
AcDbEntity
  8
DRAW1
  6
Continuous
100
AcDbLine
 10
50.0
 20
-2.0
 30
0.0
 11
2.0
 21
-2.0
 31
0.0
  0
ARC
  5
4115
330
4108
100
AcDbEntity
  8
DRAW2
100
AcDbCircle
 10
-19.3125
 20
-37.5
 30
0.0
 40
22.8125
100
AcDbArc
 50
347.9819879999998
 51
12.018012
  0
LINE
  5
4116
330
4108
100
AcDbEntity
  8
DRAW2
100
AcDbLine
 10
3.0
 20
-32.75
 30
0.0
 11
3.0
 21
-42.25
 31
0.0
  0
LINE
  5
4117
330
4108
100
AcDbEntity
  8
DRAW2
100
AcDbLine
 10
2.0
 20
-32.75
 30
0.0
 11
2.0
 21
-42.25
 31
0.0
  0
LINE
  5
4118
330
4108
100
AcDbEntity
  8
DRAW2
100
AcDbLine
 10
2.0
 20
-42.25
 30
0.0
 11
3.0
 21
-42.25
 31
0.0
  0
LINE
  5
4119
330
4108
100
AcDbEntity
  8
DRAW2
100
AcDbLine
 10
2.0
 20
-32.75
 30
0.0
 11
3.0
 21
-32.75
 31
0.0
  0
LINE
  5
411A
330
4108
100
AcDbEntity
  8
CENTER
100
AcDbLine
 10
-4.0
 20
-37.5
 30
0.0
 11
8.0
 21
-37.5
 31
0.0
  0
LINE
  5
411B
330
4108
100
AcDbEntity
  8
DRAW2
100
AcDbLine
 10
2.0
 20
-17.25
 30
0.0
 11
3.0
 21
-17.25
 31
0.0
  0
LINE
  5
411C
330
4108
100
AcDbEntity
  8
DRAW2
100
AcDbLine
 10
2.0
 20
-7.75
 30
0.0
 11
2.0
 21
-17.25
 31
0.0
  0
LINE
  5
411D
330
4108
100
AcDbEntity
  8
DRAW2
100
AcDbLine
 10
3.0
 20
-7.75
 30
0.0
 11
3.0
 21
-17.25
 31
0.0
  0
ARC
  5
411E
330
4108
100
AcDbEntity
  8
DRAW2
100
AcDbCircle
 10
-19.3125
 20
-12.5
 30
0.0
 40
22.8125
100
AcDbArc
 50
347.9819879999998
 51
12.018012
  0
LINE
  5
411F
330
4108
100
AcDbEntity
  8
CENTER
100
AcDbLine
 10
-4.0
 20
-12.5
 30
0.0
 11
8.0
 21
-12.5
 31
0.0
  0
ENDBLK
  5
4121
330
4108
100
AcDbEntity
  8
0
100
AcDbBlockEnd
  0
BLOCK
  5
5ACA
330
5AC0
100
AcDbEntity
  8
0
100
AcDbBlockBegin
  2
*D3
 70
     1
 10
0.0
 20
0.0
 30
0.0
  3
*D3
  1

  0
LINE
  5
F2A0
330
5AC0
100
AcDbEntity
  8
DIM1-1
 62
     0
370
    -2
100
AcDbLine
 10
1675.907586
 20
-795.7522629999998
 30
0.0
 11
1874.407586
 21
-795.7522629999998
 31
0.0
  0
LINE
  5
F2A1
330
5AC0
100
AcDbEntity
  8
DIM1-1
 62
     0
370
    -2
100
AcDbLine
 10
1674.407586
 20
-397.952263
 30
0.0
 11
1874.407586
 21
-397.952263
 31
0.0
  0
LINE
  5
F2A2
330
5AC0
100
AcDbEntity
  8
DIM1-1
 62
     0
370
    -2
100
AcDbLine
 10
1870.407585999999
 20
-783.7522629999998
 30
0.0
 11
1870.407585999999
 21
-409.952263
 31
0.0
  0
INSERT
  5
F2A3
330
5AC0
100
AcDbEntity
  8
DIM1-1
 62
     0
370
    -2
100
AcDbBlockReference
  2
_OPEN
 10
1870.407585999999
 20
-795.7522629999998
 30
0.0
 41
12.0
 42
12.0
 43
12.0
 50
270.0
  0
INSERT
  5
F2A4
330
5AC0
100
AcDbEntity
  8
DIM1-1
 62
     0
370
    -2
100
AcDbBlockReference
  2
_OPEN
 10
1870.407585999999
 20
-397.952263
 30
0.0
 41
12.0
 42
12.0
 43
12.0
 50
90.0
  0
MTEXT
  5
F2A5
330
5AC0
100
AcDbEntity
  8
DIM1-1
 62
     0
100
AcDbMText
 10
1856.655205
 20
-596.8522629999998
 30
0.0
 40
12.8
 41
0.0
 71
     5
 72
     1
  1
\A1;(398)
  7
DIMFONT
 11
0.0
 21
1.0
 31
0.0
 73
     1
 44
1.0
  0
POINT
  5
F2A6
330
5AC0
100
AcDbEntity
  8
DEFPOINTS
 62
     0
100
AcDbPoint
 10
1675.907586
 20
-795.7522629999998
 30
0.0
  0
POINT
  5
F2A7
330
5AC0
100
AcDbEntity
  8
DEFPOINTS
 62
     0
100
AcDbPoint
 10
1674.407586
 20
-397.952263
 30
0.0
  0
POINT
  5
F2A8
330
5AC0
100
AcDbEntity
  8
DEFPOINTS
 62
     0
100
AcDbPoint
 10
1870.407585999999
 20
-397.952263
 30
0.0
  0
ENDBLK
  5
5ACB
330
5AC0
100
AcDbEntity
  8
0
100
AcDbBlockEnd
  0
BLOCK
  5
5AE2
330
5AD8
100
AcDbEntity
  8
0
100
AcDbBlockBegin
  2
*D4
 70
     1
 10
0.0
 20
0.0
 30
0.0
  3
*D4
  1

  0
LINE
  5
F1CC
330
5AD8
100
AcDbEntity
  8
DIM1-1
 62
     0
370
    -2
100
AcDbLine
 10
153.107586
 20
-794.952263
 30
0.0
 11
153.107586
 21
-849.752263
 31
0.0
  0
LINE
  5
F1CD
330
5AD8
100
AcDbEntity
  8
DIM1-1
 62
     0
370
    -2
100
AcDbLine
 10
552.707586
 20
-794.952263
 30
0.0
 11
552.707586
 21
-849.752263
 31
0.0
  0
LINE
  5
F1CE
330
5AD8
100
AcDbEntity
  8
DIM1-1
 62
     0
370
    -2
100
AcDbLine
 10
165.1075859999999
 20
-845.7522630000001
 30
0.0
 11
540.7075859999999
 21
-845.7522630000001
 31
0.0
  0
INSERT
  5
F1CF
330
5AD8
100
AcDbEntity
  8
DIM1-1
 62
     0
370
    -2
100
AcDbBlockReference
  2
_OPEN
 10
153.107586
 20
-845.7522630000001
 30
0.0
 41
12.0
 42
12.0
 43
12.0
 50
180.0
  0
INSERT
  5
F1D0
330
5AD8
100
AcDbEntity
  8
DIM1-1
 62
     0
370
    -2
100
AcDbBlockReference
  2
_OPEN
 10
552.707586
 20
-845.7522630000001
 30
0.0
 41
12.0
 42
12.0
 43
12.0
  0
MTEXT
  5
F1D1
330
5AD8
100
AcDbEntity
  8
DIM1-1
 62
     0
100
AcDbMText
 10
352.9075859999998
 20
-831.999882
 30
0.0
 40
12.8
 41
0.0
 71
     5
 72
     1
  1
\A1;(400)
  7
DIMFONT
 73
     1
 44
1.0
  0
POINT
  5
F1D2
330
5AD8
100
AcDbEntity
  8
DEFPOINTS
 62
     0
100
AcDbPoint
 10
153.107586
 20
-794.952263
 30
0.0
  0
POINT
  5
F1D3
330
5AD8
100
AcDbEntity
  8
DEFPOINTS
 62
     0
100
AcDbPoint
 10
552.707586
 20
-794.952263
 30
0.0
  0
POINT
  5
F1D4
330
5AD8
100
AcDbEntity
  8
DEFPOINTS
 62
     0
100
AcDbPoint
 10
552.707586
 20
-845.7522630000001
 30
0.0
  0
ENDBLK
  5
5AE3
330
5AD8
100
AcDbEntity
  8
0
100
AcDbBlockEnd
  0
BLOCK
  5
5B1E
330
5B14
100
AcDbEntity
  8
0
100
AcDbBlockBegin
  2
*D5
 70
     1
 10
0.0
 20
0.0
 30
0.0
  3
*D5
  1

  0
LINE
  5
F221
330
5B14
100
AcDbEntity
  8
DIM1-1
 62
     0
370
    -2
100
AcDbLine
 10
1775.407586
 20
-523.252263
 30
0.0
 11
1834.407586
 21
-523.252263
 31
0.0
  0
LINE
  5
F222
330
5B14
100
AcDbEntity
  8
DIM1-1
 62
     0
370
    -2
100
AcDbLine
 10
1775.407586
 20
-671.2522629999998
 30
0.0
 11
1834.407586
 21
-671.2522629999998
 31
0.0
  0
LINE
  5
F223
330
5B14
100
AcDbEntity
  8
DIM1-1
 62
     0
370
    -2
100
AcDbLine
 10
1830.407586
 20
-535.252263
 30
0.0
 11
1830.407586
 21
-659.2522629999998
 31
0.0
  0
INSERT
  5
F224
330
5B14
100
AcDbEntity
  8
DIM1-1
 62
     0
370
    -2
100
AcDbBlockReference
  2
_OPEN
 10
1830.407586
 20
-523.252263
 30
0.0
 41
12.0
 42
12.0
 43
12.0
 50
90.0
  0
INSERT
  5
F225
330
5B14
100
AcDbEntity
  8
DIM1-1
 62
     0
370
    -2
100
AcDbBlockReference
  2
_OPEN
 10
1830.407586
 20
-671.2522629999998
 30
0.0
 41
12.0
 42
12.0
 43
12.0
 50
270.0
  0
MTEXT
  5
F226
330
5B14
100
AcDbEntity
  8
DIM1-1
 62
     0
100
AcDbMText
 10
1816.655204999999
 20
-597.2522629999998
 30
0.0
 40
12.8
 41
0.0
 71
     5
 72
     1
  1
\A1;(%%c148)
  7
DIMFONT
 11
0.0
 21
1.0
 31
0.0
 73
     1
 44
1.0
  0
POINT
  5
F227
330
5B14
100
AcDbEntity
  8
DEFPOINTS
 62
     0
100
AcDbPoint
 10
1775.407586
 20
-523.252263
 30
0.0
  0
POINT
  5
F228
330
5B14
100
AcDbEntity
  8
DEFPOINTS
 62
     0
100
AcDbPoint
 10
1775.407586
 20
-671.2522629999998
 30
0.0
  0
POINT
  5
F229
330
5B14
100
AcDbEntity
  8
DEFPOINTS
 62
     0
100
AcDbPoint
 10
1830.407586
 20
-671.2522629999998
 30
0.0
  0
ENDBLK
  5
5B1F
330
5B14
100
AcDbEntity
  8
0
100
AcDbBlockEnd
  0
BLOCK
  5
5B2A
330
5B20
100
AcDbEntity
  8
0
100
AcDbBlockBegin
  2
*D6
 70
     1
 10
0.0
 20
0.0
 30
0.0
  3
*D6
  1

  0
LINE
  5
F233
330
5B20
100
AcDbEntity
  8
DIM1-1
 62
     0
370
    -2
100
AcDbLine
 10
1075.907586
 20
201.247737
 30
0.0
 11
1075.907586
 21
305.247737
 31
0.0
  0
LINE
  5
F234
330
5B20
100
AcDbEntity
  8
DIM1-1
 62
     0
370
    -2
100
AcDbLine
 10
1725.907585999999
 20
201.247737
 30
0.0
 11
1725.907585999999
 21
305.247737
 31
0.0
  0
LINE
  5
F235
330
5B20
100
AcDbEntity
  8
DIM1-1
 62
     0
370
    -2
100
AcDbLine
 10
1087.907586
 20
301.247737
 30
0.0
 11
1713.907586
 21
301.247737
 31
0.0
  0
INSERT
  5
F236
330
5B20
100
AcDbEntity
  8
DIM1-1
 62
     0
370
    -2
100
AcDbBlockReference
  2
_OPEN
 10
1075.907586
 20
301.247737
 30
0.0
 41
12.0
 42
12.0
 43
12.0
 50
180.0
  0
INSERT
  5
F237
330
5B20
100
AcDbEntity
  8
DIM1-1
 62
     0
370
    -2
100
AcDbBlockReference
  2
_OPEN
 10
1725.907585999999
 20
301.247737
 30
0.0
 41
12.0
 42
12.0
 43
12.0
  0
MTEXT
  5
F238
330
5B20
100
AcDbEntity
  8
DIM1-1
 62
     0
100
AcDbMText
 10
1400.907586
 20
315.000118
 30
0.0
 40
12.8
 41
0.0
 71
     5
 72
     1
  1
\A1;(650)
  7
DIMFONT
 73
     1
 44
1.0
  0
POINT
  5
F239
330
5B20
100
AcDbEntity
  8
DEFPOINTS
 62
     0
100
AcDbPoint
 10
1075.907586
 20
201.247737
 30
0.0
  0
POINT
  5
F23A
330
5B20
100
AcDbEntity
  8
DEFPOINTS
 62
     0
100
AcDbPoint
 10
1725.907585999999
 20
201.247737
 30
0.0
  0
POINT
  5
F23B
330
5B20
100
AcDbEntity
  8
DEFPOINTS
 62
     0
100
AcDbPoint
 10
1725.907585999999
 20
301.247737
 30
0.0
  0
ENDBLK
  5
5B2B
330
5B20
100
AcDbEntity
  8
0
100
AcDbBlockEnd
  0
BLOCK
  5
6DDF
330
6D89
100
AcDbEntity
  8
0
100
AcDbBlockBegin
  2
6-05
 70
     0
 10
0.0
 20
0.0
 30
0.0
  3
6-05
  1

  0
LINE
  5
6D8A
330
6D89
100
AcDbEntity
  8
SYMBOL
100
AcDbLine
 10
15.300001
 20
1.0
 30
0.0
 11
17.700001
 21
1.0
 31
0.0
  0
LINE
  5
6D8B
330
6D89
100
AcDbEntity
  8
SYMBOL
100
AcDbLine
 10
15.300001
 20
1.9
 30
0.0
 11
17.800001
 21
1.9
 31
0.0
  0
ARC
  5
6D8C
330
6D89
100
AcDbEntity
  8
SYMBOL
100
AcDbCircle
 10
15.900001
 20
-0.7
 30
0.0
 40
1.199999999999999
100
AcDbArc
 50
89.99998199999998
 51
270.0
  0
LINE
  5
6D8D
330
6D89
100
AcDbEntity
  8
SYMBOL
100
AcDbLine
 10
3.5
 20
1.9
 30
0.0
 11
4.5
 21
1.9
 31
0.0
  0
ARC
  5
6D8E
330
6D89
100
AcDbEntity
  8
SYMBOL
100
AcDbCircle
 10
3.399999999999999
 20
-0.8
 30
0.0
 40
1.1
100
AcDbArc
 50
270.00002
 51
0.0
  0
LINE
  5
6D8F
330
6D89
100
AcDbEntity
  8
SYMBOL
100
AcDbLine
 10
0.6
 20
-1.0
 30
0.0
 11
0.6
 21
-1.9
 31
0.0
  0
LINE
  5
6D90
330
6D89
100
AcDbEntity
  8
SYMBOL
100
AcDbLine
 10
0.6
 20
-1.9
 30
0.0
 11
3.399999999999999
 21
-1.9
 31
0.0
  0
ARC
  5
6D91
330
6D89
100
AcDbEntity
  8
SYMBOL
100
AcDbCircle
 10
1.199999999999999
 20
0.8
 30
0.0
 40
1.199999999999999
100
AcDbArc
 50
179.9999799999999
 51
270.0000299999999
  0
ARC
  5
6D92
330
6D89
100
AcDbEntity
  8
SYMBOL
100
AcDbCircle
 10
1.199999999999999
 20
0.8
 30
0.0
 40
1.199999999999999
100
AcDbArc
 50
180.0
 51
270.0
  0
LINE
  5
6D93
330
6D89
100
AcDbEntity
  8
SYMBOL
100
AcDbLine
 10
0.6
 20
-1.0
 30
0.0
 11
3.2
 21
-1.0
 31
0.0
  0
LINE
  5
6D94
330
6D89
100
AcDbEntity
  8
SYMBOL
100
AcDbLine
 10
0.0
 20
1.9
 30
0.0
 11
1.0
 21
1.9
 31
0.0
  0
LINE
  5
6D95
330
6D89
100
AcDbEntity
  8
SYMBOL
100
AcDbLine
 10
0.0
 20
1.9
 30
0.0
 11
0.0
 21
0.8
 31
0.0
  0
LINE
  5
6D96
330
6D89
100
AcDbEntity
  8
SYMBOL
100
AcDbLine
 10
1.3
 20
0.5
 30
0.0
 11
3.2
 21
0.5
 31
0.0
  0
LINE
  5
6D97
330
6D89
100
AcDbEntity
  8
SYMBOL
100
AcDbLine
 10
1.199999999999999
 20
-0.4
 30
0.0
 11
3.2
 21
-0.4
 31
0.0
  0
LINE
  5
6D98
330
6D89
100
AcDbEntity
  8
SYMBOL
100
AcDbLine
 10
1.0
 20
1.9
 30
0.0
 11
1.0
 21
0.8
 31
0.0
  0
LINE
  5
6D99
330
6D89
100
AcDbEntity
  8
SYMBOL
100
AcDbLine
 10
3.5
 20
1.9
 30
0.0
 11
3.5
 21
0.8
 31
0.0
  0
LINE
  5
6D9A
330
6D89
100
AcDbEntity
  8
SYMBOL
100
AcDbLine
 10
3.5
 20
-0.1
 30
0.0
 11
3.5
 21
-0.7
 31
0.0
  0
ARC
  5
6D9B
330
6D89
100
AcDbEntity
  8
SYMBOL
100
AcDbCircle
 10
1.3
 20
0.8
 30
0.0
 40
0.3
100
AcDbArc
 50
179.9999799999999
 51
270.0000299999999
  0
ARC
  5
6D9C
330
6D89
100
AcDbEntity
  8
SYMBOL
100
AcDbCircle
 10
3.2
 20
-0.1
 30
0.0
 40
0.3
100
AcDbArc
 50
270.00002
 51
0.0
  0
ARC
  5
6D9D
330
6D89
100
AcDbEntity
  8
SYMBOL
100
AcDbCircle
 10
3.2
 20
0.8
 30
0.0
 40
0.3
100
AcDbArc
 50
270.00002
 51
0.0
  0
ARC
  5
6D9E
330
6D89
100
AcDbEntity
  8
SYMBOL
100
AcDbCircle
 10
3.2
 20
-0.7
 30
0.0
 40
0.3
100
AcDbArc
 50
270.00002
 51
0.0
  0
LINE
  5
6D9F
330
6D89
100
AcDbEntity
  8
SYMBOL
100
AcDbLine
 10
9.400000999999999
 20
1.9
 30
0.0
 11
13.000001
 21
1.9
 31
0.0
  0
LINE
  5
6DA0
330
6D89
100
AcDbEntity
  8
SYMBOL
100
AcDbLine
 10
9.400000999999999
 20
-1.9
 30
0.0
 11
10.400001
 21
-1.9
 31
0.0
  0
LINE
  5
6DA1
330
6D89
100
AcDbEntity
  8
SYMBOL
100
AcDbLine
 10
9.400000999999999
 20
1.9
 30
0.0
 11
9.400000999999999
 21
-1.9
 31
0.0
  0
LINE
  5
6DA2
330
6D89
100
AcDbEntity
  8
SYMBOL
100
AcDbLine
 10
9.099999999999999
 20
0.7
 30
0.0
 11
9.099999999999999
 21
-1.9
 31
0.0
  0
ARC
  5
6DA3
330
6D89
100
AcDbEntity
  8
SYMBOL
100
AcDbCircle
 10
6.0
 20
-0.7
 30
0.0
 40
1.199999999999999
100
AcDbArc
 50
89.99998199999998
 51
270.0
  0
LINE
  5
6DA4
330
6D89
100
AcDbEntity
  8
SYMBOL
100
AcDbLine
 10
6.0
 20
-1.9
 30
0.0
 11
9.099999999999999
 21
-1.9
 31
0.0
  0
LINE
  5
6DA5
330
6D89
100
AcDbEntity
  8
SYMBOL
100
AcDbLine
 10
6.0
 20
-1.0
 30
0.0
 11
8.099999999999999
 21
-1.0
 31
0.0
  0
LINE
  5
6DA6
330
6D89
100
AcDbEntity
  8
SYMBOL
100
AcDbLine
 10
5.4
 20
1.0
 30
0.0
 11
7.799999999999998
 21
1.0
 31
0.0
  0
LINE
  5
6DA7
330
6D89
100
AcDbEntity
  8
SYMBOL
100
AcDbLine
 10
5.4
 20
1.9
 30
0.0
 11
7.900000999999998
 21
1.9
 31
0.0
  0
LINE
  5
6DA8
330
6D89
100
AcDbEntity
  8
SYMBOL
100
AcDbLine
 10
6.0
 20
-0.4
 30
0.0
 11
8.099999999999999
 21
-0.4
 31
0.0
  0
LINE
  5
6DA9
330
6D89
100
AcDbEntity
  8
SYMBOL
100
AcDbLine
 10
6.0
 20
0.5
 30
0.0
 11
8.099999999999999
 21
0.5
 31
0.0
  0
LINE
  5
6DAA
330
6D89
100
AcDbEntity
  8
SYMBOL
100
AcDbLine
 10
4.5
 20
1.9
 30
0.0
 11
4.5
 21
-0.8
 31
0.0
  0
LINE
  5
6DAB
330
6D89
100
AcDbEntity
  8
SYMBOL
100
AcDbLine
 10
5.4
 20
1.9
 30
0.0
 11
5.4
 21
1.0
 31
0.0
  0
ARC
  5
6DAC
330
6D89
100
AcDbEntity
  8
SYMBOL
100
AcDbCircle
 10
6.0
 20
-0.7
 30
0.0
 40
0.3
100
AcDbArc
 50
89.99998199999998
 51
270.0
  0
LINE
  5
6DAD
330
6D89
100
AcDbEntity
  8
SYMBOL
100
AcDbLine
 10
8.099999999999999
 20
0.7
 30
0.0
 11
8.099999999999999
 21
0.5
 31
0.0
  0
LINE
  5
6DAE
330
6D89
100
AcDbEntity
  8
SYMBOL
100
AcDbLine
 10
8.099999999999999
 20
-0.4
 30
0.0
 11
8.099999999999999
 21
-1.0
 31
0.0
  0
ARC
  5
6DAF
330
6D89
100
AcDbEntity
  8
SYMBOL
100
AcDbCircle
 10
7.799999999999998
 20
0.7
 30
0.0
 40
0.3
100
AcDbArc
 50
0.0
 51
89.99998199999998
  0
ARC
  5
6DB0
330
6D89
100
AcDbEntity
  8
SYMBOL
100
AcDbCircle
 10
7.900000999999998
 20
0.7
 30
0.0
 40
1.199999999999999
100
AcDbArc
 50
0.0
 51
89.99998199999998
  0
LINE
  5
6DB1
330
6D89
100
AcDbEntity
  8
SYMBOL
100
AcDbLine
 10
14.400001
 20
0.5
 30
0.0
 11
14.400001
 21
-1.9
 31
0.0
  0
LINE
  5
6DB2
330
6D89
100
AcDbEntity
  8
SYMBOL
100
AcDbLine
 10
10.400001
 20
1.0
 30
0.0
 11
10.400001
 21
-1.9
 31
0.0
  0
LINE
  5
6DB3
330
6D89
100
AcDbEntity
  8
SYMBOL
100
AcDbLine
 10
13.400001
 20
0.6
 30
0.0
 11
13.400001
 21
-1.9
 31
0.0
  0
LINE
  5
6DB4
330
6D89
100
AcDbEntity
  8
SYMBOL
100
AcDbLine
 10
12.400001
 20
0.7
 30
0.0
 11
12.400001
 21
-1.9
 31
0.0
  0
LINE
  5
6DB5
330
6D89
100
AcDbEntity
  8
SYMBOL
100
AcDbLine
 10
11.40000099999999
 20
0.6
 30
0.0
 11
11.40000099999999
 21
-1.9
 31
0.0
  0
LINE
  5
6DB6
330
6D89
100
AcDbEntity
  8
SYMBOL
100
AcDbLine
 10
11.40000099999999
 20
-1.9
 30
0.0
 11
12.400001
 21
-1.9
 31
0.0
  0
LINE
  5
6DB7
330
6D89
100
AcDbEntity
  8
SYMBOL
100
AcDbLine
 10
13.400001
 20
-1.9
 30
0.0
 11
14.400001
 21
-1.9
 31
0.0
  0
LINE
  5
6DB8
330
6D89
100
AcDbEntity
  8
SYMBOL
100
AcDbLine
 10
12.09999999999999
 20
1.0
 30
0.0
 11
13.000001
 21
1.0
 31
0.0
  0
LINE
  5
6DB9
330
6D89
100
AcDbEntity
  8
SYMBOL
100
AcDbLine
 10
10.400001
 20
1.0
 30
0.0
 11
11.00000099999999
 21
1.0
 31
0.0
  0
ARC
  5
6DBA
330
6D89
100
AcDbEntity
  8
SYMBOL
100
AcDbCircle
 10
11.00000099999999
 20
0.6
 30
0.0
 40
0.4
100
AcDbArc
 50
0.0
 51
89.99998199999998
  0
ARC
  5
6DBB
330
6D89
100
AcDbEntity
  8
SYMBOL
100
AcDbCircle
 10
12.09999999999999
 20
0.7
 30
0.0
 40
0.3
100
AcDbArc
 50
0.0
 51
89.99998199999998
  0
LINE
  5
6DBC
330
6D89
100
AcDbEntity
  8
SYMBOL
100
AcDbLine
 10
15.300001
 20
1.9
 30
0.0
 11
15.300001
 21
1.0
 31
0.0
  0
ARC
  5
6DBD
330
6D89
100
AcDbEntity
  8
SYMBOL
100
AcDbCircle
 10
13.000001
 20
0.6
 30
0.0
 40
0.4
100
AcDbArc
 50
0.0
 51
89.99998199999998
  0
ARC
  5
6DBE
330
6D89
100
AcDbEntity
  8
SYMBOL
100
AcDbCircle
 10
13.000001
 20
0.5
 30
0.0
 40
1.399999999999999
100
AcDbArc
 50
0.0
 51
89.99998199999998
  0
ARC
  5
6DBF
330
6D89
100
AcDbEntity
  8
SYMBOL
100
AcDbCircle
 10
26.89999999999999
 20
0.7
 30
0.0
 40
1.199999999999999
100
AcDbArc
 50
0.0
 51
89.99998199999998
  0
LINE
  5
6DC0
330
6D89
100
AcDbEntity
  8
SYMBOL
100
AcDbLine
 10
24.999998
 20
-1.0
 30
0.0
 11
27.099998
 21
-1.0
 31
0.0
  0
LINE
  5
6DC1
330
6D89
100
AcDbEntity
  8
SYMBOL
100
AcDbLine
 10
25.0
 20
-1.9
 30
0.0
 11
28.09999799999999
 21
-1.9
 31
0.0
  0
LINE
  5
6DC2
330
6D89
100
AcDbEntity
  8
SYMBOL
100
AcDbLine
 10
24.999998
 20
-0.4
 30
0.0
 11
27.099998
 21
-0.4
 31
0.0
  0
LINE
  5
6DC3
330
6D89
100
AcDbEntity
  8
SYMBOL
100
AcDbLine
 10
25.0
 20
0.5
 30
0.0
 11
27.099998
 21
0.5
 31
0.0
  0
ARC
  5
6DC4
330
6D89
100
AcDbEntity
  8
SYMBOL
100
AcDbCircle
 10
26.799999
 20
0.7
 30
0.0
 40
0.3
100
AcDbArc
 50
0.0
 51
89.99998199999998
  0
LINE
  5
6DC5
330
6D89
100
AcDbEntity
  8
SYMBOL
100
AcDbLine
 10
19.300001
 20
-1.9
 30
0.0
 11
21.6
 21
-1.9
 31
0.0
  0
LINE
  5
6DC6
330
6D89
100
AcDbEntity
  8
SYMBOL
100
AcDbLine
 10
19.300001
 20
1.9
 30
0.0
 11
21.6
 21
1.9
 31
0.0
  0
LINE
  5
6DC7
330
6D89
100
AcDbEntity
  8
SYMBOL
100
AcDbLine
 10
20.300001
 20
0.9
 30
0.0
 11
21.6
 21
0.9
 31
0.0
  0
LINE
  5
6DC8
330
6D89
100
AcDbEntity
  8
SYMBOL
100
AcDbLine
 10
20.300001
 20
-0.9
 30
0.0
 11
21.6
 21
-0.9
 31
0.0
  0
LINE
  5
6DC9
330
6D89
100
AcDbEntity
  8
SYMBOL
100
AcDbLine
 10
19.300001
 20
1.9
 30
0.0
 11
19.300001
 21
-1.9
 31
0.0
  0
LINE
  5
6DCA
330
6D89
100
AcDbEntity
  8
SYMBOL
100
AcDbLine
 10
19.0
 20
0.7
 30
0.0
 11
19.0
 21
-1.9
 31
0.0
  0
LINE
  5
6DCB
330
6D89
100
AcDbEntity
  8
SYMBOL
100
AcDbLine
 10
15.900001
 20
-1.9
 30
0.0
 11
19.0
 21
-1.9
 31
0.0
  0
ARC
  5
6DCC
330
6D89
100
AcDbEntity
  8
SYMBOL
100
AcDbCircle
 10
17.800001
 20
0.7
 30
0.0
 40
1.199999999999999
100
AcDbArc
 50
0.0
 51
89.99998199999998
  0
LINE
  5
6DCD
330
6D89
100
AcDbEntity
  8
SYMBOL
100
AcDbLine
 10
15.900001
 20
-1.0
 30
0.0
 11
18.0
 21
-1.0
 31
0.0
  0
LINE
  5
6DCE
330
6D89
100
AcDbEntity
  8
SYMBOL
100
AcDbLine
 10
15.900001
 20
-0.4
 30
0.0
 11
18.0
 21
-0.4
 31
0.0
  0
LINE
  5
6DCF
330
6D89
100
AcDbEntity
  8
SYMBOL
100
AcDbLine
 10
15.900001
 20
0.5
 30
0.0
 11
18.0
 21
0.5
 31
0.0
  0
LINE
  5
6DD0
330
6D89
100
AcDbEntity
  8
SYMBOL
100
AcDbLine
 10
18.0
 20
0.7
 30
0.0
 11
18.0
 21
0.5
 31
0.0
  0
LINE
  5
6DD1
330
6D89
100
AcDbEntity
  8
SYMBOL
100
AcDbLine
 10
18.0
 20
-0.4
 30
0.0
 11
18.0
 21
-1.0
 31
0.0
  0
ARC
  5
6DD2
330
6D89
100
AcDbEntity
  8
SYMBOL
100
AcDbCircle
 10
17.700001
 20
0.7
 30
0.0
 40
0.3
100
AcDbArc
 50
0.0
 51
89.99998199999998
  0
ARC
  5
6DD3
330
6D89
100
AcDbEntity
  8
SYMBOL
100
AcDbCircle
 10
15.900001
 20
-0.7
 30
0.0
 40
0.3
100
AcDbArc
 50
89.99998199999998
 51
270.0
  0
LINE
  5
6DD4
330
6D89
100
AcDbEntity
  8
SYMBOL
100
AcDbLine
 10
20.300001
 20
0.9
 30
0.0
 11
20.300001
 21
-0.9
 31
0.0
  0
ARC
  5
6DD5
330
6D89
100
AcDbEntity
  8
SYMBOL
100
AcDbCircle
 10
25.0
 20
-0.7
 30
0.0
 40
1.199999999999999
100
AcDbArc
 50
89.99998199999998
 51
270.0
  0
ARC
  5
6DD6
330
6D89
100
AcDbEntity
  8
SYMBOL
100
AcDbCircle
 10
21.6
 20
0.0
 30
0.0
 40
1.9
100
AcDbArc
 50
270.00002
 51
89.99998199999998
  0
ARC
  5
6DD7
330
6D89
100
AcDbEntity
  8
SYMBOL
100
AcDbCircle
 10
21.6
 20
0.0
 30
0.0
 40
0.9
100
AcDbArc
 50
270.00002
 51
89.99998199999998
  0
LINE
  5
6DD8
330
6D89
100
AcDbEntity
  8
SYMBOL
100
AcDbLine
 10
24.39999999999999
 20
1.0
 30
0.0
 11
26.799999
 21
1.0
 31
0.0
  0
LINE
  5
6DD9
330
6D89
100
AcDbEntity
  8
SYMBOL
100
AcDbLine
 10
24.39999999999999
 20
1.9
 30
0.0
 11
24.39999999999999
 21
1.0
 31
0.0
  0
ARC
  5
6DDA
330
6D89
100
AcDbEntity
  8
SYMBOL
100
AcDbCircle
 10
24.999998
 20
-0.7
 30
0.0
 40
0.3
100
AcDbArc
 50
89.99998199999998
 51
270.0
  0
LINE
  5
6DDB
330
6D89
100
AcDbEntity
  8
SYMBOL
100
AcDbLine
 10
24.39999999999999
 20
1.9
 30
0.0
 11
26.89999999999999
 21
1.9
 31
0.0
  0
LINE
  5
6DDC
330
6D89
100
AcDbEntity
  8
SYMBOL
100
AcDbLine
 10
28.09999799999999
 20
0.7
 30
0.0
 11
28.09999799999999
 21
-1.9
 31
0.0
  0
LINE
  5
6DDD
330
6D89
100
AcDbEntity
  8
SYMBOL
100
AcDbLine
 10
27.099998
 20
0.7
 30
0.0
 11
27.099998
 21
0.5
 31
0.0
  0
LINE
  5
6DDE
330
6D89
100
AcDbEntity
  8
SYMBOL
100
AcDbLine
 10
27.099998
 20
-0.4
 30
0.0
 11
27.099998
 21
-1.0
 31
0.0
  0
ENDBLK
  5
6DE0
330
6D89
100
AcDbEntity
  8
0
100
AcDbBlockEnd
  0
BLOCK
  5
6DE3
330
6DE1
100
AcDbEntity
  8
0
100
AcDbBlockBegin
  2
A$C9270
 70
     0
 10
0.0
 20
0.0
 30
0.0
  3
A$C9270
  1

  0
INSERT
  5
6DE2
330
6DE1
100
AcDbEntity
  8
DIM1-1
100
AcDbBlockReference
  2
6-05
 10
0.079317
 20
7.069188999999998
 30
0.0
 41
3.558719
 42
3.558719
 43
0.711744
  0
ENDBLK
  5
6DE4
330
6DE1
100
AcDbEntity
  8
0
100
AcDbBlockEnd
  0
BLOCK
  5
6E72
330
6DE5
100
AcDbEntity
  8
0
100
AcDbBlockBegin
  2
6-12
 70
     0
 10
0.0
 20
0.0
 30
0.0
  3
6-12
  1

  0
LWPOLYLINE
  5
6DE6
330
6DE5
100
AcDbEntity
  8
SYMBOL
100
AcDbPolyline
 90
        3
 70
     0
 43
1.0
 10
25.199999
 20
-1.45
 42
0.4142140000000002
 10
26.599999
 20
-0.05
 42
0.4142140000000002
 10
25.199999
 20
1.35
 42
1.0
  0
SOLID
  5
6DE7
330
6DE5
100
AcDbEntity
  8
SYMBOL
100
AcDbTrace
 10
4.5
 20
-0.75
 30
0.0
 11
4.5
 21
-0.85
 31
0.0
 12
4.190216999999998
 22
-0.7237520000000001
 32
0.0
 13
4.162817999999998
 23
-0.8825799999999999
 33
0.0
  0
SOLID
  5
6DE8
330
6DE5
100
AcDbEntity
  8
SYMBOL
100
AcDbTrace
 10
3.5
 20
1.85
 30
0.0
 11
4.5
 21
1.85
 31
0.0
 12
3.5
 22
-0.75
 32
0.0
 13
4.5
 23
-0.75
 33
0.0
  0
LWPOLYLINE
  5
6DE9
330
6DE5
100
AcDbEntity
  8
SYMBOL
100
AcDbPolyline
 90
        2
 70
     0
 43
0.7
 10
3.2
 20
-1.399999999999999
 42
0.4142140000000002
 10
3.85
 20
-0.75
 42
1.0
  0
LWPOLYLINE
  5
6DEA
330
6DE5
100
AcDbEntity
  8
SYMBOL
100
AcDbPolyline
 90
        2
 70
     0
 43
0.5086000000000001
 10
3.399999999999999
 20
-1.695699999999999
 42
0.4142140000000002
 10
4.2457
 20
-0.85
 42
1.0
  0
LWPOLYLINE
  5
6DEB
330
6DE5
100
AcDbEntity
  8
SYMBOL
100
AcDbPolyline
 90
        2
 70
     0
 43
0.6488000000000002
 10
3.2
 20
0.1256
 42
0.4142140000000002
 10
3.824399999999998
 20
0.75
 42
1.0
  0
LINE
  5
6DEC
330
6DE5
100
AcDbEntity
  8
SYMBOL
100
AcDbLine
 10
3.5
 20
1.85
 30
0.0
 11
4.5
 21
1.85
 31
0.0
  0
ARC
  5
6DED
330
6DE5
100
AcDbEntity
  8
SYMBOL
100
AcDbCircle
 10
3.399999999999999
 20
-0.85
 30
0.0
 40
1.1
100
AcDbArc
 50
270.00002
 51
0.0
  0
SOLID
  5
6DEE
330
6DE5
100
AcDbEntity
  8
SYMBOL
100
AcDbTrace
 10
1.199999999999999
 20
-0.45
 30
0.0
 11
1.3
 21
-0.45
 31
0.0
 12
1.167232
 22
0.087474
 32
0.0
 13
1.456407
 23
0.126724
 33
0.0
  0
LINE
  5
6DEF
330
6DE5
100
AcDbEntity
  8
SYMBOL
100
AcDbLine
 10
1.199999999999999
 20
-0.45
 30
0.0
 11
3.2
 21
-0.45
 31
0.0
  0
SOLID
  5
6DF0
330
6DE5
100
AcDbEntity
  8
SYMBOL
100
AcDbTrace
 10
0.6
 20
-1.05
 30
0.0
 11
0.6
 21
-1.95
 31
0.0
 12
3.2
 22
-1.05
 32
0.0
 13
3.2
 23
-1.95
 33
0.0
  0
LWPOLYLINE
  5
6DF1
330
6DE5
100
AcDbEntity
  8
SYMBOL
100
AcDbPolyline
 90
        2
 70
     0
 43
0.5
 10
0.25
 20
0.75
 42
0.4142140000000002
 10
1.199999999999999
 20
-0.2
 42
1.0
  0
LWPOLYLINE
  5
6DF2
330
6DE5
100
AcDbEntity
  8
SYMBOL
100
AcDbPolyline
 90
        2
 70
     0
 43
0.5
 10
0.75
 20
0.75
 42
0.4142140000000002
 10
1.3
 20
0.2
 42
1.0
  0
LINE
  5
6DF3
330
6DE5
100
AcDbEntity
  8
SYMBOL
100
AcDbLine
 10
0.6
 20
-1.05
 30
0.0
 11
3.2
 21
-1.05
 31
0.0
  0
LINE
  5
6DF4
330
6DE5
100
AcDbEntity
  8
SYMBOL
100
AcDbLine
 10
0.6
 20
-1.95
 30
0.0
 11
3.399999999999999
 21
-1.95
 31
0.0
  0
ARC
  5
6DF5
330
6DE5
100
AcDbEntity
  8
SYMBOL
100
AcDbCircle
 10
1.3
 20
0.75
 30
0.0
 40
0.3
100
AcDbArc
 50
179.9999799999999
 51
270.0000299999999
  0
LWPOLYLINE
  5
6DF6
330
6DE5
100
AcDbEntity
  8
SYMBOL
100
AcDbPolyline
 90
        2
 70
     0
 43
1.0
 10
0.5
 20
0.75
 10
0.5
 20
1.85
  0
LINE
  5
6DF7
330
6DE5
100
AcDbEntity
  8
SYMBOL
100
AcDbLine
 10
0.0
 20
1.85
 30
0.0
 11
0.0
 21
0.75
 31
0.0
  0
LINE
  5
6DF8
330
6DE5
100
AcDbEntity
  8
SYMBOL
100
AcDbLine
 10
0.0
 20
1.85
 30
0.0
 11
1.0
 21
1.85
 31
0.0
  0
LINE
  5
6DF9
330
6DE5
100
AcDbEntity
  8
SYMBOL
100
AcDbLine
 10
1.0
 20
1.85
 30
0.0
 11
1.0
 21
0.75
 31
0.0
  0
LINE
  5
6DFA
330
6DE5
100
AcDbEntity
  8
SYMBOL
100
AcDbLine
 10
0.6
 20
-1.05
 30
0.0
 11
0.6
 21
-1.95
 31
0.0
  0
ARC
  5
6DFB
330
6DE5
100
AcDbEntity
  8
SYMBOL
100
AcDbCircle
 10
1.199999999999999
 20
0.75
 30
0.0
 40
1.199999999999999
100
AcDbArc
 50
179.9999799999999
 51
270.0000299999999
  0
SOLID
  5
6DFC
330
6DE5
100
AcDbEntity
  8
SYMBOL
100
AcDbTrace
 10
3.2
 20
-1.95
 30
0.0
 11
3.399999999999999
 21
-1.95
 31
0.0
 12
3.187267999999998
 22
-1.753931
 32
0.0
 13
3.415296
 23
-1.697888999999999
 33
0.0
  0
SOLID
  5
6DFD
330
6DE5
100
AcDbEntity
  8
SYMBOL
100
AcDbTrace
 10
3.2
 20
-1.05
 30
0.0
 11
3.2
 21
-1.95
 31
0.0
 12
3.2
 22
-1.95
 32
0.0
 13
3.399999999999999
 23
-1.95
 33
0.0
  0
SOLID
  5
6DFE
330
6DE5
100
AcDbEntity
  8
SYMBOL
100
AcDbTrace
 10
1.3
 20
-0.45
 30
0.0
 11
1.3
 21
0.45
 31
0.0
 12
3.2
 22
-0.45
 32
0.0
 13
3.2
 23
0.45
 33
0.0
  0
LWPOLYLINE
  5
6DFF
330
6DE5
100
AcDbEntity
  8
SYMBOL
100
AcDbPolyline
 90
        2
 70
     0
 43
0.3
 10
3.2
 20
-0.3
 42
0.4142140000000002
 10
3.35
 20
-0.15
 42
0.4142140000000002
  0
LINE
  5
6E00
330
6DE5
100
AcDbEntity
  8
SYMBOL
100
AcDbLine
 10
1.3
 20
0.45
 30
0.0
 11
3.2
 21
0.45
 31
0.0
  0
LINE
  5
6E01
330
6DE5
100
AcDbEntity
  8
SYMBOL
100
AcDbLine
 10
3.5
 20
1.85
 30
0.0
 11
3.5
 21
0.75
 31
0.0
  0
LINE
  5
6E02
330
6DE5
100
AcDbEntity
  8
SYMBOL
100
AcDbLine
 10
3.5
 20
-0.15
 30
0.0
 11
3.5
 21
-0.75
 31
0.0
  0
ARC
  5
6E03
330
6DE5
100
AcDbEntity
  8
SYMBOL
100
AcDbCircle
 10
3.2
 20
-0.15
 30
0.0
 40
0.3
100
AcDbArc
 50
270.00002
 51
0.0
  0
ARC
  5
6E04
330
6DE5
100
AcDbEntity
  8
SYMBOL
100
AcDbCircle
 10
3.2
 20
0.75
 30
0.0
 40
0.3
100
AcDbArc
 50
270.00002
 51
0.0
  0
ARC
  5
6E05
330
6DE5
100
AcDbEntity
  8
SYMBOL
100
AcDbCircle
 10
3.2
 20
-0.75
 30
0.0
 40
0.3
100
AcDbArc
 50
270.00002
 51
0.0
  0
LWPOLYLINE
  5
6E06
330
6DE5
100
AcDbEntity
  8
SYMBOL
100
AcDbPolyline
 90
        2
 70
     0
 43
0.7705
 10
13.585251
 20
0.55
 42
0.4142140000000002
 10
12.800001
 20
1.33525
 42
1.0
  0
ARC
  5
6E07
330
6DE5
100
AcDbEntity
  8
SYMBOL
100
AcDbCircle
 10
20.50000199999999
 20
0.65
 30
0.0
 40
1.199999999999999
100
AcDbArc
 50
0.0
 51
89.99998199999998
  0
LWPOLYLINE
  5
6E08
330
6DE5
100
AcDbEntity
  8
SYMBOL
100
AcDbPolyline
 90
        2
 70
     0
 43
0.9
 10
21.250002
 20
0.65
 42
0.4142140000000002
 10
20.50000199999999
 20
1.399999999999999
 42
1.0
  0
LWPOLYLINE
  5
6E09
330
6DE5
100
AcDbEntity
  8
SYMBOL
100
AcDbPolyline
 90
        2
 70
     0
 43
0.9
 10
15.750001
 20
0.45
 42
0.4142140000000002
 10
14.800001
 20
1.399999999999999
 42
1.0
  0
LWPOLYLINE
  5
6E0A
330
6DE5
100
AcDbEntity
  8
SYMBOL
100
AcDbPolyline
 90
        2
 70
     0
 43
0.9
 10
9.55
 20
0.65
 42
0.4142140000000002
 10
8.8
 20
1.399999999999999
 42
1.0
  0
ARC
  5
6E0B
330
6DE5
100
AcDbEntity
  8
SYMBOL
100
AcDbCircle
 10
14.800001
 20
0.45
 30
0.0
 40
1.399999999999999
100
AcDbArc
 50
0.0
 51
89.99998199999998
  0
ARC
  5
6E0C
330
6DE5
100
AcDbEntity
  8
SYMBOL
100
AcDbCircle
 10
8.8
 20
0.65
 30
0.0
 40
1.199999999999999
100
AcDbArc
 50
0.0
 51
89.99998199999998
  0
SOLID
  5
6E0D
330
6DE5
100
AcDbEntity
  8
SYMBOL
100
AcDbTrace
 10
16.200001
 20
0.45
 30
0.0
 11
15.200001
 21
0.45
 31
0.0
 12
15.200001
 22
0.55
 32
0.0
 13
15.200001
 23
0.55
 33
0.0
  0
SOLID
  5
6E0E
330
6DE5
100
AcDbEntity
  8
SYMBOL
100
AcDbTrace
 10
16.200001
 20
-1.95
 30
0.0
 11
15.200001
 21
-1.95
 31
0.0
 12
16.200001
 22
0.45
 32
0.0
 13
15.200001
 23
0.45
 33
0.0
  0
LWPOLYLINE
  5
6E0F
330
6DE5
100
AcDbEntity
  8
SYMBOL
100
AcDbPolyline
 90
        2
 70
     0
 43
0.5
 10
15.450001
 20
0.55
 42
0.4142140000000002
 10
14.800001
 20
1.199999999999999
 42
1.0
  0
LINE
  5
6E10
330
6DE5
100
AcDbEntity
  8
SYMBOL
100
AcDbLine
 10
15.200001
 20
-1.95
 30
0.0
 11
16.200001
 21
-1.95
 31
0.0
  0
SOLID
  5
6E11
330
6DE5
100
AcDbEntity
  8
SYMBOL
100
AcDbTrace
 10
9.0
 20
0.65
 30
0.0
 11
10.0
 21
0.65
 31
0.0
 12
9.0
 22
-1.05
 32
0.0
 13
10.0
 23
-1.95
 33
0.0
  0
SOLID
  5
6E12
330
6DE5
100
AcDbEntity
  8
SYMBOL
100
AcDbTrace
 10
6.900000999999998
 20
-1.05
 30
0.0
 11
6.9
 21
-1.95
 31
0.0
 12
9.0
 22
-1.05
 32
0.0
 13
10.0
 23
-1.95
 33
0.0
  0
LINE
  5
6E13
330
6DE5
100
AcDbEntity
  8
SYMBOL
100
AcDbLine
 10
6.9
 20
-1.95
 30
0.0
 11
10.0
 21
-1.95
 31
0.0
  0
SOLID
  5
6E14
330
6DE5
100
AcDbEntity
  8
SYMBOL
100
AcDbTrace
 10
6.9
 20
0.45
 30
0.0
 11
6.900000999999998
 21
-0.45
 31
0.0
 12
9.0
 22
0.45
 32
0.0
 13
9.0
 23
-0.45
 33
0.0
  0
SOLID
  5
6E15
330
6DE5
100
AcDbEntity
  8
SYMBOL
100
AcDbTrace
 10
6.299999999999998
 20
1.85
 30
0.0
 11
6.299999999999998
 21
0.95
 31
0.0
 12
8.699999999999999
 22
1.85
 32
0.0
 13
8.699999999999999
 23
0.95
 33
0.0
  0
LWPOLYLINE
  5
6E16
330
6DE5
100
AcDbEntity
  8
SYMBOL
100
AcDbPolyline
 90
        2
 70
     0
 43
0.9
 10
6.9
 20
0.0
 42
0.4142140000000002
 10
6.15
 20
-0.75
 42
1.0
  0
LINE
  5
6E17
330
6DE5
100
AcDbEntity
  8
SYMBOL
100
AcDbLine
 10
6.900000999999998
 20
-1.05
 30
0.0
 11
9.0
 21
-1.05
 31
0.0
  0
LINE
  5
6E18
330
6DE5
100
AcDbEntity
  8
SYMBOL
100
AcDbLine
 10
6.299999999999998
 20
0.95
 30
0.0
 11
8.699999999999999
 21
0.95
 31
0.0
  0
LINE
  5
6E19
330
6DE5
100
AcDbEntity
  8
SYMBOL
100
AcDbLine
 10
6.299999999999998
 20
1.85
 30
0.0
 11
8.8
 21
1.85
 31
0.0
  0
LINE
  5
6E1A
330
6DE5
100
AcDbEntity
  8
SYMBOL
100
AcDbLine
 10
6.900000999999998
 20
-0.45
 30
0.0
 11
9.0
 21
-0.45
 31
0.0
  0
LINE
  5
6E1B
330
6DE5
100
AcDbEntity
  8
SYMBOL
100
AcDbLine
 10
6.9
 20
0.45
 30
0.0
 11
9.0
 21
0.45
 31
0.0
  0
ARC
  5
6E1C
330
6DE5
100
AcDbEntity
  8
SYMBOL
100
AcDbCircle
 10
6.9
 20
-0.75
 30
0.0
 40
1.199999999999999
100
AcDbArc
 50
89.99998199999998
 51
270.0
  0
ARC
  5
6E1D
330
6DE5
100
AcDbEntity
  8
SYMBOL
100
AcDbCircle
 10
6.900000999999998
 20
-0.75
 30
0.0
 40
0.3
100
AcDbArc
 50
89.99998199999998
 51
270.0
  0
LWPOLYLINE
  5
6E1E
330
6DE5
100
AcDbEntity
  8
SYMBOL
100
AcDbPolyline
 90
        2
 70
     0
 43
0.9
 10
6.15
 20
-0.75
 42
0.4142140000000002
 10
6.900000999999998
 20
-1.5
 42
1.0
  0
LINE
  5
6E1F
330
6DE5
100
AcDbEntity
  8
SYMBOL
100
AcDbLine
 10
4.5
 20
1.85
 30
0.0
 11
4.5
 21
-0.85
 31
0.0
  0
LINE
  5
6E20
330
6DE5
100
AcDbEntity
  8
SYMBOL
100
AcDbLine
 10
6.299999999999998
 20
1.85
 30
0.0
 11
6.299999999999998
 21
0.95
 31
0.0
  0
SOLID
  5
6E21
330
6DE5
100
AcDbEntity
  8
SYMBOL
100
AcDbTrace
 10
8.699999999999999
 20
1.85
 30
0.0
 11
8.8
 21
1.85
 31
0.0
 12
8.699999999999999
 22
1.274999999999999
 32
0.0
 13
8.906953999999997
 23
1.519086
 33
0.0
  0
LINE
  5
6E22
330
6DE5
100
AcDbEntity
  8
SYMBOL
100
AcDbLine
 10
9.0
 20
0.65
 30
0.0
 11
9.0
 21
0.45
 31
0.0
  0
LINE
  5
6E23
330
6DE5
100
AcDbEntity
  8
SYMBOL
100
AcDbLine
 10
9.0
 20
-0.45
 30
0.0
 11
9.0
 21
-1.05
 31
0.0
  0
ARC
  5
6E24
330
6DE5
100
AcDbEntity
  8
SYMBOL
100
AcDbCircle
 10
8.699999999999999
 20
0.65
 30
0.0
 40
0.3
100
AcDbArc
 50
0.0
 51
89.99998199999998
  0
LWPOLYLINE
  5
6E25
330
6DE5
100
AcDbEntity
  8
SYMBOL
100
AcDbPolyline
 90
        2
 70
     0
 43
0.65
 10
9.324999999999999
 20
0.65
 42
0.4142140000000002
 10
8.699999999999999
 20
1.274999999999999
 42
1.0
  0
ARC
  5
6E26
330
6DE5
100
AcDbEntity
  8
SYMBOL
100
AcDbCircle
 10
12.800001
 20
0.55
 30
0.0
 40
0.4
100
AcDbArc
 50
0.0
 51
89.99998199999998
  0
SOLID
  5
6E27
330
6DE5
100
AcDbEntity
  8
SYMBOL
100
AcDbTrace
 10
12.200001
 20
0.95
 30
0.0
 11
11.200001
 21
1.85
 31
0.0
 12
14.800001
 22
0.95
 32
0.0
 13
14.800001
 23
1.85
 33
0.0
  0
LINE
  5
6E28
330
6DE5
100
AcDbEntity
  8
SYMBOL
100
AcDbLine
 10
11.200001
 20
1.85
 30
0.0
 11
14.800001
 21
1.85
 31
0.0
  0
SOLID
  5
6E29
330
6DE5
100
AcDbEntity
  8
SYMBOL
100
AcDbTrace
 10
12.200001
 20
-1.95
 30
0.0
 11
11.200001
 21
-1.95
 31
0.0
 12
12.200001
 22
0.95
 32
0.0
 13
11.200001
 23
1.85
 33
0.0
  0
LINE
  5
6E2A
330
6DE5
100
AcDbEntity
  8
SYMBOL
100
AcDbLine
 10
11.200001
 20
1.85
 30
0.0
 11
11.200001
 21
-1.95
 31
0.0
  0
LINE
  5
6E2B
330
6DE5
100
AcDbEntity
  8
SYMBOL
100
AcDbLine
 10
11.200001
 20
-1.95
 30
0.0
 11
12.200001
 21
-1.95
 31
0.0
  0
LINE
  5
6E2C
330
6DE5
100
AcDbEntity
  8
SYMBOL
100
AcDbLine
 10
12.200001
 20
0.95
 30
0.0
 11
12.200001
 21
-1.95
 31
0.0
  0
LINE
  5
6E2D
330
6DE5
100
AcDbEntity
  8
SYMBOL
100
AcDbLine
 10
10.0
 20
0.65
 30
0.0
 11
10.0
 21
-1.95
 31
0.0
  0
LINE
  5
6E2E
330
6DE5
100
AcDbEntity
  8
SYMBOL
100
AcDbLine
 10
12.200001
 20
0.95
 30
0.0
 11
12.800001
 21
0.95
 31
0.0
  0
SOLID
  5
6E2F
330
6DE5
100
AcDbEntity
  8
SYMBOL
100
AcDbTrace
 10
14.200001
 20
0.55
 30
0.0
 11
14.200001
 21
0.65
 31
0.0
 12
13.886849
 22
0.378096
 32
0.0
 13
13.900001
 23
0.8
 33
0.0
  0
SOLID
  5
6E30
330
6DE5
100
AcDbEntity
  8
SYMBOL
100
AcDbTrace
 10
14.200001
 20
0.55
 30
0.0
 11
14.200001
 21
0.65
 31
0.0
 12
13.900001
 22
0.8
 32
0.0
 13
13.585251
 23
0.55
 33
0.0
  0
SOLID
  5
6E31
330
6DE5
100
AcDbEntity
  8
SYMBOL
100
AcDbTrace
 10
14.200001
 20
-1.95
 30
0.0
 11
13.200001
 21
-1.95
 31
0.0
 12
14.200001
 22
0.55
 32
0.0
 13
13.200001
 23
0.55
 33
0.0
  0
LWPOLYLINE
  5
6E32
330
6DE5
100
AcDbEntity
  8
SYMBOL
100
AcDbPolyline
 90
        2
 70
     0
 43
0.3
 10
14.050001
 20
0.65
 42
0.4142140000000002
 10
13.900001
 20
0.8
 42
1.0
  0
LINE
  5
6E33
330
6DE5
100
AcDbEntity
  8
SYMBOL
100
AcDbLine
 10
15.200001
 20
0.55
 30
0.0
 11
15.200001
 21
-1.95
 31
0.0
  0
LINE
  5
6E34
330
6DE5
100
AcDbEntity
  8
SYMBOL
100
AcDbLine
 10
14.200001
 20
0.65
 30
0.0
 11
14.200001
 21
-1.95
 31
0.0
  0
LINE
  5
6E35
330
6DE5
100
AcDbEntity
  8
SYMBOL
100
AcDbLine
 10
13.200001
 20
0.55
 30
0.0
 11
13.200001
 21
-1.95
 31
0.0
  0
LINE
  5
6E36
330
6DE5
100
AcDbEntity
  8
SYMBOL
100
AcDbLine
 10
13.200001
 20
-1.95
 30
0.0
 11
14.200001
 21
-1.95
 31
0.0
  0
LINE
  5
6E37
330
6DE5
100
AcDbEntity
  8
SYMBOL
100
AcDbLine
 10
13.900001
 20
0.95
 30
0.0
 11
14.800001
 21
0.95
 31
0.0
  0
ARC
  5
6E38
330
6DE5
100
AcDbEntity
  8
SYMBOL
100
AcDbCircle
 10
14.800001
 20
0.55
 30
0.0
 40
0.4
100
AcDbArc
 50
0.0
 51
89.99998199999998
  0
ARC
  5
6E39
330
6DE5
100
AcDbEntity
  8
SYMBOL
100
AcDbCircle
 10
13.900001
 20
0.65
 30
0.0
 40
0.3
100
AcDbArc
 50
0.0
 51
89.99998199999998
  0
LINE
  5
6E3A
330
6DE5
100
AcDbEntity
  8
SYMBOL
100
AcDbLine
 10
18.60000199999999
 20
-1.95
 30
0.0
 11
21.700002
 21
-1.95
 31
0.0
  0
SOLID
  5
6E3B
330
6DE5
100
AcDbEntity
  8
SYMBOL
100
AcDbTrace
 10
18.60000199999999
 20
-1.05
 30
0.0
 11
18.60000199999999
 21
-1.95
 31
0.0
 12
20.70000199999998
 22
-1.05
 32
0.0
 13
21.700002
 23
-1.95
 33
0.0
  0
SOLID
  5
6E3C
330
6DE5
100
AcDbEntity
  8
SYMBOL
100
AcDbTrace
 10
20.70000199999998
 20
0.65
 30
0.0
 11
21.700002
 21
0.65
 31
0.0
 12
20.70000199999998
 22
-1.05
 32
0.0
 13
21.700002
 23
-1.95
 33
0.0
  0
LINE
  5
6E3D
330
6DE5
100
AcDbEntity
  8
SYMBOL
100
AcDbLine
 10
18.60000199999999
 20
0.45
 30
0.0
 11
20.70000199999998
 21
0.45
 31
0.0
  0
LINE
  5
6E3E
330
6DE5
100
AcDbEntity
  8
SYMBOL
100
AcDbLine
 10
18.60000199999999
 20
-0.45
 30
0.0
 11
20.70000199999998
 21
-0.45
 31
0.0
  0
LINE
  5
6E3F
330
6DE5
100
AcDbEntity
  8
SYMBOL
100
AcDbLine
 10
18.60000199999999
 20
-1.05
 30
0.0
 11
20.70000199999998
 21
-1.05
 31
0.0
  0
SOLID
  5
6E40
330
6DE5
100
AcDbEntity
  8
SYMBOL
100
AcDbTrace
 10
18.60000199999999
 20
0.45
 30
0.0
 11
18.60000199999999
 21
-0.45
 31
0.0
 12
20.70000199999998
 22
0.45
 32
0.0
 13
20.70000199999998
 23
-0.45
 33
0.0
  0
ARC
  5
6E41
330
6DE5
100
AcDbEntity
  8
SYMBOL
100
AcDbCircle
 10
18.60000199999999
 20
-0.75
 30
0.0
 40
0.3
100
AcDbArc
 50
89.99998199999998
 51
270.0
  0
ARC
  5
6E42
330
6DE5
100
AcDbEntity
  8
SYMBOL
100
AcDbCircle
 10
18.60000199999999
 20
-0.75
 30
0.0
 40
1.199999999999999
100
AcDbArc
 50
89.99998199999998
 51
270.0
  0
LINE
  5
6E43
330
6DE5
100
AcDbEntity
  8
SYMBOL
100
AcDbLine
 10
18.00000199999998
 20
1.85
 30
0.0
 11
20.50000199999999
 21
1.85
 31
0.0
  0
LINE
  5
6E44
330
6DE5
100
AcDbEntity
  8
SYMBOL
100
AcDbLine
 10
18.00000199999998
 20
0.95
 30
0.0
 11
20.400002
 21
0.95
 31
0.0
  0
LWPOLYLINE
  5
6E45
330
6DE5
100
AcDbEntity
  8
SYMBOL
100
AcDbPolyline
 90
        2
 70
     0
 43
0.9
 10
18.60000199999999
 20
0.0
 42
0.4142140000000002
 10
17.85000199999998
 20
-0.75
 42
1.0
  0
SOLID
  5
6E46
330
6DE5
100
AcDbEntity
  8
SYMBOL
100
AcDbTrace
 10
18.00000199999998
 20
1.85
 30
0.0
 11
18.00000199999998
 21
0.95
 31
0.0
 12
20.400002
 22
1.85
 32
0.0
 13
20.400002
 23
0.95
 33
0.0
  0
LWPOLYLINE
  5
6E47
330
6DE5
100
AcDbEntity
  8
SYMBOL
100
AcDbPolyline
 90
        2
 70
     0
 43
0.9
 10
17.85000199999998
 20
-0.75
 42
0.4142140000000002
 10
18.60000199999999
 20
-1.5
 42
1.0
  0
LINE
  5
6E48
330
6DE5
100
AcDbEntity
  8
SYMBOL
100
AcDbLine
 10
18.00000199999998
 20
1.85
 30
0.0
 11
18.00000199999998
 21
0.95
 31
0.0
  0
LINE
  5
6E49
330
6DE5
100
AcDbEntity
  8
SYMBOL
100
AcDbLine
 10
16.200001
 20
0.45
 30
0.0
 11
16.200001
 21
-1.95
 31
0.0
  0
ARC
  5
6E4A
330
6DE5
100
AcDbEntity
  8
SYMBOL
100
AcDbCircle
 10
20.400002
 20
0.65
 30
0.0
 40
0.3
100
AcDbArc
 50
0.0
 51
89.99998199999998
  0
LINE
  5
6E4B
330
6DE5
100
AcDbEntity
  8
SYMBOL
100
AcDbLine
 10
20.70000199999998
 20
-0.45
 30
0.0
 11
20.70000199999998
 21
-1.05
 31
0.0
  0
LINE
  5
6E4C
330
6DE5
100
AcDbEntity
  8
SYMBOL
100
AcDbLine
 10
20.70000199999998
 20
0.65
 30
0.0
 11
20.70000199999998
 21
0.45
 31
0.0
  0
SOLID
  5
6E4D
330
6DE5
100
AcDbEntity
  8
SYMBOL
100
AcDbTrace
 10
20.400002
 20
1.85
 30
0.0
 11
20.50000199999999
 21
1.85
 31
0.0
 12
20.400002
 22
1.274999999999999
 32
0.0
 13
20.606956
 23
1.519086
 33
0.0
  0
LWPOLYLINE
  5
6E4E
330
6DE5
100
AcDbEntity
  8
SYMBOL
100
AcDbPolyline
 90
        2
 70
     0
 43
0.65
 10
21.025002
 20
0.65
 42
0.4142140000000002
 10
20.400002
 20
1.274999999999999
 42
1.0
  0
LINE
  5
6E4F
330
6DE5
100
AcDbEntity
  8
SYMBOL
100
AcDbLine
 10
23.9
 20
-0.95
 30
0.0
 11
25.199999
 21
-0.95
 31
0.0
  0
LINE
  5
6E50
330
6DE5
100
AcDbEntity
  8
SYMBOL
100
AcDbLine
 10
23.9
 20
0.85
 30
0.0
 11
25.199999
 21
0.85
 31
0.0
  0
LINE
  5
6E51
330
6DE5
100
AcDbEntity
  8
SYMBOL
100
AcDbLine
 10
22.9
 20
1.85
 30
0.0
 11
25.199999
 21
1.85
 31
0.0
  0
LINE
  5
6E52
330
6DE5
100
AcDbEntity
  8
SYMBOL
100
AcDbLine
 10
22.9
 20
-1.95
 30
0.0
 11
25.199999
 21
-1.95
 31
0.0
  0
SOLID
  5
6E53
330
6DE5
100
AcDbEntity
  8
SYMBOL
100
AcDbTrace
 10
25.199999
 20
1.85
 30
0.0
 11
25.199999
 21
0.85
 31
0.0
 12
22.9
 22
1.85
 32
0.0
 13
23.9
 23
0.85
 33
0.0
  0
SOLID
  5
6E54
330
6DE5
100
AcDbEntity
  8
SYMBOL
100
AcDbTrace
 10
22.9
 20
-1.95
 30
0.0
 11
23.9
 21
-0.95
 31
0.0
 12
25.199999
 22
-1.95
 32
0.0
 13
25.199999
 23
-0.95
 33
0.0
  0
LINE
  5
6E55
330
6DE5
100
AcDbEntity
  8
SYMBOL
100
AcDbLine
 10
21.700002
 20
0.65
 30
0.0
 11
21.700002
 21
-1.95
 31
0.0
  0
LINE
  5
6E56
330
6DE5
100
AcDbEntity
  8
SYMBOL
100
AcDbLine
 10
23.9
 20
0.85
 30
0.0
 11
23.9
 21
-0.95
 31
0.0
  0
LINE
  5
6E57
330
6DE5
100
AcDbEntity
  8
SYMBOL
100
AcDbLine
 10
22.9
 20
1.85
 30
0.0
 11
22.9
 21
-1.95
 31
0.0
  0
SOLID
  5
6E58
330
6DE5
100
AcDbEntity
  8
SYMBOL
100
AcDbTrace
 10
22.9
 20
1.85
 30
0.0
 11
23.9
 21
0.85
 31
0.0
 12
22.9
 22
-1.95
 32
0.0
 13
23.9
 23
-0.95
 33
0.0
  0
ARC
  5
6E59
330
6DE5
100
AcDbEntity
  8
SYMBOL
100
AcDbCircle
 10
25.199999
 20
-0.05
 30
0.0
 40
1.9
100
AcDbArc
 50
270.00002
 51
89.99998199999998
  0
ARC
  5
6E5A
330
6DE5
100
AcDbEntity
  8
SYMBOL
100
AcDbCircle
 10
25.199999
 20
-0.05
 30
0.0
 40
0.9
100
AcDbArc
 50
270.00002
 51
89.99998199999998
  0
ARC
  5
6E5B
330
6DE5
100
AcDbEntity
  8
SYMBOL
100
AcDbCircle
 10
31.4
 20
0.65
 30
0.0
 40
1.199999999999999
100
AcDbArc
 50
0.0
 51
89.99998199999998
  0
LWPOLYLINE
  5
6E5C
330
6DE5
100
AcDbEntity
  8
SYMBOL
100
AcDbPolyline
 90
        2
 70
     0
 43
0.9
 10
32.14999999999999
 20
0.65
 42
0.4142140000000002
 10
31.4
 20
1.399999999999999
 42
1.0
  0
ARC
  5
6E5D
330
6DE5
100
AcDbEntity
  8
SYMBOL
100
AcDbCircle
 10
29.5
 20
-0.75
 30
0.0
 40
1.199999999999999
100
AcDbArc
 50
89.99998199999998
 51
270.0
  0
LINE
  5
6E5E
330
6DE5
100
AcDbEntity
  8
SYMBOL
100
AcDbLine
 10
29.5
 20
0.45
 30
0.0
 11
31.6
 21
0.45
 31
0.0
  0
LINE
  5
6E5F
330
6DE5
100
AcDbEntity
  8
SYMBOL
100
AcDbLine
 10
29.5
 20
-0.45
 30
0.0
 11
31.6
 21
-0.45
 31
0.0
  0
LINE
  5
6E60
330
6DE5
100
AcDbEntity
  8
SYMBOL
100
AcDbLine
 10
28.9
 20
1.85
 30
0.0
 11
31.4
 21
1.85
 31
0.0
  0
LINE
  5
6E61
330
6DE5
100
AcDbEntity
  8
SYMBOL
100
AcDbLine
 10
28.9
 20
0.95
 30
0.0
 11
31.3
 21
0.95
 31
0.0
  0
LINE
  5
6E62
330
6DE5
100
AcDbEntity
  8
SYMBOL
100
AcDbLine
 10
29.5
 20
-1.05
 30
0.0
 11
31.6
 21
-1.05
 31
0.0
  0
SOLID
  5
6E63
330
6DE5
100
AcDbEntity
  8
SYMBOL
100
AcDbTrace
 10
28.9
 20
1.85
 30
0.0
 11
28.9
 21
0.95
 31
0.0
 12
31.3
 22
1.85
 32
0.0
 13
31.3
 23
0.95
 33
0.0
  0
SOLID
  5
6E64
330
6DE5
100
AcDbEntity
  8
SYMBOL
100
AcDbTrace
 10
29.5
 20
0.45
 30
0.0
 11
29.5
 21
-0.45
 31
0.0
 12
31.6
 22
0.45
 32
0.0
 13
31.6
 23
-0.45
 33
0.0
  0
LINE
  5
6E65
330
6DE5
100
AcDbEntity
  8
SYMBOL
100
AcDbLine
 10
29.5
 20
-1.95
 30
0.0
 11
32.6
 21
-1.95
 31
0.0
  0
SOLID
  5
6E66
330
6DE5
100
AcDbEntity
  8
SYMBOL
100
AcDbTrace
 10
29.5
 20
-1.05
 30
0.0
 11
29.5
 21
-1.95
 31
0.0
 12
31.6
 22
-1.05
 32
0.0
 13
32.6
 23
-1.95
 33
0.0
  0
LINE
  5
6E67
330
6DE5
100
AcDbEntity
  8
SYMBOL
100
AcDbLine
 10
28.9
 20
1.85
 30
0.0
 11
28.9
 21
0.95
 31
0.0
  0
ARC
  5
6E68
330
6DE5
100
AcDbEntity
  8
SYMBOL
100
AcDbCircle
 10
29.5
 20
-0.75
 30
0.0
 40
0.3
100
AcDbArc
 50
89.99998199999998
 51
270.0
  0
LWPOLYLINE
  5
6E69
330
6DE5
100
AcDbEntity
  8
SYMBOL
100
AcDbPolyline
 90
        2
 70
     0
 43
0.9
 10
29.5
 20
0.0
 42
0.4142140000000002
 10
28.75
 20
-0.75
 42
1.0
  0
LWPOLYLINE
  5
6E6A
330
6DE5
100
AcDbEntity
  8
SYMBOL
100
AcDbPolyline
 90
        2
 70
     0
 43
0.9
 10
28.75
 20
-0.75
 42
0.4142140000000002
 10
29.5
 20
-1.5
 42
1.0
  0
LINE
  5
6E6B
330
6DE5
100
AcDbEntity
  8
SYMBOL
100
AcDbLine
 10
32.6
 20
0.65
 30
0.0
 11
32.6
 21
-1.95
 31
0.0
  0
ARC
  5
6E6C
330
6DE5
100
AcDbEntity
  8
SYMBOL
100
AcDbCircle
 10
31.3
 20
0.65
 30
0.0
 40
0.3
100
AcDbArc
 50
0.0
 51
89.99998199999998
  0
LINE
  5
6E6D
330
6DE5
100
AcDbEntity
  8
SYMBOL
100
AcDbLine
 10
31.6
 20
-0.45
 30
0.0
 11
31.6
 21
-1.05
 31
0.0
  0
LINE
  5
6E6E
330
6DE5
100
AcDbEntity
  8
SYMBOL
100
AcDbLine
 10
31.6
 20
0.65
 30
0.0
 11
31.6
 21
0.45
 31
0.0
  0
SOLID
  5
6E6F
330
6DE5
100
AcDbEntity
  8
SYMBOL
100
AcDbTrace
 10
31.3
 20
1.85
 30
0.0
 11
31.4
 21
1.85
 31
0.0
 12
31.3
 22
1.274999999999999
 32
0.0
 13
31.506954
 23
1.519086
 33
0.0
  0
SOLID
  5
6E70
330
6DE5
100
AcDbEntity
  8
SYMBOL
100
AcDbTrace
 10
31.6
 20
0.65
 30
0.0
 11
32.6
 21
0.65
 31
0.0
 12
31.6
 22
-1.05
 32
0.0
 13
32.6
 23
-1.95
 33
0.0
  0
LWPOLYLINE
  5
6E71
330
6DE5
100
AcDbEntity
  8
SYMBOL
100
AcDbPolyline
 90
        2
 70
     0
 43
0.65
 10
31.925
 20
0.65
 42
0.4142140000000002
 10
31.3
 20
1.274999999999999
 42
1.0
  0
ENDBLK
  5
6E73
330
6DE5
100
AcDbEntity
  8
0
100
AcDbBlockEnd
  0
BLOCK
  5
6E87
330
6E74
100
AcDbEntity
  8
0
100
AcDbBlockBegin
  2
A$CA052
 70
     0
 10
0.0
 20
0.0
 30
0.0
  3
A$CA052
  1

  0
TEXT
  5
6E75
330
6E74
100
AcDbEntity
  8
NOTE
100
AcDbText
 10
5.02116
 20
5.252692999999998
 30
0.0
 40
4.0
  1
Serial No, H
  7
RCEXFONT
100
AcDbText
  0
LINE
  5
6E76
330
6E74
100
AcDbEntity
  8
DRAW1
100
AcDbLine
 10
2.02116
 20
20.252693
 30
0.0
 11
78.02115999999998
 21
20.252693
 31
0.0
  0
LINE
  5
6E77
330
6E74
100
AcDbEntity
  8
DRAW1
100
AcDbLine
 10
78.02115999999998
 20
0.252693
 30
0.0
 11
2.02116
 21
0.252693
 31
0.0
  0
LINE
  5
6E78
330
6E74
100
AcDbEntity
  8
DRAW1
100
AcDbLine
 10
4.02116
 20
18.252693
 30
0.0
 11
76.02115999999998
 21
18.252693
 31
0.0
  0
LINE
  5
6E79
330
6E74
100
AcDbEntity
  8
DRAW1
100
AcDbLine
 10
76.02115999999998
 20
2.252692999999998
 30
0.0
 11
4.02116
 21
2.252692999999998
 31
0.0
  0
LINE
  5
6E7A
330
6E74
100
AcDbEntity
  8
DRAW1
100
AcDbLine
 10
0.02116
 20
2.252692999999998
 30
0.0
 11
0.02116
 21
18.252693
 31
0.0
  0
ARC
  5
6E7B
330
6E74
100
AcDbEntity
  8
DRAW1
100
AcDbCircle
 10
4.02116
 20
16.252693
 30
0.0
 40
2.0
100
AcDbArc
 50
90.0
 51
180.0
  0
INSERT
  5
6E7C
330
6E74
100
AcDbEntity
  8
DRAW1
100
AcDbBlockReference
  2
6-12
 10
5.02116
 20
14.50269299999999
 30
0.0
  0
LINE
  5
6E7D
330
6E74
100
AcDbEntity
  8
DRAW1
100
AcDbLine
 10
2.02116
 20
4.252692999999998
 30
0.0
 11
2.02116
 21
16.252693
 31
0.0
  0
ARC
  5
6E7E
330
6E74
100
AcDbEntity
  8
DRAW1
100
AcDbCircle
 10
2.02116
 20
2.252692999999998
 30
0.0
 40
2.0
100
AcDbArc
 50
180.0
 51
270.0
  0
ARC
  5
6E7F
330
6E74
100
AcDbEntity
  8
DRAW1
100
AcDbCircle
 10
4.02116
 20
4.252692999999998
 30
0.0
 40
2.0
100
AcDbArc
 50
180.0
 51
270.0
  0
ARC
  5
6E80
330
6E74
100
AcDbEntity
  8
DRAW1
100
AcDbCircle
 10
2.02116
 20
18.252693
 30
0.0
 40
2.0
100
AcDbArc
 50
90.0
 51
180.0
  0
LINE
  5
6E81
330
6E74
100
AcDbEntity
  8
DRAW1
100
AcDbLine
 10
80.02115999999999
 20
18.252693
 30
0.0
 11
80.02115999999999
 21
2.252692999999998
 31
0.0
  0
ARC
  5
6E82
330
6E74
100
AcDbEntity
  8
DRAW1
100
AcDbCircle
 10
76.02115999999998
 20
16.252693
 30
0.0
 40
2.0
100
AcDbArc
 50
0.0
 51
90.0
  0
LINE
  5
6E83
330
6E74
100
AcDbEntity
  8
DRAW1
100
AcDbLine
 10
78.02115999999998
 20
16.252693
 30
0.0
 11
78.02115999999998
 21
4.252692999999998
 31
0.0
  0
ARC
  5
6E84
330
6E74
100
AcDbEntity
  8
DRAW1
100
AcDbCircle
 10
78.02115999999998
 20
2.252692999999998
 30
0.0
 40
2.0
100
AcDbArc
 50
270.0
 51
0.0
  0
ARC
  5
6E85
330
6E74
100
AcDbEntity
  8
DRAW1
100
AcDbCircle
 10
76.02115999999998
 20
4.252692999999998
 30
0.0
 40
2.0
100
AcDbArc
 50
270.0
 51
0.0
  0
ARC
  5
6E86
330
6E74
100
AcDbEntity
  8
DRAW1
100
AcDbCircle
 10
78.02115999999998
 20
18.252693
 30
0.0
 40
2.0
100
AcDbArc
 50
0.0
 51
90.0
  0
ENDBLK
  5
6E88
330
6E74
100
AcDbEntity
  8
0
100
AcDbBlockEnd
  0
BLOCK
  5
6E91
330
6E89
100
AcDbEntity
  8
0
100
AcDbBlockBegin
  2
A$CA1A3
 70
     0
 10
0.0
 20
0.0
 30
0.0
  3
A$CA1A3
  1

  0
LINE
  5
6E8A
330
6E89
100
AcDbEntity
  8
DRAW1
  6
ByBlock
100
AcDbLine
 10
90.672033
 20
8.048690999999998
 30
0.0
 11
0.672033
 21
8.048690999999998
 31
0.0
  0
LINE
  5
6E8B
330
6E89
100
AcDbEntity
  8
DRAW1
  6
ByBlock
100
AcDbLine
 10
0.672033
 20
18.048691
 30
0.0
 11
90.672033
 21
18.048691
 31
0.0
  0
LINE
  5
6E8C
330
6E89
100
AcDbEntity
  8
DRAW1
  6
ByBlock
100
AcDbLine
 10
0.672033
 20
8.048690999999998
 30
0.0
 11
0.672033
 21
18.048691
 31
0.0
  0
LINE
  5
6E8D
330
6E89
100
AcDbEntity
  8
DRAW1
  6
ByBlock
100
AcDbLine
 10
120.672033
 20
13.048691
 30
0.0
 11
90.672033
 21
0.548691
 31
0.0
  0
LINE
  5
6E8E
330
6E89
100
AcDbEntity
  8
DRAW1
  6
ByBlock
100
AcDbLine
 10
90.672033
 20
25.548691
 30
0.0
 11
120.672033
 21
13.048691
 31
0.0
  0
LINE
  5
6E8F
330
6E89
100
AcDbEntity
  8
DRAW1
  6
ByBlock
100
AcDbLine
 10
90.672033
 20
25.548691
 30
0.0
 11
90.672033
 21
18.048691
 31
0.0
  0
LINE
  5
6E90
330
6E89
100
AcDbEntity
  8
DRAW1
  6
ByBlock
100
AcDbLine
 10
90.672033
 20
8.048690999999998
 30
0.0
 11
90.672033
 21
0.548691
 31
0.0
  0
ENDBLK
  5
6E92
330
6E89
100
AcDbEntity
  8
0
100
AcDbBlockEnd
  0
BLOCK
  5
EC7D
330
EC73
100
AcDbEntity
  8
0
100
AcDbBlockBegin
  2
*D12
 70
     1
 10
0.0
 20
0.0
 30
0.0
  3
*D12
  1

  0
LINE
  5
F202
330
EC73
100
AcDbEntity
  8
DIM1-1
 62
     0
370
    -2
100
AcDbLine
 10
1635.907586
 20
-725.7522629999998
 30
0.0
 11
1759.907585999999
 21
-725.7522629999998
 31
0.0
  0
LINE
  5
F203
330
EC73
100
AcDbEntity
  8
DIM1-1
 62
     0
370
    -2
100
AcDbLine
 10
1675.907586
 20
-795.7522629999998
 30
0.0
 11
1759.907585999999
 21
-795.7522629999998
 31
0.0
  0
LINE
  5
F204
330
EC73
100
AcDbEntity
  8
DIM1-1
 62
     0
370
    -2
100
AcDbLine
 10
1755.907586
 20
-737.7522629999998
 30
0.0
 11
1755.907586
 21
-783.7522629999998
 31
0.0
  0
INSERT
  5
F205
330
EC73
100
AcDbEntity
  8
DIM1-1
 62
     0
370
    -2
100
AcDbBlockReference
  2
_OPEN
 10
1755.907586
 20
-725.7522629999998
 30
0.0
 41
12.0
 42
12.0
 43
12.0
 50
90.0
  0
INSERT
  5
F206
330
EC73
100
AcDbEntity
  8
DIM1-1
 62
     0
370
    -2
100
AcDbBlockReference
  2
_OPEN
 10
1755.907586
 20
-795.7522629999998
 30
0.0
 41
12.0
 42
12.0
 43
12.0
 50
270.0
  0
MTEXT
  5
F207
330
EC73
100
AcDbEntity
  8
DIM1-1
 62
     0
100
AcDbMText
 10
1742.155204999999
 20
-760.752263
 30
0.0
 40
12.8
 41
0.0
 71
     5
 72
     1
  1
\A1;(70)
  7
DIMFONT
 11
0.0
 21
1.0
 31
0.0
 73
     1
 44
1.0
  0
POINT
  5
F208
330
EC73
100
AcDbEntity
  8
DEFPOINTS
 62
     0
100
AcDbPoint
 10
1635.907586
 20
-725.7522629999998
 30
0.0
  0
POINT
  5
F209
330
EC73
100
AcDbEntity
  8
DEFPOINTS
 62
     0
100
AcDbPoint
 10
1675.907586
 20
-795.7522629999998
 30
0.0
  0
POINT
  5
F20A
330
EC73
100
AcDbEntity
  8
DEFPOINTS
 62
     0
100
AcDbPoint
 10
1755.907586
 20
-795.7522629999998
 30
0.0
  0
ENDBLK
  5
EC7E
330
EC73
100
AcDbEntity
  8
0
100
AcDbBlockEnd
  0
BLOCK
  5
EC8B
330
EC7F
100
AcDbEntity
  8
0
100
AcDbBlockBegin
  2
*D13
 70
     1
 10
0.0
 20
0.0
 30
0.0
  3
*D13
  1

  0
LINE
  5
F20B
330
EC7F
100
AcDbEntity
  8
DIM1-1
 62
     0
370
    -2
100
AcDbLine
 10
1675.907586
 20
-795.7522629999998
 30
0.0
 11
1729.907586
 21
-795.7522629999998
 31
0.0
  0
LINE
  5
F20C
330
EC7F
100
AcDbEntity
  8
DIM1-1
 62
     0
370
    -2
100
AcDbLine
 10
1633.907586
 20
-755.752263
 30
0.0
 11
1729.907586
 21
-755.752263
 31
0.0
  0
LINE
  5
F20D
330
EC7F
100
AcDbEntity
  8
DIM1-1
 62
     0
370
    -2
100
AcDbLine
 10
1725.907585999999
 20
-743.752263
 30
0.0
 11
1725.907585999999
 21
-731.752263
 31
0.0
  0
LINE
  5
F20E
330
EC7F
100
AcDbEntity
  8
DIM1-1
 62
     0
370
    -2
100
AcDbLine
 10
1725.907585999999
 20
-807.752263
 30
0.0
 11
1725.907585999999
 21
-864.7535939999997
 31
0.0
  0
LINE
  5
F20F
330
EC7F
100
AcDbEntity
  8
DIM1-1
 62
     0
370
    -2
100
AcDbLine
 10
1725.907585999999
 20
-755.752263
 30
0.0
 11
1725.907585999999
 21
-795.7522629999998
 31
0.0
  0
INSERT
  5
F210
330
EC7F
100
AcDbEntity
  8
DIM1-1
 62
     0
370
    -2
100
AcDbBlockReference
  2
_OPEN
 10
1725.907585999999
 20
-755.752263
 30
0.0
 41
12.0
 42
12.0
 43
12.0
 50
270.0
  0
INSERT
  5
F211
330
EC7F
100
AcDbEntity
  8
DIM1-1
 62
     0
370
    -2
100
AcDbBlockReference
  2
_OPEN
 10
1725.907585999999
 20
-795.7522629999998
 30
0.0
 41
12.0
 42
12.0
 43
12.0
 50
90.0
  0
MTEXT
  5
F212
330
EC7F
100
AcDbEntity
  8
DIM1-1
 62
     0
100
AcDbMText
 10
1712.155205
 20
-842.2529279999999
 30
0.0
 40
12.8
 41
0.0
 71
     5
 72
     1
  1
\A1;(40)
  7
DIMFONT
 11
0.0
 21
1.0
 31
0.0
 73
     1
 44
1.0
  0
POINT
  5
F213
330
EC7F
100
AcDbEntity
  8
DEFPOINTS
 62
     0
100
AcDbPoint
 10
1675.907586
 20
-795.7522629999998
 30
0.0
  0
POINT
  5
F214
330
EC7F
100
AcDbEntity
  8
DEFPOINTS
 62
     0
100
AcDbPoint
 10
1633.907586
 20
-755.752263
 30
0.0
  0
POINT
  5
F215
330
EC7F
100
AcDbEntity
  8
DEFPOINTS
 62
     0
100
AcDbPoint
 10
1725.907585999999
 20
-755.752263
 30
0.0
  0
ENDBLK
  5
EC8C
330
EC7F
100
AcDbEntity
  8
0
100
AcDbBlockEnd
  0
BLOCK
  5
EC99
330
EC8D
100
AcDbEntity
  8
0
100
AcDbBlockBegin
  2
*D14
 70
     1
 10
0.0
 20
0.0
 30
0.0
  3
*D14
  1

  0
LINE
  5
F216
330
EC8D
100
AcDbEntity
  8
DIM1-1
 62
     0
370
    -2
100
AcDbLine
 10
1675.907586
 20
-795.7522629999998
 30
0.0
 11
1675.907586
 21
-839.752263
 31
0.0
  0
LINE
  5
F217
330
EC8D
100
AcDbEntity
  8
DIM1-1
 62
     0
370
    -2
100
AcDbLine
 10
1635.907586
 20
-753.7522629999998
 30
0.0
 11
1635.907586
 21
-839.752263
 31
0.0
  0
LINE
  5
F218
330
EC8D
100
AcDbEntity
  8
DIM1-1
 62
     0
370
    -2
100
AcDbLine
 10
1687.907586
 20
-835.752263
 30
0.0
 11
1699.907586
 21
-835.752263
 31
0.0
  0
LINE
  5
F219
330
EC8D
100
AcDbEntity
  8
DIM1-1
 62
     0
370
    -2
100
AcDbLine
 10
1623.907586
 20
-835.752263
 30
0.0
 11
1566.906256
 21
-835.752263
 31
0.0
  0
LINE
  5
F21A
330
EC8D
100
AcDbEntity
  8
DIM1-1
 62
     0
370
    -2
100
AcDbLine
 10
1675.907586
 20
-835.752263
 30
0.0
 11
1635.907586
 21
-835.752263
 31
0.0
  0
INSERT
  5
F21B
330
EC8D
100
AcDbEntity
  8
DIM1-1
 62
     0
370
    -2
100
AcDbBlockReference
  2
_OPEN
 10
1675.907586
 20
-835.752263
 30
0.0
 41
12.0
 42
12.0
 43
12.0
 50
180.0
  0
INSERT
  5
F21C
330
EC8D
100
AcDbEntity
  8
DIM1-1
 62
     0
370
    -2
100
AcDbBlockReference
  2
_OPEN
 10
1635.907586
 20
-835.752263
 30
0.0
 41
12.0
 42
12.0
 43
12.0
  0
MTEXT
  5
F21D
330
EC8D
100
AcDbEntity
  8
DIM1-1
 62
     0
100
AcDbMText
 10
1589.406921
 20
-821.999882
 30
0.0
 40
12.8
 41
0.0
 71
     5
 72
     1
  1
\A1;(40)
  7
DIMFONT
 73
     1
 44
1.0
  0
POINT
  5
F21E
330
EC8D
100
AcDbEntity
  8
DEFPOINTS
 62
     0
100
AcDbPoint
 10
1675.907586
 20
-795.7522629999998
 30
0.0
  0
POINT
  5
F21F
330
EC8D
100
AcDbEntity
  8
DEFPOINTS
 62
     0
100
AcDbPoint
 10
1635.907586
 20
-753.7522629999998
 30
0.0
  0
POINT
  5
F220
330
EC8D
100
AcDbEntity
  8
DEFPOINTS
 62
     0
100
AcDbPoint
 10
1635.907586
 20
-835.752263
 30
0.0
  0
ENDBLK
  5
EC9A
330
EC8D
100
AcDbEntity
  8
0
100
AcDbBlockEnd
  0
BLOCK
  5
ECC6
330
ECBC
100
AcDbEntity
  8
0
100
AcDbBlockBegin
  2
*D15
 70
     1
 10
0.0
 20
0.0
 30
0.0
  3
*D15
  1

  0
LINE
  5
F1D5
330
ECBC
100
AcDbEntity
  8
DIM1-1
 62
     0
370
    -2
100
AcDbLine
 10
1175.907586
 20
-602.252263
 30
0.0
 11
1175.907586
 21
-839.752263
 31
0.0
  0
LINE
  5
F1D6
330
ECBC
100
AcDbEntity
  8
DIM1-1
 62
     0
370
    -2
100
AcDbLine
 10
1125.907586
 20
-795.7522629999998
 30
0.0
 11
1125.907586
 21
-839.752263
 31
0.0
  0
LINE
  5
F1D7
330
ECBC
100
AcDbEntity
  8
DIM1-1
 62
     0
370
    -2
100
AcDbLine
 10
1163.907586
 20
-835.752263
 30
0.0
 11
1137.907586
 21
-835.752263
 31
0.0
  0
INSERT
  5
F1D8
330
ECBC
100
AcDbEntity
  8
DIM1-1
 62
     0
370
    -2
100
AcDbBlockReference
  2
_OPEN
 10
1175.907586
 20
-835.752263
 30
0.0
 41
12.0
 42
12.0
 43
12.0
  0
INSERT
  5
F1D9
330
ECBC
100
AcDbEntity
  8
DIM1-1
 62
     0
370
    -2
100
AcDbBlockReference
  2
_OPEN
 10
1125.907586
 20
-835.752263
 30
0.0
 41
12.0
 42
12.0
 43
12.0
 50
180.0
  0
MTEXT
  5
F1DA
330
ECBC
100
AcDbEntity
  8
DIM1-1
 62
     0
100
AcDbMText
 10
1150.907586
 20
-821.999882
 30
0.0
 40
12.8
 41
0.0
 71
     5
 72
     1
  1
\A1;(50)
  7
DIMFONT
 73
     1
 44
1.0
  0
POINT
  5
F1DB
330
ECBC
100
AcDbEntity
  8
DEFPOINTS
 62
     0
100
AcDbPoint
 10
1175.907586
 20
-602.252263
 30
0.0
  0
POINT
  5
F1DC
330
ECBC
100
AcDbEntity
  8
DEFPOINTS
 62
     0
100
AcDbPoint
 10
1125.907586
 20
-795.7522629999998
 30
0.0
  0
POINT
  5
F1DD
330
ECBC
100
AcDbEntity
  8
DEFPOINTS
 62
     0
100
AcDbPoint
 10
1125.907586
 20
-835.752263
 30
0.0
  0
ENDBLK
  5
ECC7
330
ECBC
100
AcDbEntity
  8
0
100
AcDbBlockEnd
  0
BLOCK
  5
F07B
330
F071
100
AcDbEntity
  8
0
100
AcDbBlockBegin
  2
*D16
 70
     1
 10
0.0
 20
0.0
 30
0.0
  3
*D16
  1

  0
LINE
  5
F1F0
330
F071
100
AcDbEntity
  8
DIM1-1
 62
     0
370
    -2
100
AcDbLine
 10
1125.907586
 20
-795.7522629999998
 30
0.0
 11
1125.907586
 21
-879.7522630000001
 31
0.0
  0
LINE
  5
F1F1
330
F071
100
AcDbEntity
  8
DIM1-1
 62
     0
370
    -2
100
AcDbLine
 10
1675.907586
 20
-795.7522629999998
 30
0.0
 11
1675.907586
 21
-879.7522630000001
 31
0.0
  0
LINE
  5
F1F2
330
F071
100
AcDbEntity
  8
DIM1-1
 62
     0
370
    -2
100
AcDbLine
 10
1137.907586
 20
-875.752263
 30
0.0
 11
1663.907586
 21
-875.752263
 31
0.0
  0
INSERT
  5
F1F3
330
F071
100
AcDbEntity
  8
DIM1-1
 62
     0
370
    -2
100
AcDbBlockReference
  2
_OPEN
 10
1125.907586
 20
-875.752263
 30
0.0
 41
12.0
 42
12.0
 43
12.0
 50
180.0
  0
INSERT
  5
F1F4
330
F071
100
AcDbEntity
  8
DIM1-1
 62
     0
370
    -2
100
AcDbBlockReference
  2
_OPEN
 10
1675.907586
 20
-875.752263
 30
0.0
 41
12.0
 42
12.0
 43
12.0
  0
MTEXT
  5
F1F5
330
F071
100
AcDbEntity
  8
DIM1-1
 62
     0
100
AcDbMText
 10
1400.907586
 20
-861.9998820000002
 30
0.0
 40
12.8
 41
0.0
 71
     5
 72
     1
  1
\A1;(550)
  7
DIMFONT
 73
     1
 44
1.0
  0
POINT
  5
F1F6
330
F071
100
AcDbEntity
  8
DEFPOINTS
 62
     0
100
AcDbPoint
 10
1125.907586
 20
-795.7522629999998
 30
0.0
  0
POINT
  5
F1F7
330
F071
100
AcDbEntity
  8
DEFPOINTS
 62
     0
100
AcDbPoint
 10
1675.907586
 20
-795.7522629999998
 30
0.0
  0
POINT
  5
F1F8
330
F071
100
AcDbEntity
  8
DEFPOINTS
 62
     0
100
AcDbPoint
 10
1675.907586
 20
-875.752263
 30
0.0
  0
ENDBLK
  5
F07C
330
F071
100
AcDbEntity
  8
0
100
AcDbBlockEnd
  0
BLOCK
  5
F088
330
F07E
100
AcDbEntity
  8
0
100
AcDbBlockBegin
  2
*D17
 70
     1
 10
0.0
 20
0.0
 30
0.0
  3
*D17
  1

  0
LINE
  5
F1E7
330
F07E
100
AcDbEntity
  8
DIM1-1
 62
     0
370
    -2
100
AcDbLine
 10
1026.407586
 20
-671.2522629999998
 30
0.0
 11
1026.407586
 21
-919.7522629999999
 31
0.0
  0
LINE
  5
F1E8
330
F07E
100
AcDbEntity
  8
DIM1-1
 62
     0
370
    -2
100
AcDbLine
 10
1775.407586
 20
-671.2522629999998
 30
0.0
 11
1775.407586
 21
-919.7522629999999
 31
0.0
  0
LINE
  5
F1E9
330
F07E
100
AcDbEntity
  8
DIM1-1
 62
     0
370
    -2
100
AcDbLine
 10
1038.407586
 20
-915.752263
 30
0.0
 11
1763.407586
 21
-915.752263
 31
0.0
  0
INSERT
  5
F1EA
330
F07E
100
AcDbEntity
  8
DIM1-1
 62
     0
370
    -2
100
AcDbBlockReference
  2
_OPEN
 10
1026.407586
 20
-915.752263
 30
0.0
 41
12.0
 42
12.0
 43
12.0
 50
180.0
  0
INSERT
  5
F1EB
330
F07E
100
AcDbEntity
  8
DIM1-1
 62
     0
370
    -2
100
AcDbBlockReference
  2
_OPEN
 10
1775.407586
 20
-915.752263
 30
0.0
 41
12.0
 42
12.0
 43
12.0
  0
MTEXT
  5
F1EC
330
F07E
100
AcDbEntity
  8
DIM1-1
 62
     0
100
AcDbMText
 10
1400.907586
 20
-901.9998819999999
 30
0.0
 40
12.8
 41
0.0
 71
     5
 72
     1
  1
\A1;(750)
  7
DIMFONT
 73
     1
 44
1.0
  0
POINT
  5
F1ED
330
F07E
100
AcDbEntity
  8
DEFPOINTS
 62
     0
100
AcDbPoint
 10
1026.407586
 20
-671.2522629999998
 30
0.0
  0
POINT
  5
F1EE
330
F07E
100
AcDbEntity
  8
DEFPOINTS
 62
     0
100
AcDbPoint
 10
1775.407586
 20
-671.2522629999998
 30
0.0
  0
POINT
  5
F1EF
330
F07E
100
AcDbEntity
  8
DEFPOINTS
 62
     0
100
AcDbPoint
 10
1775.407586
 20
-915.752263
 30
0.0
  0
ENDBLK
  5
F089
330
F07E
100
AcDbEntity
  8
0
100
AcDbBlockEnd
  0
BLOCK
  5
F0E0
330
F0D6
100
AcDbEntity
  8
0
100
AcDbBlockBegin
  2
*D18
 70
     1
 10
0.0
 20
0.0
 30
0.0
  3
*D18
  1

  0
LINE
  5
F1DE
330
F0D6
100
AcDbEntity
  8
DIM1-1
 62
     0
370
    -2
100
AcDbLine
 10
1026.407586
 20
-523.252263
 30
0.0
 11
987.4075860000001
 21
-523.252263
 31
0.0
  0
LINE
  5
F1DF
330
F0D6
100
AcDbEntity
  8
DIM1-1
 62
     0
370
    -2
100
AcDbLine
 10
1026.407586
 20
-671.2522629999998
 30
0.0
 11
987.4075860000001
 21
-671.2522629999998
 31
0.0
  0
LINE
  5
F1E0
330
F0D6
100
AcDbEntity
  8
DIM1-1
 62
     0
370
    -2
100
AcDbLine
 10
991.4075859999996
 20
-535.252263
 30
0.0
 11
991.4075859999996
 21
-659.2522629999998
 31
0.0
  0
INSERT
  5
F1E1
330
F0D6
100
AcDbEntity
  8
DIM1-1
 62
     0
370
    -2
100
AcDbBlockReference
  2
_OPEN
 10
991.4075859999996
 20
-523.252263
 30
0.0
 41
12.0
 42
12.0
 43
12.0
 50
90.0
  0
INSERT
  5
F1E2
330
F0D6
100
AcDbEntity
  8
DIM1-1
 62
     0
370
    -2
100
AcDbBlockReference
  2
_OPEN
 10
991.4075859999996
 20
-671.2522629999998
 30
0.0
 41
12.0
 42
12.0
 43
12.0
 50
270.0
  0
MTEXT
  5
F1E3
330
F0D6
100
AcDbEntity
  8
DIM1-1
 62
     0
100
AcDbMText
 10
977.6552050000001
 20
-597.2522629999998
 30
0.0
 40
12.8
 41
0.0
 71
     5
 72
     1
  1
\A1;(%%c148)
  7
DIMFONT
 11
0.0
 21
1.0
 31
0.0
 73
     1
 44
1.0
  0
POINT
  5
F1E4
330
F0D6
100
AcDbEntity
  8
DEFPOINTS
 62
     0
100
AcDbPoint
 10
1026.407586
 20
-523.252263
 30
0.0
  0
POINT
  5
F1E5
330
F0D6
100
AcDbEntity
  8
DEFPOINTS
 62
     0
100
AcDbPoint
 10
1026.407586
 20
-671.2522629999998
 30
0.0
  0
POINT
  5
F1E6
330
F0D6
100
AcDbEntity
  8
DEFPOINTS
 62
     0
100
AcDbPoint
 10
991.4075859999996
 20
-671.2522629999998
 30
0.0
  0
ENDBLK
  5
F0E1
330
F0D6
100
AcDbEntity
  8
0
100
AcDbBlockEnd
  0
BLOCK
  5
F10B
330
F101
100
AcDbEntity
  8
0
100
AcDbBlockBegin
  2
*D19
 70
     1
 10
0.0
 20
0.0
 30
0.0
  3
*D19
  1

  0
LINE
  5
F23C
330
F101
100
AcDbEntity
  8
DIM1-1
 62
     0
370
    -2
100
AcDbLine
 10
1715.907586
 20
176.247737
 30
0.0
 11
1829.407586
 21
176.247737
 31
0.0
  0
LINE
  5
F23D
330
F101
100
AcDbEntity
  8
DIM1-1
 62
     0
370
    -2
100
AcDbLine
 10
1715.907586
 20
-170.7522629999999
 30
0.0
 11
1829.407586
 21
-170.7522629999999
 31
0.0
  0
LINE
  5
F23E
330
F101
100
AcDbEntity
  8
DIM1-1
 62
     0
370
    -2
100
AcDbLine
 10
1825.407586
 20
164.2477369999999
 30
0.0
 11
1825.407586
 21
-158.752263
 31
0.0
  0
INSERT
  5
F23F
330
F101
100
AcDbEntity
  8
DIM1-1
 62
     0
370
    -2
100
AcDbBlockReference
  2
_OPEN
 10
1825.407586
 20
176.247737
 30
0.0
 41
12.0
 42
12.0
 43
12.0
 50
90.0
  0
INSERT
  5
F240
330
F101
100
AcDbEntity
  8
DIM1-1
 62
     0
370
    -2
100
AcDbBlockReference
  2
_OPEN
 10
1825.407586
 20
-170.7522629999999
 30
0.0
 41
12.0
 42
12.0
 43
12.0
 50
270.0
  0
MTEXT
  5
F241
330
F101
100
AcDbEntity
  8
DIM1-1
 62
     0
100
AcDbMText
 10
1815.007586
 20
2.747736999999998
 30
0.0
 40
12.8
 41
0.0
 71
     5
 72
     1
  1
\A1;取付寸法347
  7
DIMFONT
 11
0.0
 21
1.0
 31
0.0
 73
     1
 44
1.0
  0
POINT
  5
F242
330
F101
100
AcDbEntity
  8
DEFPOINTS
 62
     0
100
AcDbPoint
 10
1715.907586
 20
176.247737
 30
0.0
  0
POINT
  5
F243
330
F101
100
AcDbEntity
  8
DEFPOINTS
 62
     0
100
AcDbPoint
 10
1715.907586
 20
-170.7522629999999
 30
0.0
  0
POINT
  5
F244
330
F101
100
AcDbEntity
  8
DEFPOINTS
 62
     0
100
AcDbPoint
 10
1825.407586
 20
-170.7522629999999
 30
0.0
  0
ENDBLK
  5
F10C
330
F101
100
AcDbEntity
  8
0
100
AcDbBlockEnd
  0
BLOCK
  5
F117
330
F10D
100
AcDbEntity
  8
0
100
AcDbBlockBegin
  2
*D20
 70
     1
 10
0.0
 20
0.0
 30
0.0
  3
*D20
  1

  0
LINE
  5
F245
330
F10D
100
AcDbEntity
  8
DIM1-1
 62
     0
370
    -2
100
AcDbLine
 10
1725.907585999999
 20
-195.7522629999999
 30
0.0
 11
1869.407586
 21
-195.7522629999999
 31
0.0
  0
LINE
  5
F246
330
F10D
100
AcDbEntity
  8
DIM1-1
 62
     0
370
    -2
100
AcDbLine
 10
1725.907585999999
 20
201.247737
 30
0.0
 11
1869.407586
 21
201.247737
 31
0.0
  0
LINE
  5
F247
330
F10D
100
AcDbEntity
  8
DIM1-1
 62
     0
370
    -2
100
AcDbLine
 10
1865.407586
 20
-183.752263
 30
0.0
 11
1865.407586
 21
189.2477369999999
 31
0.0
  0
INSERT
  5
F248
330
F10D
100
AcDbEntity
  8
DIM1-1
 62
     0
370
    -2
100
AcDbBlockReference
  2
_OPEN
 10
1865.407586
 20
-195.7522629999999
 30
0.0
 41
12.0
 42
12.0
 43
12.0
 50
270.0
  0
INSERT
  5
F249
330
F10D
100
AcDbEntity
  8
DIM1-1
 62
     0
370
    -2
100
AcDbBlockReference
  2
_OPEN
 10
1865.407586
 20
201.247737
 30
0.0
 41
12.0
 42
12.0
 43
12.0
 50
90.0
  0
MTEXT
  5
F24A
330
F10D
100
AcDbEntity
  8
DIM1-1
 62
     0
100
AcDbMText
 10
1851.655205
 20
2.747736999999998
 30
0.0
 40
12.8
 41
0.0
 71
     5
 72
     1
  1
\A1;(397)
  7
DIMFONT
 11
0.0
 21
1.0
 31
0.0
 73
     1
 44
1.0
  0
POINT
  5
F24B
330
F10D
100
AcDbEntity
  8
DEFPOINTS
 62
     0
100
AcDbPoint
 10
1725.907585999999
 20
-195.7522629999999
 30
0.0
  0
POINT
  5
F24C
330
F10D
100
AcDbEntity
  8
DEFPOINTS
 62
     0
100
AcDbPoint
 10
1725.907585999999
 20
201.247737
 30
0.0
  0
POINT
  5
F24D
330
F10D
100
AcDbEntity
  8
DEFPOINTS
 62
     0
100
AcDbPoint
 10
1865.407586
 20
201.247737
 30
0.0
  0
ENDBLK
  5
F118
330
F10D
100
AcDbEntity
  8
0
100
AcDbBlockEnd
  0
BLOCK
  5
F187
330
F17D
100
AcDbEntity
  8
0
100
AcDbBlockBegin
  2
*D21
 70
     1
 10
0.0
 20
0.0
 30
0.0
  3
*D21
  1

  0
LINE
  5
F22A
330
F17D
100
AcDbEntity
  8
DIM1-1
 62
     0
370
    -2
100
AcDbLine
 10
1100.907586
 20
185.247737
 30
0.0
 11
1100.907586
 21
255.247737
 31
0.0
  0
LINE
  5
F22B
330
F17D
100
AcDbEntity
  8
DIM1-1
 62
     0
370
    -2
100
AcDbLine
 10
1700.907586
 20
185.247737
 30
0.0
 11
1700.907586
 21
255.247737
 31
0.0
  0
LINE
  5
F22C
330
F17D
100
AcDbEntity
  8
DIM1-1
 62
     0
370
    -2
100
AcDbLine
 10
1112.907586
 20
251.247737
 30
0.0
 11
1688.907586
 21
251.247737
 31
0.0
  0
INSERT
  5
F22D
330
F17D
100
AcDbEntity
  8
DIM1-1
 62
     0
370
    -2
100
AcDbBlockReference
  2
_OPEN
 10
1100.907586
 20
251.247737
 30
0.0
 41
12.0
 42
12.0
 43
12.0
 50
180.0
  0
INSERT
  5
F22E
330
F17D
100
AcDbEntity
  8
DIM1-1
 62
     0
370
    -2
100
AcDbBlockReference
  2
_OPEN
 10
1700.907586
 20
251.247737
 30
0.0
 41
12.0
 42
12.0
 43
12.0
  0
MTEXT
  5
F22F
330
F17D
100
AcDbEntity
  8
DIM1-1
 62
     0
100
AcDbMText
 10
1400.907586
 20
261.647737
 30
0.0
 40
12.8
 41
0.0
 71
     5
 72
     1
  1
\A1;取付寸法600
  7
DIMFONT
 73
     1
 44
1.0
  0
POINT
  5
F230
330
F17D
100
AcDbEntity
  8
DEFPOINTS
 62
     0
100
AcDbPoint
 10
1100.907586
 20
185.247737
 30
0.0
  0
POINT
  5
F231
330
F17D
100
AcDbEntity
  8
DEFPOINTS
 62
     0
100
AcDbPoint
 10
1700.907586
 20
185.247737
 30
0.0
  0
POINT
  5
F232
330
F17D
100
AcDbEntity
  8
DEFPOINTS
 62
     0
100
AcDbPoint
 10
1700.907586
 20
251.247737
 30
0.0
  0
ENDBLK
  5
F188
330
F17D
100
AcDbEntity
  8
0
100
AcDbBlockEnd
  0
BLOCK
  5
F2C1
330
F2B7
100
AcDbEntity
  8
0
100
AcDbBlockBegin
  2
*D22
 70
     1
 10
0.0
 20
0.0
 30
0.0
  3
*D22
  1

  0
LINE
  5
F2CC
330
F2B7
100
AcDbEntity
  8
DIM1-1
 62
     0
370
    -2
100
AcDbLine
 10
2333.707586
 20
-794.952263
 30
0.0
 11
2333.707586
 21
-849.751638
 31
0.0
  0
LINE
  5
F2CD
330
F2B7
100
AcDbEntity
  8
DIM1-1
 62
     0
370
    -2
100
AcDbLine
 10
1892.263717
 20
-781.352263
 30
0.0
 11
1892.263717
 21
-849.751638
 31
0.0
  0
LINE
  5
F2CE
330
F2B7
100
AcDbEntity
  8
DIM1-1
 62
     0
370
    -2
100
AcDbLine
 10
2321.707586
 20
-845.7516380000001
 30
0.0
 11
1904.263717
 21
-845.7516380000001
 31
0.0
  0
INSERT
  5
F2CF
330
F2B7
100
AcDbEntity
  8
DIM1-1
 62
     0
370
    -2
100
AcDbBlockReference
  2
_OPEN
 10
2333.707586
 20
-845.7516380000001
 30
0.0
 41
12.0
 42
12.0
 43
12.0
  0
INSERT
  5
F2D0
330
F2B7
100
AcDbEntity
  8
DIM1-1
 62
     0
370
    -2
100
AcDbBlockReference
  2
_OPEN
 10
1892.263717
 20
-845.7516380000001
 30
0.0
 41
12.0
 42
12.0
 43
12.0
 50
180.0
  0
MTEXT
  5
F2D1
330
F2B7
100
AcDbEntity
  8
DIM1-1
 62
     0
100
AcDbMText
 10
2112.985651
 20
-831.999257
 30
0.0
 40
12.8
 41
0.0
 71
     5
 72
     1
  1
\A1;(441)
  7
DIMFONT
 73
     1
 44
1.0
  0
POINT
  5
F2D2
330
F2B7
100
AcDbEntity
  8
DEFPOINTS
 62
     0
100
AcDbPoint
 10
2333.707586
 20
-794.952263
 30
0.0
  0
POINT
  5
F2D3
330
F2B7
100
AcDbEntity
  8
DEFPOINTS
 62
     0
100
AcDbPoint
 10
1892.263717
 20
-781.352263
 30
0.0
  0
POINT
  5
F2D4
330
F2B7
100
AcDbEntity
  8
DEFPOINTS
 62
     0
100
AcDbPoint
 10
1892.263717
 20
-845.7516380000001
 30
0.0
  0
ENDBLK
  5
F2C2
330
F2B7
100
AcDbEntity
  8
0
100
AcDbBlockEnd
  0
BLOCK
  5
F2E0
330
F2D6
100
AcDbEntity
  8
0
100
AcDbBlockBegin
  2
*D23
 70
     1
 10
0.0
 20
0.0
 30
0.0
  3
*D23
  1

  0
LINE
  5
F2EB
330
F2D6
100
AcDbEntity
  8
DIM1-1
 62
     0
370
    -2
100
AcDbLine
 10
967.3514519999999
 20
-781.352263
 30
0.0
 11
967.3514519999999
 21
-899.752263
 31
0.0
  0
LINE
  5
F2EC
330
F2D6
100
AcDbEntity
  8
DIM1-1
 62
     0
370
    -2
100
AcDbLine
 10
153.107586
 20
-794.952263
 30
0.0
 11
153.107586
 21
-899.752263
 31
0.0
  0
LINE
  5
F2ED
330
F2D6
100
AcDbEntity
  8
DIM1-1
 62
     0
370
    -2
100
AcDbLine
 10
955.351452
 20
-895.7522630000001
 30
0.0
 11
165.1075859999999
 21
-895.7522630000001
 31
0.0
  0
INSERT
  5
F2EE
330
F2D6
100
AcDbEntity
  8
DIM1-1
 62
     0
370
    -2
100
AcDbBlockReference
  2
_OPEN
 10
967.3514519999999
 20
-895.7522630000001
 30
0.0
 41
12.0
 42
12.0
 43
12.0
  0
INSERT
  5
F2EF
330
F2D6
100
AcDbEntity
  8
DIM1-1
 62
     0
370
    -2
100
AcDbBlockReference
  2
_OPEN
 10
153.107586
 20
-895.7522630000001
 30
0.0
 41
12.0
 42
12.0
 43
12.0
 50
180.0
  0
MTEXT
  5
F2F0
330
F2D6
100
AcDbEntity
  8
DIM1-1
 62
     0
100
AcDbMText
 10
560.2295190000002
 20
-881.999882
 30
0.0
 40
12.8
 41
0.0
 71
     5
 72
     1
  1
\A1;(814)
  7
DIMFONT
 73
     1
 44
1.0
  0
POINT
  5
F2F1
330
F2D6
100
AcDbEntity
  8
DEFPOINTS
 62
     0
100
AcDbPoint
 10
967.3514519999999
 20
-781.352263
 30
0.0
  0
POINT
  5
F2F2
330
F2D6
100
AcDbEntity
  8
DEFPOINTS
 62
     0
100
AcDbPoint
 10
153.107586
 20
-794.952263
 30
0.0
  0
POINT
  5
F2F3
330
F2D6
100
AcDbEntity
  8
DEFPOINTS
 62
     0
100
AcDbPoint
 10
153.107586
 20
-895.7522630000001
 30
0.0
  0
ENDBLK
  5
F2E1
330
F2D6
100
AcDbEntity
  8
0
100
AcDbBlockEnd
  0
ENDSEC
  0
SECTION
  2
ENTITIES
  0
LINE
  5
5312
330
18
100
AcDbEntity
  8
0
100
AcDbLine
 10
1125.907586
 20
-795.7522629999998
 30
0.0
 11
1396.707585999999
 21
-795.7522629999998
 31
0.0
  0
LINE
  5
5315
330
18
100
AcDbEntity
  8
0
100
AcDbLine
 10
1125.907586
 20
-795.7522629999998
 30
0.0
 11
1396.707585999999
 21
-795.7522629999998
 31
0.0
  0
LINE
  5
5318
330
18
100
AcDbEntity
  8
0
100
AcDbLine
 10
1125.907586
 20
201.247737
 30
0.0
 11
1125.907586
 21
-195.7522629999999
 31
0.0
  0
LINE
  5
531C
330
18
100
AcDbEntity
  8
0
100
AcDbLine
 10
1125.907586
 20
-398.7522629999998
 30
0.0
 11
1125.907586
 21
-795.7522629999998
 31
0.0
  0
LINE
  5
531D
330
18
100
AcDbEntity
  8
0
100
AcDbLine
 10
1125.907586
 20
-401.2522629999998
 30
0.0
 11
1125.907586
 21
-795.7522629999998
 31
0.0
  0
LINE
  5
531E
330
18
100
AcDbEntity
  8
0
100
AcDbLine
 10
1127.407586
 20
-401.2522629999998
 30
0.0
 11
1125.907586
 21
-401.2522629999998
 31
0.0
  0
LINE
  5
531F
330
18
100
AcDbEntity
  8
0
100
AcDbLine
 10
1127.407586
 20
-401.2522629999998
 30
0.0
 11
1127.407586
 21
-400.2522629999998
 31
0.0
  0
LINE
  5
5321
330
18
100
AcDbEntity
  8
0
100
AcDbLine
 10
1127.407586
 20
-195.7522629999999
 30
0.0
 11
1125.907586
 21
-195.7522629999999
 31
0.0
  0
LINE
  5
5325
330
18
100
AcDbEntity
  8
0
100
AcDbLine
 10
1127.407586
 20
201.247737
 30
0.0
 11
1125.907586
 21
201.247737
 31
0.0
  0
LINE
  5
5329
330
18
100
AcDbEntity
  8
0
100
AcDbLine
 10
1675.907586
 20
201.247737
 30
0.0
 11
1675.907586
 21
-195.7522629999999
 31
0.0
  0
CIRCLE
  5
532A
330
18
100
AcDbEntity
  8
0
100
AcDbCircle
 10
2133.907585999998
 20
-597.2522629999998
 30
0.0
 40
75.0
  0
LINE
  5
532B
330
18
100
AcDbEntity
  8
0
100
AcDbLine
 10
1935.407586
 20
-795.7522629999998
 30
0.0
 11
2332.407585999999
 21
-795.7522629999998
 31
0.0
  0
LINE
  5
532D
330
18
100
AcDbEntity
  8
0
100
AcDbLine
 10
1935.407586
 20
-398.7522629999998
 30
0.0
 11
2332.407585999999
 21
-398.7522629999998
 31
0.0
  0
LINE
  5
5330
330
18
100
AcDbEntity
  8
0
100
AcDbLine
 10
1935.407586
 20
-795.7522629999998
 30
0.0
 11
1935.407586
 21
-398.7522629999998
 31
0.0
  0
LINE
  5
5333
330
18
100
AcDbEntity
  8
0
100
AcDbLine
 10
1675.907586
 20
-398.7522629999998
 30
0.0
 11
1675.907586
 21
-795.7522629999998
 31
0.0
  0
LINE
  5
5334
330
18
100
AcDbEntity
  8
0
100
AcDbLine
 10
1675.907586
 20
-795.7522629999998
 30
0.0
 11
1675.907586
 21
-401.2522629999998
 31
0.0
  0
LINE
  5
5335
330
18
100
AcDbEntity
  8
0
100
AcDbLine
 10
1675.907586
 20
-398.7522629999998
 30
0.0
 11
1674.407586
 21
-398.7522629999998
 31
0.0
  0
LINE
  5
5336
330
18
100
AcDbEntity
  8
0
100
AcDbLine
 10
1674.407586
 20
-401.2522629999998
 30
0.0
 11
1674.407586
 21
-400.2522629999998
 31
0.0
  0
LINE
  5
5338
330
18
100
AcDbEntity
  8
0
100
AcDbLine
 10
1674.407586
 20
-195.7522629999999
 30
0.0
 11
1675.907586
 21
-195.7522629999999
 31
0.0
  0
LINE
  5
533D
330
18
100
AcDbEntity
  8
0
100
AcDbLine
 10
2332.407585999999
 20
-795.7522629999998
 30
0.0
 11
2332.407585999999
 21
-398.7522629999998
 31
0.0
  0
LINE
  5
5340
330
18
100
AcDbEntity
  8
0
100
AcDbLine
 10
1674.407586
 20
201.247737
 30
0.0
 11
1675.907586
 21
201.247737
 31
0.0
  0
LINE
  5
5352
330
18
100
AcDbEntity
  8
0
100
AcDbLine
 10
1675.907586
 20
102.7477369999999
 30
0.0
 11
1675.907586
 21
-97.252263
 31
0.0
  0
LINE
  5
5353
330
18
100
AcDbEntity
  8
0
100
AcDbLine
 10
1676.407586
 20
102.7477369999999
 30
0.0
 11
1676.407586
 21
-97.252263
 31
0.0
  0
LINE
  5
5354
330
18
100
AcDbEntity
  8
0
100
AcDbLine
 10
1676.407586
 20
-71.252263
 30
0.0
 11
1676.407586
 21
-97.252263
 31
0.0
  0
LINE
  5
5355
330
18
100
AcDbEntity
  8
0
100
AcDbLine
 10
1675.907586
 20
-71.252263
 30
0.0
 11
1675.907586
 21
-97.252263
 31
0.0
  0
LINE
  5
5356
330
18
100
AcDbEntity
  8
0
100
AcDbLine
 10
1675.907586
 20
-97.252263
 30
0.0
 11
1676.407586
 21
-97.252263
 31
0.0
  0
LINE
  5
5357
330
18
100
AcDbEntity
  8
0
100
AcDbLine
 10
1675.907586
 20
102.7477369999999
 30
0.0
 11
1675.907586
 21
76.747737
 31
0.0
  0
LINE
  5
5358
330
18
100
AcDbEntity
  8
0
100
AcDbLine
 10
1676.407586
 20
102.7477369999999
 30
0.0
 11
1676.407586
 21
76.747737
 31
0.0
  0
LINE
  5
5359
330
18
100
AcDbEntity
  8
0
100
AcDbLine
 10
1675.907586
 20
102.7477369999999
 30
0.0
 11
1676.407586
 21
102.7477369999999
 31
0.0
  0
LINE
  5
535A
330
18
100
AcDbEntity
  8
0
100
AcDbLine
 10
1676.407586
 20
76.747737
 30
0.0
 11
1775.407586
 21
76.747737
 31
0.0
  0
LINE
  5
535B
330
18
100
AcDbEntity
  8
0
100
AcDbLine
 10
1676.407586
 20
-71.252263
 30
0.0
 11
1775.407586
 21
-71.252263
 31
0.0
  0
LINE
  5
535C
330
18
100
AcDbEntity
  8
0
100
AcDbLine
 10
1676.407586
 20
76.747737
 30
0.0
 11
1676.407586
 21
-71.252263
 31
0.0
  0
LINE
  5
535D
330
18
100
AcDbEntity
  8
0
100
AcDbLine
 10
1775.407586
 20
76.747737
 30
0.0
 11
1775.407586
 21
-71.252263
 31
0.0
  0
CIRCLE
  5
535E
330
18
100
AcDbEntity
  8
0
100
AcDbCircle
 10
2133.907585999998
 20
-597.2522629999998
 30
0.0
 40
72.5
  0
CIRCLE
  5
535F
330
18
100
AcDbEntity
  8
0
100
AcDbCircle
 10
2133.907585999998
 20
-597.2522629999998
 30
0.0
 40
73.0
  0
CIRCLE
  5
5360
330
18
100
AcDbEntity
  8
0
100
AcDbCircle
 10
2133.907585999998
 20
-597.2522629999998
 30
0.0
 40
73.5
  0
CIRCLE
  5
5361
330
18
100
AcDbEntity
  8
0
100
AcDbCircle
 10
2133.907585999998
 20
-597.2522629999998
 30
0.0
 40
74.0
  0
CIRCLE
  5
5362
330
18
100
AcDbEntity
  8
0
100
AcDbCircle
 10
2133.907585999998
 20
-597.2522629999998
 30
0.0
 40
100.0
  0
LINE
  5
5363
330
18
100
AcDbEntity
  8
0
100
AcDbLine
 10
1125.407586
 20
-71.252263
 30
0.0
 11
1026.407586
 21
-71.252263
 31
0.0
  0
LINE
  5
5364
330
18
100
AcDbEntity
  8
0
100
AcDbLine
 10
1125.407586
 20
76.747737
 30
0.0
 11
1026.407586
 21
76.747737
 31
0.0
  0
LINE
  5
5365
330
18
100
AcDbEntity
  8
0
100
AcDbLine
 10
1125.407586
 20
76.747737
 30
0.0
 11
1125.407586
 21
-71.252263
 31
0.0
  0
LINE
  5
5366
330
18
100
AcDbEntity
  8
0
100
AcDbLine
 10
1125.407586
 20
102.7477369999999
 30
0.0
 11
1125.407586
 21
-97.252263
 31
0.0
  0
LINE
  5
5367
330
18
100
AcDbEntity
  8
0
100
AcDbLine
 10
1125.907586
 20
102.7477369999999
 30
0.0
 11
1125.907586
 21
-97.252263
 31
0.0
  0
LINE
  5
5368
330
18
100
AcDbEntity
  8
0
100
AcDbLine
 10
1125.907586
 20
-97.252263
 30
0.0
 11
1125.407586
 21
-97.252263
 31
0.0
  0
LINE
  5
5369
330
18
100
AcDbEntity
  8
0
100
AcDbLine
 10
1125.907586
 20
-71.252263
 30
0.0
 11
1125.907586
 21
-97.252263
 31
0.0
  0
LINE
  5
536A
330
18
100
AcDbEntity
  8
0
100
AcDbLine
 10
1125.407586
 20
-71.252263
 30
0.0
 11
1125.407586
 21
-97.252263
 31
0.0
  0
LINE
  5
536B
330
18
100
AcDbEntity
  8
0
100
AcDbLine
 10
1125.907586
 20
102.7477369999999
 30
0.0
 11
1125.407586
 21
102.7477369999999
 31
0.0
  0
LINE
  5
536C
330
18
100
AcDbEntity
  8
0
100
AcDbLine
 10
1125.407586
 20
102.7477369999999
 30
0.0
 11
1125.407586
 21
76.747737
 31
0.0
  0
LINE
  5
536D
330
18
100
AcDbEntity
  8
0
100
AcDbLine
 10
1125.907586
 20
102.7477369999999
 30
0.0
 11
1125.907586
 21
76.747737
 31
0.0
  0
LINE
  5
536E
330
18
100
AcDbEntity
  8
0
100
AcDbLine
 10
1026.407586
 20
76.747737
 30
0.0
 11
1026.407586
 21
-71.252263
 31
0.0
  0
LINE
  5
536F
330
18
100
AcDbEntity
  8
0
100
AcDbLine
 10
1676.407586
 20
-671.2522629999998
 30
0.0
 11
1775.407586
 21
-671.2522629999998
 31
0.0
  0
LINE
  5
5370
330
18
100
AcDbEntity
  8
0
100
AcDbLine
 10
1676.407586
 20
-523.252263
 30
0.0
 11
1775.407586
 21
-523.252263
 31
0.0
  0
LINE
  5
5371
330
18
100
AcDbEntity
  8
0
100
AcDbLine
 10
1676.407586
 20
-523.252263
 30
0.0
 11
1676.407586
 21
-671.2522629999998
 31
0.0
  0
LINE
  5
5372
330
18
100
AcDbEntity
  8
0
100
AcDbLine
 10
1676.407586
 20
-497.2522629999998
 30
0.0
 11
1676.407586
 21
-697.252263
 31
0.0
  0
LINE
  5
5373
330
18
100
AcDbEntity
  8
0
100
AcDbLine
 10
1675.907586
 20
-497.2522629999998
 30
0.0
 11
1675.907586
 21
-697.252263
 31
0.0
  0
LINE
  5
5374
330
18
100
AcDbEntity
  8
0
100
AcDbLine
 10
1675.907586
 20
-697.252263
 30
0.0
 11
1676.407586
 21
-697.252263
 31
0.0
  0
LINE
  5
5375
330
18
100
AcDbEntity
  8
0
100
AcDbLine
 10
1675.907586
 20
-671.2522629999998
 30
0.0
 11
1675.907586
 21
-697.252263
 31
0.0
  0
LINE
  5
5376
330
18
100
AcDbEntity
  8
0
100
AcDbLine
 10
1676.407586
 20
-671.2522629999998
 30
0.0
 11
1676.407586
 21
-697.252263
 31
0.0
  0
LINE
  5
5377
330
18
100
AcDbEntity
  8
0
100
AcDbLine
 10
1675.907586
 20
-497.2522629999998
 30
0.0
 11
1676.407586
 21
-497.2522629999998
 31
0.0
  0
LINE
  5
5378
330
18
100
AcDbEntity
  8
0
100
AcDbLine
 10
1676.407586
 20
-497.2522629999998
 30
0.0
 11
1676.407586
 21
-523.252263
 31
0.0
  0
LINE
  5
5379
330
18
100
AcDbEntity
  8
0
100
AcDbLine
 10
1675.907586
 20
-497.2522629999998
 30
0.0
 11
1675.907586
 21
-523.252263
 31
0.0
  0
LINE
  5
537A
330
18
100
AcDbEntity
  8
0
100
AcDbLine
 10
1775.407586
 20
-523.252263
 30
0.0
 11
1775.407586
 21
-671.2522629999998
 31
0.0
  0
LINE
  5
537B
330
18
100
AcDbEntity
  8
0
100
AcDbLine
 10
1026.407586
 20
-523.252263
 30
0.0
 11
1026.407586
 21
-671.2522629999998
 31
0.0
  0
LINE
  5
537C
330
18
100
AcDbEntity
  8
0
100
AcDbLine
 10
1125.907586
 20
-497.2522629999998
 30
0.0
 11
1125.907586
 21
-697.252263
 31
0.0
  0
LINE
  5
537D
330
18
100
AcDbEntity
  8
0
100
AcDbLine
 10
1125.407586
 20
-497.2522629999998
 30
0.0
 11
1125.407586
 21
-697.252263
 31
0.0
  0
LINE
  5
537E
330
18
100
AcDbEntity
  8
0
100
AcDbLine
 10
1125.407586
 20
-523.252263
 30
0.0
 11
1125.407586
 21
-671.2522629999998
 31
0.0
  0
LINE
  5
537F
330
18
100
AcDbEntity
  8
0
100
AcDbLine
 10
1125.407586
 20
-671.2522629999998
 30
0.0
 11
1026.407586
 21
-671.2522629999998
 31
0.0
  0
LINE
  5
5380
330
18
100
AcDbEntity
  8
0
100
AcDbLine
 10
1125.407586
 20
-671.2522629999998
 30
0.0
 11
1125.407586
 21
-697.252263
 31
0.0
  0
LINE
  5
5381
330
18
100
AcDbEntity
  8
0
100
AcDbLine
 10
1125.907586
 20
-671.2522629999998
 30
0.0
 11
1125.907586
 21
-697.252263
 31
0.0
  0
LINE
  5
5382
330
18
100
AcDbEntity
  8
0
100
AcDbLine
 10
1125.907586
 20
-697.252263
 30
0.0
 11
1125.407586
 21
-697.252263
 31
0.0
  0
LINE
  5
5383
330
18
100
AcDbEntity
  8
0
100
AcDbLine
 10
1125.407586
 20
-523.252263
 30
0.0
 11
1026.407586
 21
-523.252263
 31
0.0
  0
LINE
  5
5384
330
18
100
AcDbEntity
  8
0
100
AcDbLine
 10
1125.907586
 20
-497.2522629999998
 30
0.0
 11
1125.907586
 21
-523.252263
 31
0.0
  0
LINE
  5
5385
330
18
100
AcDbEntity
  8
0
100
AcDbLine
 10
1125.407586
 20
-497.2522629999998
 30
0.0
 11
1125.407586
 21
-523.252263
 31
0.0
  0
LINE
  5
5386
330
18
100
AcDbEntity
  8
0
100
AcDbLine
 10
1125.907586
 20
-497.2522629999998
 30
0.0
 11
1125.407586
 21
-497.2522629999998
 31
0.0
  0
LINE
  5
53B4
330
18
100
AcDbEntity
  8
0
100
AcDbLine
 10
1935.307586
 20
-398.7522629999998
 30
0.0
 11
2332.507585999999
 21
-398.7522629999998
 31
0.0
  0
LINE
  5
53B5
330
18
100
AcDbEntity
  8
0
100
AcDbLine
 10
1935.307586
 20
-397.952263
 30
0.0
 11
2332.507585999999
 21
-397.952263
 31
0.0
  0
LINE
  5
53B6
330
18
100
AcDbEntity
  8
0
100
AcDbLine
 10
1934.907585999999
 20
-399.152263
 30
0.0
 11
1934.907585999999
 21
-794.952263
 31
0.0
  0
LINE
  5
53B7
330
18
100
AcDbEntity
  8
0
100
AcDbLine
 10
1934.107586
 20
-399.152263
 30
0.0
 11
1934.107586
 21
-794.952263
 31
0.0
  0
LINE
  5
53B8
330
18
100
AcDbEntity
  8
0
100
AcDbLine
 10
1934.107586
 20
-794.952263
 30
0.0
 11
1934.907585999999
 21
-794.952263
 31
0.0
  0
ARC
  5
53B9
330
18
100
AcDbEntity
  8
0
100
AcDbCircle
 10
1935.307586
 20
-399.152263
 30
0.0
 40
0.4
100
AcDbArc
 50
90.0
 51
180.0
  0
ARC
  5
53BA
330
18
100
AcDbEntity
  8
0
100
AcDbCircle
 10
1935.307586
 20
-399.152263
 30
0.0
 40
1.199999999999999
100
AcDbArc
 50
90.0
 51
180.0
  0
LINE
  5
53BB
330
18
100
AcDbEntity
  8
0
100
AcDbLine
 10
2332.907586
 20
-399.152263
 30
0.0
 11
2332.907586
 21
-794.952263
 31
0.0
  0
LINE
  5
53BC
330
18
100
AcDbEntity
  8
0
100
AcDbLine
 10
2333.707586
 20
-399.152263
 30
0.0
 11
2333.707586
 21
-794.952263
 31
0.0
  0
LINE
  5
53BD
330
18
100
AcDbEntity
  8
0
100
AcDbLine
 10
2332.907586
 20
-794.952263
 30
0.0
 11
2333.707586
 21
-794.952263
 31
0.0
  0
ARC
  5
53BE
330
18
100
AcDbEntity
  8
0
100
AcDbCircle
 10
2332.507585999999
 20
-399.152263
 30
0.0
 40
1.199999999999999
100
AcDbArc
 50
0.0
 51
90.0
  0
ARC
  5
53BF
330
18
100
AcDbEntity
  8
0
100
AcDbCircle
 10
2332.507585999999
 20
-399.152263
 30
0.0
 40
0.4
100
AcDbArc
 50
0.0
 51
90.0
  0
LINE
  5
53C0
330
18
100
AcDbEntity
  8
0
100
AcDbLine
 10
1674.407586
 20
-397.952263
 30
0.0
 11
1127.407586
 21
-397.952263
 31
0.0
  0
LINE
  5
53C2
330
18
100
AcDbEntity
  8
0
100
AcDbLine
 10
1674.407586
 20
-794.952263
 30
0.0
 11
1407.235303
 21
-794.952263
 31
0.0
  0
LINE
  5
53C5
330
18
100
AcDbEntity
  8
0
100
AcDbLine
 10
1127.407586
 20
-397.952263
 30
0.0
 11
1127.407586
 21
-794.952263
 31
0.0
  0
LINE
  5
53D3
330
18
100
AcDbEntity
  8
0
100
AcDbLine
 10
1674.407586
 20
-397.952263
 30
0.0
 11
1674.407586
 21
-794.952263
 31
0.0
  0
CIRCLE
  5
53EB
330
18
100
AcDbEntity
  8
0
100
AcDbCircle
 10
1135.907586
 20
-597.2522629999998
 30
0.0
 40
4.75
  0
CIRCLE
  5
53ED
330
18
100
AcDbEntity
  8
0
100
AcDbCircle
 10
1135.907586
 20
-597.2522629999998
 30
0.0
 40
1.5
  0
CIRCLE
  5
53EF
330
18
100
AcDbEntity
  8
0
100
AcDbCircle
 10
1135.907586
 20
-770.7522629999998
 30
0.0
 40
4.75
  0
CIRCLE
  5
53F1
330
18
100
AcDbEntity
  8
0
100
AcDbCircle
 10
1135.907586
 20
-770.7522629999998
 30
0.0
 40
1.5
  0
CIRCLE
  5
53F3
330
18
100
AcDbEntity
  8
0
100
AcDbCircle
 10
1150.907586
 20
-785.752263
 30
0.0
 40
4.75
  0
CIRCLE
  5
53F5
330
18
100
AcDbEntity
  8
0
100
AcDbCircle
 10
1150.907586
 20
-785.752263
 30
0.0
 40
1.5
  0
CIRCLE
  5
53F7
330
18
100
AcDbEntity
  8
0
100
AcDbCircle
 10
1263.907586
 20
-785.752263
 30
0.0
 40
4.75
  0
CIRCLE
  5
53F9
330
18
100
AcDbEntity
  8
0
100
AcDbCircle
 10
1263.907586
 20
-785.752263
 30
0.0
 40
1.5
  0
CIRCLE
  5
5402
330
18
100
AcDbEntity
  8
0
100
AcDbCircle
 10
1665.907586
 20
-597.2522629999998
 30
0.0
 40
1.5
  0
CIRCLE
  5
5404
330
18
100
AcDbEntity
  8
0
100
AcDbCircle
 10
1665.907586
 20
-597.2522629999998
 30
0.0
 40
4.75
  0
CIRCLE
  5
5405
330
18
100
AcDbEntity
  8
0
100
AcDbCircle
 10
1665.907586
 20
-770.7522629999998
 30
0.0
 40
1.5
  0
CIRCLE
  5
5407
330
18
100
AcDbEntity
  8
0
100
AcDbCircle
 10
1665.907586
 20
-770.7522629999998
 30
0.0
 40
4.75
  0
CIRCLE
  5
5409
330
18
100
AcDbEntity
  8
0
100
AcDbCircle
 10
1650.907585999999
 20
-785.752263
 30
0.0
 40
4.75
  0
CIRCLE
  5
540B
330
18
100
AcDbEntity
  8
0
100
AcDbCircle
 10
1650.907585999999
 20
-785.752263
 30
0.0
 40
1.5
  0
CIRCLE
  5
540D
330
18
100
AcDbEntity
  8
0
100
AcDbCircle
 10
1537.907586
 20
-785.752263
 30
0.0
 40
1.5
  0
CIRCLE
  5
540F
330
18
100
AcDbEntity
  8
0
100
AcDbCircle
 10
1537.907586
 20
-785.752263
 30
0.0
 40
4.75
  0
LINE
  5
542F
330
18
100
AcDbEntity
  8
0
100
AcDbLine
 10
1674.407586
 20
202.5477369999999
 30
0.0
 11
1674.407586
 21
-197.0522629999999
 31
0.0
  0
LINE
  5
5430
330
18
100
AcDbEntity
  8
0
100
AcDbLine
 10
1127.407586
 20
202.5477369999999
 30
0.0
 11
1127.407586
 21
-197.0522629999999
 31
0.0
  0
LINE
  5
5432
330
18
100
AcDbEntity
  8
0
100
AcDbLine
 10
1674.407586
 20
-197.0522629999999
 30
0.0
 11
1127.407586
 21
-197.0522629999999
 31
0.0
  0
LINE
  5
5434
330
18
100
AcDbEntity
  8
0
100
AcDbLine
 10
1674.407586
 20
202.5477369999999
 30
0.0
 11
1127.407586
 21
202.5477369999999
 31
0.0
  0
CIRCLE
  5
5435
330
18
100
AcDbEntity
  8
0
100
AcDbCircle
 10
1140.907585999998
 20
176.247737
 30
0.0
 40
1.5
  0
CIRCLE
  5
5437
330
18
100
AcDbEntity
  8
0
100
AcDbCircle
 10
1140.907585999998
 20
176.247737
 30
0.0
 40
4.75
  0
CIRCLE
  5
543A
330
18
100
AcDbEntity
  8
0
100
AcDbCircle
 10
1140.907585999998
 20
60.64773699999999
 30
0.0
 40
1.5
  0
CIRCLE
  5
543C
330
18
100
AcDbEntity
  8
0
100
AcDbCircle
 10
1140.907585999998
 20
60.64773699999999
 30
0.0
 40
4.75
  0
CIRCLE
  5
543F
330
18
100
AcDbEntity
  8
0
100
AcDbCircle
 10
1140.907585999998
 20
-55.152263
 30
0.0
 40
1.5
  0
CIRCLE
  5
5441
330
18
100
AcDbEntity
  8
0
100
AcDbCircle
 10
1140.907585999998
 20
-55.152263
 30
0.0
 40
4.75
  0
CIRCLE
  5
5444
330
18
100
AcDbEntity
  8
0
100
AcDbCircle
 10
1140.907585999998
 20
-170.7522629999999
 30
0.0
 40
1.5
  0
CIRCLE
  5
5446
330
18
100
AcDbEntity
  8
0
100
AcDbCircle
 10
1140.907585999998
 20
-170.7522629999999
 30
0.0
 40
4.75
  0
CIRCLE
  5
544B
330
18
100
AcDbEntity
  8
0
100
AcDbCircle
 10
1660.907586
 20
176.247737
 30
0.0
 40
4.75
  0
CIRCLE
  5
544D
330
18
100
AcDbEntity
  8
0
100
AcDbCircle
 10
1660.907586
 20
176.247737
 30
0.0
 40
1.5
  0
CIRCLE
  5
5450
330
18
100
AcDbEntity
  8
0
100
AcDbCircle
 10
1660.907586
 20
60.64773699999999
 30
0.0
 40
4.75
  0
CIRCLE
  5
5452
330
18
100
AcDbEntity
  8
0
100
AcDbCircle
 10
1660.907586
 20
60.64773699999999
 30
0.0
 40
1.5
  0
CIRCLE
  5
5456
330
18
100
AcDbEntity
  8
0
100
AcDbCircle
 10
1660.907586
 20
-55.152263
 30
0.0
 40
4.75
  0
CIRCLE
  5
5457
330
18
100
AcDbEntity
  8
0
100
AcDbCircle
 10
1660.907586
 20
-55.152263
 30
0.0
 40
1.5
  0
CIRCLE
  5
5459
330
18
100
AcDbEntity
  8
0
100
AcDbCircle
 10
1660.907586
 20
-170.7522629999999
 30
0.0
 40
4.75
  0
CIRCLE
  5
545C
330
18
100
AcDbEntity
  8
0
100
AcDbCircle
 10
1660.907586
 20
-170.7522629999999
 30
0.0
 40
1.5
  0
CIRCLE
  5
545F
330
18
100
AcDbEntity
  8
0
100
AcDbCircle
 10
1375.407586
 20
176.247737
 30
0.0
 40
4.75
  0
CIRCLE
  5
5461
330
18
100
AcDbEntity
  8
0
100
AcDbCircle
 10
1375.407586
 20
176.247737
 30
0.0
 40
1.5
  0
CIRCLE
  5
5464
330
18
100
AcDbEntity
  8
0
100
AcDbCircle
 10
1426.407586
 20
176.247737
 30
0.0
 40
4.75
  0
CIRCLE
  5
5466
330
18
100
AcDbEntity
  8
0
100
AcDbCircle
 10
1426.407586
 20
176.247737
 30
0.0
 40
1.5
  0
CIRCLE
  5
5469
330
18
100
AcDbEntity
  8
0
100
AcDbCircle
 10
1426.407586
 20
2.747736999999998
 30
0.0
 40
4.75
  0
CIRCLE
  5
546B
330
18
100
AcDbEntity
  8
0
100
AcDbCircle
 10
1426.407586
 20
2.747736999999998
 30
0.0
 40
1.5
  0
CIRCLE
  5
546E
330
18
100
AcDbEntity
  8
0
100
AcDbCircle
 10
1375.407586
 20
2.747736999999998
 30
0.0
 40
4.75
  0
CIRCLE
  5
5470
330
18
100
AcDbEntity
  8
0
100
AcDbCircle
 10
1375.407586
 20
2.747736999999998
 30
0.0
 40
1.5
  0
CIRCLE
  5
5473
330
18
100
AcDbEntity
  8
0
100
AcDbCircle
 10
1375.407586
 20
-170.7522629999999
 30
0.0
 40
4.75
  0
CIRCLE
  5
5475
330
18
100
AcDbEntity
  8
0
100
AcDbCircle
 10
1375.407586
 20
-170.7522629999999
 30
0.0
 40
1.5
  0
CIRCLE
  5
5478
330
18
100
AcDbEntity
  8
0
100
AcDbCircle
 10
1426.407586
 20
-170.7522629999999
 30
0.0
 40
4.75
  0
CIRCLE
  5
547A
330
18
100
AcDbEntity
  8
0
100
AcDbCircle
 10
1426.407586
 20
-170.7522629999999
 30
0.0
 40
1.5
  0
LINE
  5
547B
330
18
100
AcDbEntity
  8
0
100
AcDbLine
 10
1127.407586
 20
-398.7522629999998
 30
0.0
 11
1125.907586
 21
-398.7522629999998
 31
0.0
  0
CIRCLE
  5
547D
330
18
100
AcDbEntity
  8
0
100
AcDbCircle
 10
1972.907586
 20
-411.2522629999999
 30
0.0
 40
1.5
  0
CIRCLE
  5
547E
330
18
100
AcDbEntity
  8
0
100
AcDbCircle
 10
1972.907586
 20
-411.2522629999999
 30
0.0
 40
4.75
  0
CIRCLE
  5
5481
330
18
100
AcDbEntity
  8
0
100
AcDbCircle
 10
1960.407586
 20
-436.2522629999999
 30
0.0
 40
1.5
  0
CIRCLE
  5
5482
330
18
100
AcDbEntity
  8
0
100
AcDbCircle
 10
1960.407586
 20
-436.2522629999999
 30
0.0
 40
4.75
  0
CIRCLE
  5
5485
330
18
100
AcDbEntity
  8
0
100
AcDbCircle
 10
1947.907586
 20
-411.2522629999999
 30
0.0
 40
1.5
  0
CIRCLE
  5
5486
330
18
100
AcDbEntity
  8
0
100
AcDbCircle
 10
1947.907586
 20
-411.2522629999999
 30
0.0
 40
4.75
  0
CIRCLE
  5
5489
330
18
100
AcDbEntity
  8
0
100
AcDbCircle
 10
2294.907585999999
 20
-411.2522629999999
 30
0.0
 40
1.5
  0
CIRCLE
  5
548A
330
18
100
AcDbEntity
  8
0
100
AcDbCircle
 10
2294.907585999999
 20
-411.2522629999999
 30
0.0
 40
4.75
  0
CIRCLE
  5
548D
330
18
100
AcDbEntity
  8
0
100
AcDbCircle
 10
2307.407585999999
 20
-436.2522629999999
 30
0.0
 40
1.5
  0
CIRCLE
  5
548E
330
18
100
AcDbEntity
  8
0
100
AcDbCircle
 10
2307.407585999999
 20
-436.2522629999999
 30
0.0
 40
4.75
  0
CIRCLE
  5
5491
330
18
100
AcDbEntity
  8
0
100
AcDbCircle
 10
2319.907585999998
 20
-411.2522629999999
 30
0.0
 40
1.5
  0
CIRCLE
  5
5492
330
18
100
AcDbEntity
  8
0
100
AcDbCircle
 10
2319.907585999998
 20
-411.2522629999999
 30
0.0
 40
4.75
  0
ARC
  5
5494
330
18
100
AcDbEntity
  8
0
100
AcDbCircle
 10
1698.907585999999
 20
176.247737
 30
0.0
 40
6.0
100
AcDbArc
 50
90.0
 51
270.0
  0
ARC
  5
5496
330
18
100
AcDbEntity
  8
0
100
AcDbCircle
 10
1702.907586
 20
176.247737
 30
0.0
 40
6.0
100
AcDbArc
 50
270.0
 51
90.0
  0
LINE
  5
5497
330
18
100
AcDbEntity
  8
0
100
AcDbLine
 10
1725.907585999999
 20
151.247737
 30
0.0
 11
1725.907585999999
 21
201.247737
 31
0.0
  0
LINE
  5
5498
330
18
100
AcDbEntity
  8
0
100
AcDbLine
 10
1725.907585999999
 20
151.247737
 30
0.0
 11
1675.907586
 21
151.247737
 31
0.0
  0
LINE
  5
549A
330
18
100
AcDbEntity
  8
0
100
AcDbLine
 10
1702.907586
 20
170.2477369999999
 30
0.0
 11
1698.907585999999
 21
170.2477369999999
 31
0.0
  0
LINE
  5
549B
330
18
100
AcDbEntity
  8
0
100
AcDbLine
 10
1725.907585999999
 20
201.247737
 30
0.0
 11
1675.907586
 21
201.247737
 31
0.0
  0
LINE
  5
549C
330
18
100
AcDbEntity
  8
0
100
AcDbLine
 10
1698.907585999999
 20
182.247737
 30
0.0
 11
1702.907586
 21
182.247737
 31
0.0
  0
LINE
  5
549D
330
18
100
AcDbEntity
  8
0
100
AcDbLine
 10
1725.907585999999
 20
-145.7522629999999
 30
0.0
 11
1675.907586
 21
-145.7522629999999
 31
0.0
  0
LINE
  5
549E
330
18
100
AcDbEntity
  8
0
100
AcDbLine
 10
1725.907585999999
 20
-195.7522629999999
 30
0.0
 11
1675.907586
 21
-195.7522629999999
 31
0.0
  0
LINE
  5
549F
330
18
100
AcDbEntity
  8
0
100
AcDbLine
 10
1725.907585999999
 20
-145.7522629999999
 30
0.0
 11
1725.907585999999
 21
-195.7522629999999
 31
0.0
  0
LINE
  5
54A0
330
18
100
AcDbEntity
  8
0
100
AcDbLine
 10
1698.907585999999
 20
-176.752263
 30
0.0
 11
1702.907586
 21
-176.752263
 31
0.0
  0
LINE
  5
54A1
330
18
100
AcDbEntity
  8
0
100
AcDbLine
 10
1702.907586
 20
-164.752263
 30
0.0
 11
1698.907585999999
 21
-164.752263
 31
0.0
  0
ARC
  5
54A2
330
18
100
AcDbEntity
  8
0
100
AcDbCircle
 10
1698.907585999999
 20
-170.7522629999999
 30
0.0
 40
6.0
100
AcDbArc
 50
90.0
 51
270.0
  0
ARC
  5
54A4
330
18
100
AcDbEntity
  8
0
100
AcDbCircle
 10
1702.907586
 20
-170.7522629999999
 30
0.0
 40
6.0
100
AcDbArc
 50
270.0
 51
90.0
  0
LINE
  5
54A7
330
18
100
AcDbEntity
  8
0
100
AcDbLine
 10
1075.907586
 20
151.247737
 30
0.0
 11
1125.907586
 21
151.247737
 31
0.0
  0
LINE
  5
54A8
330
18
100
AcDbEntity
  8
0
100
AcDbLine
 10
1075.907586
 20
201.247737
 30
0.0
 11
1125.907586
 21
201.247737
 31
0.0
  0
LINE
  5
54A9
330
18
100
AcDbEntity
  8
0
100
AcDbLine
 10
1075.907586
 20
151.247737
 30
0.0
 11
1075.907586
 21
201.247737
 31
0.0
  0
LINE
  5
54AA
330
18
100
AcDbEntity
  8
0
100
AcDbLine
 10
1102.907586
 20
182.247737
 30
0.0
 11
1098.907585999999
 21
182.247737
 31
0.0
  0
LINE
  5
54AB
330
18
100
AcDbEntity
  8
0
100
AcDbLine
 10
1098.907585999999
 20
170.2477369999999
 30
0.0
 11
1102.907586
 21
170.2477369999999
 31
0.0
  0
ARC
  5
54AC
330
18
100
AcDbEntity
  8
0
100
AcDbCircle
 10
1102.907586
 20
176.247737
 30
0.0
 40
6.0
100
AcDbArc
 50
270.0
 51
90.0
  0
ARC
  5
54AE
330
18
100
AcDbEntity
  8
0
100
AcDbCircle
 10
1098.907585999999
 20
176.247737
 30
0.0
 40
6.0
100
AcDbArc
 50
90.0
 51
270.0
  0
LINE
  5
54B0
330
18
100
AcDbEntity
  8
0
100
AcDbLine
 10
1075.907586
 20
-195.7522629999999
 30
0.0
 11
1125.907586
 21
-195.7522629999999
 31
0.0
  0
LINE
  5
54B1
330
18
100
AcDbEntity
  8
0
100
AcDbLine
 10
1075.907586
 20
-145.7522629999999
 30
0.0
 11
1125.907586
 21
-145.7522629999999
 31
0.0
  0
ARC
  5
54B2
330
18
100
AcDbEntity
  8
0
100
AcDbCircle
 10
1098.907585999999
 20
-170.7522629999999
 30
0.0
 40
6.0
100
AcDbArc
 50
90.0
 51
270.0
  0
ARC
  5
54B4
330
18
100
AcDbEntity
  8
0
100
AcDbCircle
 10
1102.907586
 20
-170.7522629999999
 30
0.0
 40
6.0
100
AcDbArc
 50
270.0
 51
90.0
  0
LINE
  5
54B5
330
18
100
AcDbEntity
  8
0
100
AcDbLine
 10
1075.907586
 20
-145.7522629999999
 30
0.0
 11
1075.907586
 21
-195.7522629999999
 31
0.0
  0
LINE
  5
54B6
330
18
100
AcDbEntity
  8
0
100
AcDbLine
 10
1102.907586
 20
-176.752263
 30
0.0
 11
1098.907585999999
 21
-176.752263
 31
0.0
  0
LINE
  5
54B7
330
18
100
AcDbEntity
  8
0
100
AcDbLine
 10
1098.907585999999
 20
-164.752263
 30
0.0
 11
1102.907586
 21
-164.752263
 31
0.0
  0
LINE
  5
54B8
330
18
100
AcDbEntity
  8
0
100
AcDbLine
 10
1985.407586
 20
-398.7522629999998
 30
0.0
 11
1935.407586
 21
-398.7522629999998
 31
0.0
  0
LINE
  5
54B9
330
18
100
AcDbEntity
  8
0
100
AcDbLine
 10
1985.407586
 20
-400.7522629999998
 30
0.0
 11
1935.407586
 21
-400.7522629999998
 31
0.0
  0
LINE
  5
54BA
330
18
100
AcDbEntity
  8
0
100
AcDbLine
 10
1935.407586
 20
-448.7522629999999
 30
0.0
 11
1985.407586
 21
-448.7522629999999
 31
0.0
  0
LINE
  5
54BB
330
18
100
AcDbEntity
  8
0
100
AcDbLine
 10
1935.407586
 20
-448.7522629999999
 30
0.0
 11
1935.407586
 21
-398.7522629999998
 31
0.0
  0
LINE
  5
54BD
330
18
100
AcDbEntity
  8
0
100
AcDbLine
 10
1985.407586
 20
-448.7522629999999
 30
0.0
 11
1985.407586
 21
-398.7522629999998
 31
0.0
  0
LINE
  5
54BF
330
18
100
AcDbEntity
  8
0
100
AcDbLine
 10
2332.407585999999
 20
-448.7522629999999
 30
0.0
 11
2282.407585999999
 21
-448.7522629999999
 31
0.0
  0
LINE
  5
54C0
330
18
100
AcDbEntity
  8
0
100
AcDbLine
 10
2282.407585999999
 20
-448.7522629999999
 30
0.0
 11
2282.407585999999
 21
-398.7522629999998
 31
0.0
  0
LINE
  5
54C1
330
18
100
AcDbEntity
  8
0
100
AcDbLine
 10
2282.407585999999
 20
-400.7522629999998
 30
0.0
 11
2332.407585999999
 21
-400.7522629999998
 31
0.0
  0
LINE
  5
54C2
330
18
100
AcDbEntity
  8
0
100
AcDbLine
 10
2282.407585999999
 20
-398.7522629999998
 30
0.0
 11
2332.407585999999
 21
-398.7522629999998
 31
0.0
  0
LINE
  5
54C3
330
18
100
AcDbEntity
  8
0
100
AcDbLine
 10
2332.407585999999
 20
-448.7522629999999
 30
0.0
 11
2332.407585999999
 21
-398.7522629999998
 31
0.0
  0
LINE
  5
571D
330
18
100
AcDbEntity
  8
0
100
AcDbLine
 10
551.907586
 20
-399.152263
 30
0.0
 11
551.907586
 21
-794.952263
 31
0.0
  0
LINE
  5
571E
330
18
100
AcDbEntity
  8
0
100
AcDbLine
 10
552.707586
 20
-399.152263
 30
0.0
 11
552.707586
 21
-794.952263
 31
0.0
  0
LINE
  5
571F
330
18
100
AcDbEntity
  8
0
100
AcDbLine
 10
153.907586
 20
-399.152263
 30
0.0
 11
153.907586
 21
-794.952263
 31
0.0
  0
LINE
  5
5720
330
18
100
AcDbEntity
  8
0
100
AcDbLine
 10
153.107586
 20
-399.152263
 30
0.0
 11
153.107586
 21
-794.952263
 31
0.0
  0
LINE
  5
5722
330
18
100
AcDbEntity
  8
0
100
AcDbLine
 10
154.407586
 20
-795.7522629999998
 30
0.0
 11
154.407586
 21
-398.7522629999998
 31
0.0
  0
CIRCLE
  5
5723
330
18
100
AcDbEntity
  8
0
100
AcDbCircle
 10
352.9075859999998
 20
-597.2522629999998
 30
0.0
 40
100.0
  0
LINE
  5
5726
330
18
100
AcDbEntity
  8
0
100
AcDbLine
 10
551.407586
 20
-795.7522629999998
 30
0.0
 11
551.407586
 21
-398.7522629999998
 31
0.0
  0
LINE
  5
5727
330
18
100
AcDbEntity
  8
0
100
AcDbLine
 10
551.407586
 20
-795.7522629999998
 30
0.0
 11
154.407586
 21
-795.7522629999998
 31
0.0
  0
LINE
  5
5729
330
18
100
AcDbEntity
  8
0
100
AcDbLine
 10
552.707586
 20
-794.952263
 30
0.0
 11
551.907586
 21
-794.952263
 31
0.0
  0
LINE
  5
572A
330
18
100
AcDbEntity
  8
0
100
AcDbLine
 10
153.907586
 20
-794.952263
 30
0.0
 11
153.107586
 21
-794.952263
 31
0.0
  0
LINE
  5
572B
330
18
100
AcDbEntity
  8
0
100
AcDbLine
 10
551.507586
 20
-398.7522629999998
 30
0.0
 11
154.307586
 21
-398.7522629999998
 31
0.0
  0
LINE
  5
572C
330
18
100
AcDbEntity
  8
0
100
AcDbLine
 10
551.507586
 20
-397.952263
 30
0.0
 11
154.307586
 21
-397.952263
 31
0.0
  0
LINE
  5
572E
330
18
100
AcDbEntity
  8
0
100
AcDbLine
 10
551.407586
 20
-398.7522629999998
 30
0.0
 11
154.407586
 21
-398.7522629999998
 31
0.0
  0
LINE
  5
5730
330
18
100
AcDbEntity
  8
0
100
AcDbLine
 10
501.407586
 20
-448.7522629999999
 30
0.0
 11
501.407586
 21
-398.7522629999998
 31
0.0
  0
LINE
  5
5731
330
18
100
AcDbEntity
  8
0
100
AcDbLine
 10
551.407586
 20
-448.7522629999999
 30
0.0
 11
551.407586
 21
-398.7522629999998
 31
0.0
  0
LINE
  5
5733
330
18
100
AcDbEntity
  8
0
100
AcDbLine
 10
551.407586
 20
-448.7522629999999
 30
0.0
 11
501.407586
 21
-448.7522629999999
 31
0.0
  0
LINE
  5
5735
330
18
100
AcDbEntity
  8
0
100
AcDbLine
 10
501.407586
 20
-400.7522629999998
 30
0.0
 11
551.407586
 21
-400.7522629999998
 31
0.0
  0
LINE
  5
5736
330
18
100
AcDbEntity
  8
0
100
AcDbLine
 10
501.407586
 20
-398.7522629999998
 30
0.0
 11
551.407586
 21
-398.7522629999998
 31
0.0
  0
ARC
  5
5737
330
18
100
AcDbEntity
  8
0
100
AcDbCircle
 10
551.507586
 20
-399.152263
 30
0.0
 40
0.4
100
AcDbArc
 50
0.0
 51
90.0
  0
ARC
  5
5738
330
18
100
AcDbEntity
  8
0
100
AcDbCircle
 10
551.507586
 20
-399.152263
 30
0.0
 40
1.199999999999999
100
AcDbArc
 50
0.0
 51
90.0
  0
CIRCLE
  5
573C
330
18
100
AcDbEntity
  8
0
100
AcDbCircle
 10
513.907586
 20
-411.2522629999999
 30
0.0
 40
4.75
  0
CIRCLE
  5
573D
330
18
100
AcDbEntity
  8
0
100
AcDbCircle
 10
513.907586
 20
-411.2522629999999
 30
0.0
 40
1.5
  0
CIRCLE
  5
5740
330
18
100
AcDbEntity
  8
0
100
AcDbCircle
 10
538.907586
 20
-411.2522629999999
 30
0.0
 40
4.75
  0
CIRCLE
  5
5741
330
18
100
AcDbEntity
  8
0
100
AcDbCircle
 10
538.907586
 20
-411.2522629999999
 30
0.0
 40
1.5
  0
CIRCLE
  5
5742
330
18
100
AcDbEntity
  8
0
100
AcDbCircle
 10
526.407586
 20
-436.2522629999999
 30
0.0
 40
1.5
  0
CIRCLE
  5
5743
330
18
100
AcDbEntity
  8
0
100
AcDbCircle
 10
526.407586
 20
-436.2522629999999
 30
0.0
 40
4.75
  0
LINE
  5
5746
330
18
100
AcDbEntity
  8
0
100
AcDbLine
 10
154.407586
 20
-448.7522629999999
 30
0.0
 11
154.407586
 21
-398.7522629999998
 31
0.0
  0
LINE
  5
5747
330
18
100
AcDbEntity
  8
0
100
AcDbLine
 10
204.4075859999999
 20
-448.7522629999999
 30
0.0
 11
204.4075859999999
 21
-398.7522629999998
 31
0.0
  0
CIRCLE
  5
5749
330
18
100
AcDbEntity
  8
0
100
AcDbCircle
 10
352.9075859999998
 20
-597.2522629999998
 30
0.0
 40
74.0
  0
CIRCLE
  5
574A
330
18
100
AcDbEntity
  8
0
100
AcDbCircle
 10
352.9075859999998
 20
-597.2522629999998
 30
0.0
 40
73.5
  0
CIRCLE
  5
574B
330
18
100
AcDbEntity
  8
0
100
AcDbCircle
 10
352.9075859999998
 20
-597.2522629999998
 30
0.0
 40
73.0
  0
CIRCLE
  5
574C
330
18
100
AcDbEntity
  8
0
100
AcDbCircle
 10
352.9075859999998
 20
-597.2522629999998
 30
0.0
 40
72.5
  0
CIRCLE
  5
574D
330
18
100
AcDbEntity
  8
0
100
AcDbCircle
 10
352.9075859999998
 20
-597.2522629999998
 30
0.0
 40
75.0
  0
LINE
  5
574E
330
18
100
AcDbEntity
  8
0
100
AcDbLine
 10
154.407586
 20
-448.7522629999999
 30
0.0
 11
204.4075859999999
 21
-448.7522629999999
 31
0.0
  0
ARC
  5
574F
330
18
100
AcDbEntity
  8
0
100
AcDbCircle
 10
154.307586
 20
-399.152263
 30
0.0
 40
1.199999999999999
100
AcDbArc
 50
90.0
 51
180.0
  0
LINE
  5
5750
330
18
100
AcDbEntity
  8
0
100
AcDbLine
 10
204.4075859999999
 20
-398.7522629999998
 30
0.0
 11
154.407586
 21
-398.7522629999998
 31
0.0
  0
LINE
  5
5751
330
18
100
AcDbEntity
  8
0
100
AcDbLine
 10
204.4075859999999
 20
-400.7522629999998
 30
0.0
 11
154.407586
 21
-400.7522629999998
 31
0.0
  0
ARC
  5
5752
330
18
100
AcDbEntity
  8
0
100
AcDbCircle
 10
154.307586
 20
-399.152263
 30
0.0
 40
0.4
100
AcDbArc
 50
90.0
 51
180.0
  0
CIRCLE
  5
5755
330
18
100
AcDbEntity
  8
0
100
AcDbCircle
 10
166.907586
 20
-411.2522629999999
 30
0.0
 40
1.5
  0
CIRCLE
  5
5756
330
18
100
AcDbEntity
  8
0
100
AcDbCircle
 10
179.407586
 20
-436.2522629999999
 30
0.0
 40
4.75
  0
CIRCLE
  5
5757
330
18
100
AcDbEntity
  8
0
100
AcDbCircle
 10
179.407586
 20
-436.2522629999999
 30
0.0
 40
1.5
  0
CIRCLE
  5
575A
330
18
100
AcDbEntity
  8
0
100
AcDbCircle
 10
191.907586
 20
-411.2522629999999
 30
0.0
 40
4.75
  0
CIRCLE
  5
575B
330
18
100
AcDbEntity
  8
0
100
AcDbCircle
 10
191.907586
 20
-411.2522629999999
 30
0.0
 40
1.5
  0
CIRCLE
  5
575D
330
18
100
AcDbEntity
  8
0
100
AcDbCircle
 10
166.907586
 20
-411.2522629999999
 30
0.0
 40
4.75
  0
ELLIPSE
  5
5763
330
18
100
AcDbEntity
  8
0
100
AcDbEllipse
 10
698.4575859999998
 20
-427.052263
 30
0.0
 11
-0.75
 21
-0.000000000000034
 31
0.0
210
0.0
220
0.0
230
-1.0
 40
0.666667
 41
1.570796326794925
 42
3.141592653589875
  0
ELLIPSE
  5
5764
330
18
100
AcDbEntity
  8
0
100
AcDbEllipse
 10
698.4575859999998
 20
-427.052263
 30
0.0
 11
-0.75
 21
-0.000000000000034
 31
0.0
210
0.0
220
0.0
230
-1.0
 40
0.666667
 41
1.570796326794925
 42
3.141592653589875
  0
ELLIPSE
  5
5769
330
18
100
AcDbEntity
  8
0
100
AcDbEllipse
 10
698.4575859999998
 20
-768.952246
 30
0.0
 11
-0.75
 21
0.000000000000034
 31
0.0
210
0.0
220
0.0
230
1.0
 40
0.666667
 41
1.570796326794925
 42
3.141592653589875
  0
ELLIPSE
  5
576A
330
18
100
AcDbEntity
  8
0
100
AcDbEllipse
 10
698.4575859999998
 20
-768.952246
 30
0.0
 11
-0.75
 21
0.000000000000034
 31
0.0
210
0.0
220
0.0
230
1.0
 40
0.666667
 41
1.570796326794925
 42
3.141592653589875
  0
ELLIPSE
  5
576B
330
18
100
AcDbEntity
  8
0
100
AcDbEllipse
 10
564.9575859999998
 20
-434.5522629999998
 30
0.0
 11
-0.75
 21
-0.000000000000034
 31
0.0
210
0.0
220
0.0
230
-1.0
 40
0.666667
 41
0.0000000000000679
 42
1.570796326794925
  0
ELLIPSE
  5
576C
330
18
100
AcDbEntity
  8
0
100
AcDbEllipse
 10
564.9575859999998
 20
-434.5522629999998
 30
0.0
 11
-0.75
 21
-0.000000000000034
 31
0.0
210
0.0
220
0.0
230
-1.0
 40
0.666667
 41
0.0000000000000679
 42
1.570796326794925
  0
ELLIPSE
  5
576D
330
18
100
AcDbEntity
  8
0
100
AcDbEllipse
 10
564.9575859999998
 20
-442.102263
 30
0.0
 11
-0.75
 21
-0.000000000000034
 31
0.0
210
0.0
220
0.0
230
-1.0
 40
0.666667
 41
-1.570796326794865
 42
0.0000000000000679
  0
ELLIPSE
  5
576E
330
18
100
AcDbEntity
  8
0
100
AcDbEllipse
 10
564.9575859999998
 20
-442.102263
 30
0.0
 11
-0.75
 21
-0.000000000000034
 31
0.0
210
0.0
220
0.0
230
-1.0
 40
0.666667
 41
-1.570796326794865
 42
0.0000000000000679
  0
ELLIPSE
  5
576F
330
18
100
AcDbEntity
  8
0
100
AcDbEllipse
 10
564.9575859999998
 20
-753.9022459999999
 30
0.0
 11
-0.75
 21
0.000000000000034
 31
0.0
210
0.0
220
0.0
230
1.0
 40
0.666667
 41
-1.570796326794865
 42
0.0000000000000679
  0
ELLIPSE
  5
5770
330
18
100
AcDbEntity
  8
0
100
AcDbEllipse
 10
564.9575859999998
 20
-753.9022459999999
 30
0.0
 11
-0.75
 21
0.000000000000034
 31
0.0
210
0.0
220
0.0
230
1.0
 40
0.666667
 41
-1.570796326794865
 42
0.0000000000000679
  0
ELLIPSE
  5
5771
330
18
100
AcDbEntity
  8
0
100
AcDbEllipse
 10
564.9575859999998
 20
-761.4522459999998
 30
0.0
 11
-0.75
 21
0.000000000000034
 31
0.0
210
0.0
220
0.0
230
1.0
 40
0.666667
 41
0.0000000000000679
 42
1.570796326794925
  0
ELLIPSE
  5
5772
330
18
100
AcDbEntity
  8
0
100
AcDbEllipse
 10
564.9575859999998
 20
-761.4522459999998
 30
0.0
 11
-0.75
 21
0.000000000000034
 31
0.0
210
0.0
220
0.0
230
1.0
 40
0.666667
 41
0.0000000000000679
 42
1.570796326794925
  0
LINE
  5
577F
330
18
100
AcDbEntity
  8
0
100
AcDbLine
 10
564.207586
 20
-742.902255
 30
0.0
 11
564.207586
 21
-453.1022549999998
 31
0.0
  0
LINE
  5
5780
330
18
100
AcDbEntity
  8
0
100
AcDbLine
 10
552.707586
 20
-762.9522459999998
 30
0.0
 11
699.2075859999999
 21
-762.9522459999998
 31
0.0
  0
LINE
  5
5781
330
18
100
AcDbEntity
  8
0
100
AcDbLine
 10
552.707586
 20
-769.4522459999998
 30
0.0
 11
698.4575859999998
 21
-769.4522459999998
 31
0.0
  0
LINE
  5
5782
330
18
100
AcDbEntity
  8
0
100
AcDbLine
 10
552.707586
 20
-763.9522459999998
 30
0.0
 11
699.2075859999999
 21
-763.9522459999998
 31
0.0
  0
LINE
  5
5783
330
18
100
AcDbEntity
  8
0
100
AcDbLine
 10
564.207586
 20
-754.922246
 30
0.0
 11
912.1875860000001
 21
-754.922246
 31
0.0
  0
LINE
  5
5784
330
18
100
AcDbEntity
  8
0
100
AcDbLine
 10
564.9575859999998
 20
-753.402246
 30
0.0
 11
912.7075859999999
 21
-753.402246
 31
0.0
  0
LINE
  5
5786
330
18
100
AcDbEntity
  8
0
100
AcDbLine
 10
925.507582
 20
-752.9022549999998
 30
0.0
 11
554.2075859999998
 21
-752.9022549999998
 31
0.0
  0
LINE
  5
5788
330
18
100
AcDbEntity
  8
0
100
AcDbLine
 10
925.507582
 20
-742.902255
 30
0.0
 11
564.207586
 21
-742.902255
 31
0.0
  0
LINE
  5
5789
330
18
100
AcDbEntity
  8
0
100
AcDbLine
 10
925.507582
 20
-752.9022549999998
 30
0.0
 11
555.707586
 21
-752.9022549999998
 31
0.0
  0
LINE
  5
578A
330
18
100
AcDbEntity
  8
0
100
AcDbLine
 10
564.9575859999998
 20
-761.9522459999998
 30
0.0
 11
913.7075859999999
 21
-761.9522459999998
 31
0.0
  0
LINE
  5
578B
330
18
100
AcDbEntity
  8
0
100
AcDbLine
 10
552.707586
 20
-756.4522459999998
 30
0.0
 11
564.207586
 21
-756.4522459999998
 31
0.0
  0
LINE
  5
578C
330
18
100
AcDbEntity
  8
0
100
AcDbLine
 10
552.707586
 20
-761.9522459999998
 30
0.0
 11
564.9575859999998
 21
-761.9522459999998
 31
0.0
  0
LINE
  5
578D
330
18
100
AcDbEntity
  8
0
100
AcDbLine
 10
564.207586
 20
-753.9022459999999
 30
0.0
 11
564.207586
 21
-761.4522459999998
 31
0.0
  0
LINE
  5
578E
330
18
100
AcDbEntity
  8
0
100
AcDbLine
 10
564.207586
 20
-761.4522459999998
 30
0.0
 11
564.207586
 21
-753.9022459999999
 31
0.0
  0
LINE
  5
578F
330
18
100
AcDbEntity
  8
0
100
AcDbLine
 10
564.207586
 20
-753.9022459999999
 30
0.0
 11
564.207586
 21
-761.4522459999998
 31
0.0
  0
LINE
  5
5790
330
18
100
AcDbEntity
  8
0
100
AcDbLine
 10
564.207586
 20
-761.4522459999998
 30
0.0
 11
564.207586
 21
-753.9022459999999
 31
0.0
  0
LINE
  5
5791
330
18
100
AcDbEntity
  8
0
100
AcDbLine
 10
554.2075859999998
 20
-752.9022549999998
 30
0.0
 11
564.207586
 21
-742.902255
 31
0.0
  0
LINE
  5
5794
330
18
100
AcDbEntity
  8
0
100
AcDbLine
 10
694.7075859999999
 20
-762.9522459999998
 30
0.0
 11
694.7075859999999
 21
-761.9522459999998
 31
0.0
  0
LINE
  5
5795
330
18
100
AcDbEntity
  8
0
100
AcDbLine
 10
694.7075859999999
 20
-762.9522459999998
 30
0.0
 11
694.7075859999999
 21
-761.9522459999998
 31
0.0
  0
LINE
  5
5796
330
18
100
AcDbEntity
  8
0
100
AcDbLine
 10
699.2075859999999
 20
-768.952246
 30
0.0
 11
699.2075859999999
 21
-762.9522459999998
 31
0.0
  0
LINE
  5
5797
330
18
100
AcDbEntity
  8
0
100
AcDbLine
 10
699.2075859999999
 20
-768.952246
 30
0.0
 11
699.2075859999999
 21
-762.9522459999998
 31
0.0
  0
LINE
  5
57A5
330
18
100
AcDbEntity
  8
0
100
AcDbLine
 10
914.207586
 20
-761.4522459999998
 30
0.0
 11
914.207586
 21
-754.9022459999998
 31
0.0
  0
LINE
  5
57A6
330
18
100
AcDbEntity
  8
0
100
AcDbLine
 10
914.207586
 20
-761.4522459999998
 30
0.0
 11
914.207586
 21
-754.9022459999998
 31
0.0
  0
LINE
  5
57A8
330
18
100
AcDbEntity
  8
0
100
AcDbLine
 10
912.1863279999999
 20
-753.6933219999998
 30
0.0
 11
913.7270989999999
 21
-754.6301099999998
 31
0.0
  0
LINE
  5
57A9
330
18
100
AcDbEntity
  8
0
100
AcDbLine
 10
912.1863279999999
 20
-753.6933219999998
 30
0.0
 11
913.7270989999999
 21
-754.6301099999998
 31
0.0
  0
ARC
  5
57AA
330
18
100
AcDbEntity
  8
0
100
AcDbCircle
 10
911.147302
 20
-755.4022459999998
 30
0.0
 40
2.0
100
AcDbArc
 50
58.700399
 51
90.0
  0
ARC
  5
57AB
330
18
100
AcDbEntity
  8
0
100
AcDbCircle
 10
911.147302
 20
-755.4022459999998
 30
0.0
 40
2.0
100
AcDbArc
 50
58.700399
 51
90.0
  0
LINE
  5
57AC
330
18
100
AcDbEntity
  8
0
100
AcDbLine
 10
912.6875859999996
 20
-761.9522459999998
 30
0.0
 11
912.6875859999996
 21
-755.422246
 31
0.0
  0
LINE
  5
57AD
330
18
100
AcDbEntity
  8
0
100
AcDbLine
 10
912.6875859999996
 20
-761.9522459999998
 30
0.0
 11
912.6875859999996
 21
-755.422246
 31
0.0
  0
ARC
  5
57AE
330
18
100
AcDbEntity
  8
0
100
AcDbCircle
 10
912.1875860000001
 20
-755.422246
 30
0.0
 40
0.5
100
AcDbArc
 50
0.0
 51
90.0
  0
ARC
  5
57AF
330
18
100
AcDbEntity
  8
0
100
AcDbCircle
 10
912.1875860000001
 20
-755.422246
 30
0.0
 40
0.5
100
AcDbArc
 50
0.0
 51
90.0
  0
ARC
  5
57B0
330
18
100
AcDbEntity
  8
0
100
AcDbCircle
 10
912.7075859999999
 20
-754.9022459999998
 30
0.0
 40
1.5
100
AcDbArc
 50
0.0
 51
90.0
  0
ARC
  5
57B1
330
18
100
AcDbEntity
  8
0
100
AcDbCircle
 10
912.7075859999999
 20
-754.9022459999998
 30
0.0
 40
1.5
100
AcDbArc
 50
0.0
 51
90.0
  0
ARC
  5
57B2
330
18
100
AcDbEntity
  8
0
100
AcDbCircle
 10
913.7075859999999
 20
-761.4522459999998
 30
0.0
 40
0.5
100
AcDbArc
 50
270.0
 51
0.0
  0
ARC
  5
57B3
330
18
100
AcDbEntity
  8
0
100
AcDbCircle
 10
913.7075859999999
 20
-761.4522459999998
 30
0.0
 40
0.5
100
AcDbArc
 50
270.0
 51
0.0
  0
ARC
  5
57B4
330
18
100
AcDbEntity
  8
0
100
AcDbCircle
 10
913.207586
 20
-755.4845730000002
 30
0.0
 40
1.0
100
AcDbArc
 50
0.0
 51
58.700399
  0
ARC
  5
57B5
330
18
100
AcDbEntity
  8
0
100
AcDbCircle
 10
913.207586
 20
-755.4845730000002
 30
0.0
 40
1.0
100
AcDbArc
 50
0.0
 51
58.700399
  0
LINE
  5
57BA
330
18
100
AcDbEntity
  8
0
100
AcDbLine
 10
552.707586
 20
-433.0522629999999
 30
0.0
 11
699.2075859999999
 21
-433.0522629999999
 31
0.0
  0
LINE
  5
57BB
330
18
100
AcDbEntity
  8
0
100
AcDbLine
 10
552.707586
 20
-426.5522629999998
 30
0.0
 11
698.4575859999998
 21
-426.5522629999998
 31
0.0
  0
LINE
  5
57BC
330
18
100
AcDbEntity
  8
0
100
AcDbLine
 10
552.707586
 20
-432.052263
 30
0.0
 11
699.2075859999999
 21
-432.052263
 31
0.0
  0
LINE
  5
57BF
330
18
100
AcDbEntity
  8
0
100
AcDbLine
 10
564.207586
 20
-441.082263
 30
0.0
 11
912.1875860000001
 21
-441.082263
 31
0.0
  0
LINE
  5
57C0
330
18
100
AcDbEntity
  8
0
100
AcDbLine
 10
564.9575859999998
 20
-434.0522629999998
 30
0.0
 11
913.7075859999999
 21
-434.0522629999998
 31
0.0
  0
LINE
  5
57C1
330
18
100
AcDbEntity
  8
0
100
AcDbLine
 10
564.9575859999998
 20
-442.602263
 30
0.0
 11
912.7075859999999
 21
-442.602263
 31
0.0
  0
LINE
  5
57C3
330
18
100
AcDbEntity
  8
0
100
AcDbLine
 10
925.507582
 20
-443.1022549999998
 30
0.0
 11
554.2075859999998
 21
-443.1022549999998
 31
0.0
  0
LINE
  5
57C5
330
18
100
AcDbEntity
  8
0
100
AcDbLine
 10
925.507582
 20
-453.1022549999998
 30
0.0
 11
564.207586
 21
-453.1022549999998
 31
0.0
  0
LINE
  5
57C6
330
18
100
AcDbEntity
  8
0
100
AcDbLine
 10
925.507582
 20
-443.1022549999998
 30
0.0
 11
555.707586
 21
-443.1022549999998
 31
0.0
  0
LINE
  5
57CA
330
18
100
AcDbEntity
  8
0
100
AcDbLine
 10
552.707586
 20
-439.552263
 30
0.0
 11
564.207586
 21
-439.552263
 31
0.0
  0
LINE
  5
57CB
330
18
100
AcDbEntity
  8
0
100
AcDbLine
 10
552.707586
 20
-434.0522629999998
 30
0.0
 11
564.9575859999998
 21
-434.0522629999998
 31
0.0
  0
LINE
  5
57CC
330
18
100
AcDbEntity
  8
0
100
AcDbLine
 10
564.207586
 20
-442.102263
 30
0.0
 11
564.207586
 21
-434.5522629999998
 31
0.0
  0
LINE
  5
57CD
330
18
100
AcDbEntity
  8
0
100
AcDbLine
 10
564.207586
 20
-434.5522629999998
 30
0.0
 11
564.207586
 21
-442.102263
 31
0.0
  0
LINE
  5
57CE
330
18
100
AcDbEntity
  8
0
100
AcDbLine
 10
564.207586
 20
-442.102263
 30
0.0
 11
564.207586
 21
-434.5522629999998
 31
0.0
  0
LINE
  5
57CF
330
18
100
AcDbEntity
  8
0
100
AcDbLine
 10
564.207586
 20
-434.5522629999998
 30
0.0
 11
564.207586
 21
-442.102263
 31
0.0
  0
LINE
  5
57D0
330
18
100
AcDbEntity
  8
0
100
AcDbLine
 10
564.207586
 20
-453.1022549999998
 30
0.0
 11
555.707586
 21
-444.6022549999998
 31
0.0
  0
LINE
  5
57D1
330
18
100
AcDbEntity
  8
0
100
AcDbLine
 10
554.2075859999998
 20
-443.1022549999998
 30
0.0
 11
564.207586
 21
-453.1022549999998
 31
0.0
  0
LINE
  5
57DF
330
18
100
AcDbEntity
  8
0
100
AcDbLine
 10
694.7075859999999
 20
-433.0522629999999
 30
0.0
 11
694.7075859999999
 21
-434.0522629999998
 31
0.0
  0
LINE
  5
57E0
330
18
100
AcDbEntity
  8
0
100
AcDbLine
 10
694.7075859999999
 20
-433.0522629999999
 30
0.0
 11
694.7075859999999
 21
-434.0522629999998
 31
0.0
  0
LINE
  5
57E1
330
18
100
AcDbEntity
  8
0
100
AcDbLine
 10
699.2075859999999
 20
-427.052263
 30
0.0
 11
699.2075859999999
 21
-433.0522629999999
 31
0.0
  0
LINE
  5
57E2
330
18
100
AcDbEntity
  8
0
100
AcDbLine
 10
699.2075859999999
 20
-427.052263
 30
0.0
 11
699.2075859999999
 21
-433.0522629999999
 31
0.0
  0
LINE
  5
57E5
330
18
100
AcDbEntity
  8
0
100
AcDbLine
 10
914.207586
 20
-434.5522629999998
 30
0.0
 11
914.207586
 21
-441.1022629999997
 31
0.0
  0
LINE
  5
57E6
330
18
100
AcDbEntity
  8
0
100
AcDbLine
 10
914.207586
 20
-434.5522629999998
 30
0.0
 11
914.207586
 21
-441.1022629999997
 31
0.0
  0
LINE
  5
57E8
330
18
100
AcDbEntity
  8
0
100
AcDbLine
 10
912.6875859999996
 20
-434.0522629999998
 30
0.0
 11
912.6875859999996
 21
-440.582263
 31
0.0
  0
LINE
  5
57E9
330
18
100
AcDbEntity
  8
0
100
AcDbLine
 10
912.6875859999996
 20
-434.0522629999998
 30
0.0
 11
912.6875859999996
 21
-440.582263
 31
0.0
  0
ARC
  5
57EA
330
18
100
AcDbEntity
  8
0
100
AcDbCircle
 10
912.1875860000001
 20
-440.582263
 30
0.0
 40
0.5
100
AcDbArc
 50
270.0
 51
0.0
  0
ARC
  5
57EB
330
18
100
AcDbEntity
  8
0
100
AcDbCircle
 10
912.1875860000001
 20
-440.582263
 30
0.0
 40
0.5
100
AcDbArc
 50
270.0
 51
0.0
  0
LINE
  5
57EC
330
18
100
AcDbEntity
  8
0
100
AcDbLine
 10
912.1863279999999
 20
-442.311188
 30
0.0
 11
913.7270989999999
 21
-441.374399
 31
0.0
  0
LINE
  5
57ED
330
18
100
AcDbEntity
  8
0
100
AcDbLine
 10
912.1863279999999
 20
-442.311188
 30
0.0
 11
913.7270989999999
 21
-441.374399
 31
0.0
  0
ARC
  5
57EE
330
18
100
AcDbEntity
  8
0
100
AcDbCircle
 10
911.147302
 20
-440.6022629999998
 30
0.0
 40
2.0
100
AcDbArc
 50
270.0
 51
301.299601
  0
ARC
  5
57EF
330
18
100
AcDbEntity
  8
0
100
AcDbCircle
 10
911.147302
 20
-440.6022629999998
 30
0.0
 40
2.0
100
AcDbArc
 50
270.0
 51
301.299601
  0
ARC
  5
57F0
330
18
100
AcDbEntity
  8
0
100
AcDbCircle
 10
912.7075859999999
 20
-441.1022629999997
 30
0.0
 40
1.5
100
AcDbArc
 50
270.0
 51
0.0
  0
ARC
  5
57F1
330
18
100
AcDbEntity
  8
0
100
AcDbCircle
 10
912.7075859999999
 20
-441.1022629999997
 30
0.0
 40
1.5
100
AcDbArc
 50
270.0
 51
0.0
  0
ARC
  5
57F2
330
18
100
AcDbEntity
  8
0
100
AcDbCircle
 10
913.7075859999999
 20
-434.5522629999998
 30
0.0
 40
0.5
100
AcDbArc
 50
0.0
 51
90.0
  0
ARC
  5
57F3
330
18
100
AcDbEntity
  8
0
100
AcDbCircle
 10
913.7075859999999
 20
-434.5522629999998
 30
0.0
 40
0.5
100
AcDbArc
 50
0.0
 51
90.0
  0
ARC
  5
57F4
330
18
100
AcDbEntity
  8
0
100
AcDbCircle
 10
913.207586
 20
-440.519937
 30
0.0
 40
1.0
100
AcDbArc
 50
301.299601
 51
0.0
  0
ARC
  5
57F5
330
18
100
AcDbEntity
  8
0
100
AcDbCircle
 10
913.207586
 20
-440.519937
 30
0.0
 40
1.0
100
AcDbArc
 50
301.299601
 51
0.0
  0
LINE
  5
5804
330
18
100
AcDbEntity
  8
0
100
AcDbLine
 10
554.2075859999998
 20
-752.9022549999998
 30
0.0
 11
554.2075859999998
 21
-443.1022549999998
 31
0.0
  0
LINE
  5
5806
330
18
100
AcDbEntity
  8
0
100
AcDbLine
 10
554.2075859999998
 20
-752.9022549999998
 30
0.0
 11
554.2075859999998
 21
-443.1022549999998
 31
0.0
  0
LINE
  5
6370
330
18
100
AcDbEntity
  8
0
100
AcDbLine
 10
1365.907586
 20
-206.0522629999999
 30
0.0
 11
1365.907586
 21
-218.052263
 31
0.0
  0
LINE
  5
6371
330
18
100
AcDbEntity
  8
0
100
AcDbLine
 10
1435.907586
 20
-206.0522629999999
 30
0.0
 11
1435.907586
 21
-218.052263
 31
0.0
  0
LINE
  5
6372
330
18
100
AcDbEntity
  8
0
100
AcDbLine
 10
1435.907586
 20
-218.052263
 30
0.0
 11
1365.907586
 21
-218.052263
 31
0.0
  0
LINE
  5
6373
330
18
100
AcDbEntity
  8
0
100
AcDbLine
 10
1434.907586
 20
-197.0522629999999
 30
0.0
 11
1366.907586
 21
-197.0522629999999
 31
0.0
  0
LINE
  5
6374
330
18
100
AcDbEntity
  8
0
100
AcDbLine
 10
1435.907586
 20
-206.0522629999999
 30
0.0
 11
1365.907586
 21
-206.0522629999999
 31
0.0
  0
LINE
  5
6375
330
18
100
AcDbEntity
  8
0
100
AcDbLine
 10
1434.907586
 20
-197.0522629999999
 30
0.0
 11
1434.907586
 21
-206.0522629999999
 31
0.0
  0
LINE
  5
6376
330
18
100
AcDbEntity
  8
0
100
AcDbLine
 10
1366.907586
 20
-197.0522629999999
 30
0.0
 11
1366.907586
 21
-206.0522629999999
 31
0.0
  0
LINE
  5
6378
330
18
100
AcDbEntity
  8
0
100
AcDbLine
 10
1934.107586
 20
-795.5022549999998
 30
0.0
 11
1934.107586
 21
-402.502255
 31
0.0
  0
LINE
  5
6379
330
18
100
AcDbEntity
  8
0
100
AcDbLine
 10
1913.107585999999
 20
-401.502255
 30
0.0
 11
1913.107585999999
 21
-796.502255
 31
0.0
  0
LINE
  5
637A
330
18
100
AcDbEntity
  8
0
100
AcDbLine
 10
1925.107586
 20
-401.502255
 30
0.0
 11
1925.107586
 21
-796.502255
 31
0.0
  0
LINE
  5
637B
330
18
100
AcDbEntity
  8
0
100
AcDbLine
 10
1934.107586
 20
-795.5022549999998
 30
0.0
 11
1925.107586
 21
-795.5022549999998
 31
0.0
  0
LINE
  5
637C
330
18
100
AcDbEntity
  8
0
100
AcDbLine
 10
1925.107586
 20
-796.502255
 30
0.0
 11
1913.107585999999
 21
-796.502255
 31
0.0
  0
LINE
  5
6380
330
18
100
AcDbEntity
  8
0
100
AcDbLine
 10
1934.107586
 20
-402.502255
 30
0.0
 11
1925.107586
 21
-402.502255
 31
0.0
  0
LINE
  5
6382
330
18
100
AcDbEntity
  8
0
100
AcDbLine
 10
1925.107586
 20
-401.502255
 30
0.0
 11
1913.107585999999
 21
-401.502255
 31
0.0
  0
LINE
  5
63CA
330
18
100
AcDbEntity
  8
0
100
AcDbLine
 10
1365.907586
 20
-794.352263
 30
0.0
 11
1365.907586
 21
-399.352263
 31
0.0
  0
LINE
  5
63CC
330
18
100
AcDbEntity
  8
0
100
AcDbLine
 10
1435.907586
 20
-794.352263
 30
0.0
 11
1435.907586
 21
-399.352263
 31
0.0
  0
LINE
  5
63D5
330
18
100
AcDbEntity
  8
0
100
AcDbLine
 10
1365.907586
 20
-399.352263
 30
0.0
 11
1435.907586
 21
-399.352263
 31
0.0
  0
LINE
  5
63EC
330
18
100
AcDbEntity
  8
0
100
AcDbLine
 10
1365.907586
 20
-794.352263
 30
0.0
 11
1393.424271
 21
-794.352263
 31
0.0
  0
LINE
  5
64DE
330
18
100
AcDbEntity
  8
0
100
AcDbLine
 10
934.5075819999999
 20
-401.502255
 30
0.0
 11
934.5075819999999
 21
-796.502255
 31
0.0
  0
LINE
  5
64DF
330
18
100
AcDbEntity
  8
0
100
AcDbLine
 10
925.507582
 20
-402.502255
 30
0.0
 11
934.5075819999999
 21
-402.502255
 31
0.0
  0
LINE
  5
64E0
330
18
100
AcDbEntity
  8
0
100
AcDbLine
 10
934.5075819999999
 20
-401.502255
 30
0.0
 11
946.507582
 21
-401.502255
 31
0.0
  0
LINE
  5
64E1
330
18
100
AcDbEntity
  8
0
100
AcDbLine
 10
946.507582
 20
-401.502255
 30
0.0
 11
946.507582
 21
-796.502255
 31
0.0
  0
LINE
  5
64E2
330
18
100
AcDbEntity
  8
0
100
AcDbLine
 10
925.507582
 20
-795.5022549999998
 30
0.0
 11
934.5075819999999
 21
-795.5022549999998
 31
0.0
  0
LINE
  5
64E3
330
18
100
AcDbEntity
  8
0
100
AcDbLine
 10
934.5075819999999
 20
-796.502255
 30
0.0
 11
946.507582
 21
-796.502255
 31
0.0
  0
LINE
  5
64E4
330
18
100
AcDbEntity
  8
0
100
AcDbLine
 10
925.507582
 20
-795.5022549999998
 30
0.0
 11
925.507582
 21
-402.502255
 31
0.0
  0
CIRCLE
  5
64FF
330
18
100
AcDbEntity
  8
0
100
AcDbCircle
 10
1400.907586
 20
-414.3522629999997
 30
0.0
 40
15.0
  0
CIRCLE
  5
6500
330
18
100
AcDbEntity
  8
0
100
AcDbCircle
 10
1400.907586
 20
-781.352263
 30
0.0
 40
15.0
  0
LINE
  5
EBF0
330
18
100
AcDbEntity
  8
0
100
AcDbLine
 10
925.507582
 20
-418.3522629999997
 30
0.0
 11
923.3514519999999
 21
-418.3522629999997
 31
0.0
  0
LINE
  5
EBF1
330
18
100
AcDbEntity
  8
0
100
AcDbLine
 10
925.507582
 20
-410.3522629999998
 30
0.0
 11
923.3514519999999
 21
-410.3522629999998
 31
0.0
  0
LINE
  5
EBF2
330
18
100
AcDbEntity
  8
0
100
AcDbLine
 10
921.351452
 20
-412.352263
 30
0.0
 11
921.351452
 21
-416.352263
 31
0.0
  0
LINE
  5
EBF3
330
18
100
AcDbEntity
  8
0
100
AcDbLine
 10
922.351452
 20
-411.352263
 30
0.0
 11
922.351452
 21
-417.3522629999998
 31
0.0
  0
LINE
  5
EBF4
330
18
100
AcDbEntity
  8
0
100
AcDbLine
 10
923.3514519999999
 20
-418.3522629999997
 30
0.0
 11
921.351452
 21
-416.352263
 31
0.0
  0
LINE
  5
EBF5
330
18
100
AcDbEntity
  8
0
100
AcDbLine
 10
923.3514519999999
 20
-410.3522629999998
 30
0.0
 11
921.351452
 21
-412.352263
 31
0.0
  0
LINE
  5
EBF6
330
18
100
AcDbEntity
  8
0
100
AcDbLine
 10
925.507582
 20
-411.352263
 30
0.0
 11
922.351452
 21
-411.352263
 31
0.0
  0
LINE
  5
EBF7
330
18
100
AcDbEntity
  8
0
100
AcDbLine
 10
925.507582
 20
-417.3522629999998
 30
0.0
 11
922.351452
 21
-417.3522629999998
 31
0.0
  0
LINE
  5
EBF8
330
18
100
AcDbEntity
  8
0
100
AcDbLine
 10
949.3514519999999
 20
-406.3522629999998
 30
0.0
 11
949.3514519999999
 21
-422.3522629999997
 31
0.0
  0
LINE
  5
EBF9
330
18
100
AcDbEntity
  8
0
100
AcDbLine
 10
947.507582
 20
-406.3522629999998
 30
0.0
 11
947.507582
 21
-422.3522629999997
 31
0.0
  0
LINE
  5
EBFA
330
18
100
AcDbEntity
  8
0
100
AcDbLine
 10
946.507582
 20
-406.3522629999998
 30
0.0
 11
946.507582
 21
-422.3522629999997
 31
0.0
  0
LINE
  5
EBFB
330
18
100
AcDbEntity
  8
0
100
AcDbLine
 10
952.351452
 20
-400.3522629999998
 30
0.0
 11
952.351452
 21
-428.352263
 31
0.0
  0
ARC
  5
EBFC
330
18
100
AcDbEntity
  8
0
100
AcDbCircle
 10
918.9547949999999
 20
-414.3522629999997
 30
0.0
 40
48.396656
100
AcDbArc
 50
342.819705
 51
17.180295
  0
LINE
  5
EBFD
330
18
100
AcDbEntity
  8
0
100
AcDbLine
 10
964.3706789999999
 20
-399.371864
 30
0.0
 11
964.3706789999999
 21
-429.332663
 31
0.0
1001
ACAD
1000
ASC_BOUNDS
1002
{
1070
    19
1005
0
1002
}
  0
LINE
  5
EBFE
330
18
100
AcDbEntity
  8
0
100
AcDbLine
 10
953.3706789999996
 20
-399.371864
 30
0.0
 11
953.3706789999996
 21
-429.332663
 31
0.0
1001
ACAD
1000
ASC_BOUNDS
1002
{
1070
    19
1005
0
1002
}
  0
LINE
  5
EBFF
330
18
100
AcDbEntity
  8
0
100
AcDbLine
 10
964.236613
 20
-429.352263
 30
0.0
 11
953.351452
 21
-429.352263
 31
0.0
1001
ACAD
1000
ASC_BOUNDS
1002
{
1070
    19
1005
0
1002
}
  0
ARC
  5
EC00
330
18
100
AcDbEntity
  8
0
100
AcDbCircle
 10
964.236613
 20
-428.352263
 30
0.0
 40
1.0
100
AcDbArc
 50
270.0
 51
342.819705
  0
ARC
  5
EC01
330
18
100
AcDbEntity
  8
0
100
AcDbCircle
 10
953.351452
 20
-428.352263
 30
0.0
 40
1.0
100
AcDbArc
 50
180.0
 51
270.0
  0
LINE
  5
EC02
330
18
100
AcDbEntity
  8
0
100
AcDbLine
 10
952.351452
 20
-422.3522629999997
 30
0.0
 11
949.3514519999999
 21
-422.3522629999997
 31
0.0
  0
LINE
  5
EC03
330
18
100
AcDbEntity
  8
0
100
AcDbLine
 10
947.507582
 20
-422.3522629999997
 30
0.0
 11
946.507582
 21
-422.3522629999997
 31
0.0
  0
LINE
  5
EC04
330
18
100
AcDbEntity
  8
0
100
AcDbLine
 10
949.3514519999999
 20
-417.3522629999998
 30
0.0
 11
946.507582
 21
-417.3522629999998
 31
0.0
  0
LINE
  5
EC05
330
18
100
AcDbEntity
  8
0
100
AcDbLine
 10
949.3514519999999
 20
-411.352263
 30
0.0
 11
946.507582
 21
-411.352263
 31
0.0
  0
LINE
  5
EC06
330
18
100
AcDbEntity
  8
0
100
AcDbLine
 10
964.236613
 20
-399.352263
 30
0.0
 11
953.351452
 21
-399.352263
 31
0.0
1001
ACAD
1000
ASC_BOUNDS
1002
{
1070
    19
1005
0
1002
}
  0
ARC
  5
EC07
330
18
100
AcDbEntity
  8
0
100
AcDbCircle
 10
964.236613
 20
-400.3522629999998
 30
0.0
 40
1.0
100
AcDbArc
 50
17.180295
 51
90.0
  0
ARC
  5
EC08
330
18
100
AcDbEntity
  8
0
100
AcDbCircle
 10
953.351452
 20
-400.3522629999998
 30
0.0
 40
1.0
100
AcDbArc
 50
90.0
 51
180.0
  0
LINE
  5
EC09
330
18
100
AcDbEntity
  8
0
100
AcDbLine
 10
952.351452
 20
-406.3522629999998
 30
0.0
 11
949.3514519999999
 21
-406.3522629999998
 31
0.0
  0
LINE
  5
EC0A
330
18
100
AcDbEntity
  8
0
100
AcDbLine
 10
947.507582
 20
-406.3522629999998
 30
0.0
 11
946.507582
 21
-406.3522629999998
 31
0.0
  0
LINE
  5
EC0E
330
18
100
AcDbEntity
  8
0
100
AcDbLine
 10
925.507582
 20
-785.352263
 30
0.0
 11
923.3514519999999
 21
-785.352263
 31
0.0
  0
LINE
  5
EC0F
330
18
100
AcDbEntity
  8
0
100
AcDbLine
 10
925.507582
 20
-777.352263
 30
0.0
 11
923.3514519999999
 21
-777.352263
 31
0.0
  0
LINE
  5
EC10
330
18
100
AcDbEntity
  8
0
100
AcDbLine
 10
921.351452
 20
-779.352263
 30
0.0
 11
921.351452
 21
-783.352263
 31
0.0
  0
LINE
  5
EC11
330
18
100
AcDbEntity
  8
0
100
AcDbLine
 10
922.351452
 20
-778.352263
 30
0.0
 11
922.351452
 21
-784.3522629999998
 31
0.0
  0
LINE
  5
EC12
330
18
100
AcDbEntity
  8
0
100
AcDbLine
 10
923.3514519999999
 20
-785.352263
 30
0.0
 11
921.351452
 21
-783.352263
 31
0.0
  0
LINE
  5
EC13
330
18
100
AcDbEntity
  8
0
100
AcDbLine
 10
923.3514519999999
 20
-777.352263
 30
0.0
 11
921.351452
 21
-779.352263
 31
0.0
  0
LINE
  5
EC14
330
18
100
AcDbEntity
  8
0
100
AcDbLine
 10
925.507582
 20
-778.352263
 30
0.0
 11
922.351452
 21
-778.352263
 31
0.0
  0
LINE
  5
EC15
330
18
100
AcDbEntity
  8
0
100
AcDbLine
 10
925.507582
 20
-784.3522629999998
 30
0.0
 11
922.351452
 21
-784.3522629999998
 31
0.0
  0
LINE
  5
EC16
330
18
100
AcDbEntity
  8
0
100
AcDbLine
 10
952.351452
 20
-789.352263
 30
0.0
 11
949.3514519999999
 21
-789.352263
 31
0.0
  0
LINE
  5
EC17
330
18
100
AcDbEntity
  8
0
100
AcDbLine
 10
952.351452
 20
-773.352263
 30
0.0
 11
949.3514519999999
 21
-773.352263
 31
0.0
  0
LINE
  5
EC18
330
18
100
AcDbEntity
  8
0
100
AcDbLine
 10
949.3514519999999
 20
-773.352263
 30
0.0
 11
949.3514519999999
 21
-789.352263
 31
0.0
  0
LINE
  5
EC19
330
18
100
AcDbEntity
  8
0
100
AcDbLine
 10
947.507582
 20
-773.352263
 30
0.0
 11
947.507582
 21
-789.352263
 31
0.0
  0
LINE
  5
EC1A
330
18
100
AcDbEntity
  8
0
100
AcDbLine
 10
946.507582
 20
-773.352263
 30
0.0
 11
946.507582
 21
-789.352263
 31
0.0
  0
LINE
  5
EC1B
330
18
100
AcDbEntity
  8
0
100
AcDbLine
 10
947.507582
 20
-789.352263
 30
0.0
 11
946.507582
 21
-789.352263
 31
0.0
  0
LINE
  5
EC1C
330
18
100
AcDbEntity
  8
0
100
AcDbLine
 10
949.3514519999999
 20
-784.3522629999998
 30
0.0
 11
946.507582
 21
-784.3522629999998
 31
0.0
  0
LINE
  5
EC1D
330
18
100
AcDbEntity
  8
0
100
AcDbLine
 10
949.3514519999999
 20
-778.352263
 30
0.0
 11
946.507582
 21
-778.352263
 31
0.0
  0
LINE
  5
EC1E
330
18
100
AcDbEntity
  8
0
100
AcDbLine
 10
947.507582
 20
-773.352263
 30
0.0
 11
946.507582
 21
-773.352263
 31
0.0
  0
ARC
  5
EC1F
330
18
100
AcDbEntity
  8
0
100
AcDbCircle
 10
918.9547949999999
 20
-781.352263
 30
0.0
 40
48.396656
100
AcDbArc
 50
342.819705
 51
17.180295
  0
LINE
  5
EC20
330
18
100
AcDbEntity
  8
0
100
AcDbLine
 10
964.3706789999999
 20
-766.3718639999999
 30
0.0
 11
964.3706789999999
 21
-796.332663
 31
0.0
1001
ACAD
1000
ASC_BOUNDS
1002
{
1070
    19
1005
0
1002
}
  0
LINE
  5
EC21
330
18
100
AcDbEntity
  8
0
100
AcDbLine
 10
952.351452
 20
-767.3522629999999
 30
0.0
 11
952.351452
 21
-795.352263
 31
0.0
  0
LINE
  5
EC22
330
18
100
AcDbEntity
  8
0
100
AcDbLine
 10
953.3706789999996
 20
-766.3718639999999
 30
0.0
 11
953.3706789999996
 21
-796.332663
 31
0.0
1001
ACAD
1000
ASC_BOUNDS
1002
{
1070
    19
1005
0
1002
}
  0
ARC
  5
EC23
330
18
100
AcDbEntity
  8
0
100
AcDbCircle
 10
964.236613
 20
-795.352263
 30
0.0
 40
1.0
100
AcDbArc
 50
270.0
 51
342.819705
  0
ARC
  5
EC24
330
18
100
AcDbEntity
  8
0
100
AcDbCircle
 10
953.351452
 20
-795.352263
 30
0.0
 40
1.0
100
AcDbArc
 50
180.0
 51
270.0
  0
LINE
  5
EC25
330
18
100
AcDbEntity
  8
0
100
AcDbLine
 10
964.236613
 20
-796.3522629999999
 30
0.0
 11
953.351452
 21
-796.3522629999999
 31
0.0
1001
ACAD
1000
ASC_BOUNDS
1002
{
1070
    19
1005
0
1002
}
  0
ARC
  5
EC26
330
18
100
AcDbEntity
  8
0
100
AcDbCircle
 10
964.236613
 20
-767.3522629999999
 30
0.0
 40
1.0
100
AcDbArc
 50
17.180295
 51
90.0
  0
ARC
  5
EC27
330
18
100
AcDbEntity
  8
0
100
AcDbCircle
 10
953.351452
 20
-767.3522629999999
 30
0.0
 40
1.0
100
AcDbArc
 50
90.0
 51
180.0
  0
LINE
  5
EC28
330
18
100
AcDbEntity
  8
0
100
AcDbLine
 10
964.236613
 20
-766.352263
 30
0.0
 11
953.351452
 21
-766.352263
 31
0.0
1001
ACAD
1000
ASC_BOUNDS
1002
{
1070
    19
1005
0
1002
}
  0
LINE
  5
EC2A
330
18
100
AcDbEntity
  8
0
100
AcDbLine
 10
1907.263717
 20
-773.352263
 30
0.0
 11
1910.263717
 21
-773.352263
 31
0.0
  0
LINE
  5
EC2B
330
18
100
AcDbEntity
  8
0
100
AcDbLine
 10
1907.263717
 20
-789.352263
 30
0.0
 11
1910.263717
 21
-789.352263
 31
0.0
  0
LINE
  5
EC2C
330
18
100
AcDbEntity
  8
0
100
AcDbLine
 10
1912.107585999999
 20
-773.352263
 30
0.0
 11
1913.107585999999
 21
-773.352263
 31
0.0
  0
LINE
  5
EC2D
330
18
100
AcDbEntity
  8
0
100
AcDbLine
 10
1910.263717
 20
-778.352263
 30
0.0
 11
1913.107585999999
 21
-778.352263
 31
0.0
  0
LINE
  5
EC2E
330
18
100
AcDbEntity
  8
0
100
AcDbLine
 10
1910.263717
 20
-784.3522629999998
 30
0.0
 11
1913.107585999999
 21
-784.3522629999998
 31
0.0
  0
LINE
  5
EC2F
330
18
100
AcDbEntity
  8
0
100
AcDbLine
 10
1912.107585999999
 20
-789.352263
 30
0.0
 11
1913.107585999999
 21
-789.352263
 31
0.0
  0
LINE
  5
EC30
330
18
100
AcDbEntity
  8
0
100
AcDbLine
 10
1913.107585999999
 20
-773.352263
 30
0.0
 11
1913.107585999999
 21
-789.352263
 31
0.0
  0
LINE
  5
EC31
330
18
100
AcDbEntity
  8
0
100
AcDbLine
 10
1912.107585999999
 20
-773.352263
 30
0.0
 11
1912.107585999999
 21
-789.352263
 31
0.0
  0
LINE
  5
EC32
330
18
100
AcDbEntity
  8
0
100
AcDbLine
 10
1910.263717
 20
-773.352263
 30
0.0
 11
1910.263717
 21
-789.352263
 31
0.0
  0
LINE
  5
EC33
330
18
100
AcDbEntity
  8
0
100
AcDbLine
 10
1895.378554999999
 20
-766.352263
 30
0.0
 11
1906.263717
 21
-766.352263
 31
0.0
1001
ACAD
1000
ASC_BOUNDS
1002
{
1070
    19
1005
0
1002
}
  0
ARC
  5
EC34
330
18
100
AcDbEntity
  8
0
100
AcDbCircle
 10
1906.263717
 20
-767.3522629999999
 30
0.0
 40
1.0
100
AcDbArc
 50
0.0
 51
90.0
  0
ARC
  5
EC35
330
18
100
AcDbEntity
  8
0
100
AcDbCircle
 10
1895.378554999999
 20
-767.3522629999999
 30
0.0
 40
1.0
100
AcDbArc
 50
90.0
 51
162.8197049999999
  0
LINE
  5
EC36
330
18
100
AcDbEntity
  8
0
100
AcDbLine
 10
1895.378554999999
 20
-796.3522629999999
 30
0.0
 11
1906.263717
 21
-796.3522629999999
 31
0.0
1001
ACAD
1000
ASC_BOUNDS
1002
{
1070
    19
1005
0
1002
}
  0
ARC
  5
EC37
330
18
100
AcDbEntity
  8
0
100
AcDbCircle
 10
1906.263717
 20
-795.352263
 30
0.0
 40
1.0
100
AcDbArc
 50
270.0
 51
0.0
  0
ARC
  5
EC38
330
18
100
AcDbEntity
  8
0
100
AcDbCircle
 10
1895.378554999999
 20
-795.352263
 30
0.0
 40
1.0
100
AcDbArc
 50
197.180295
 51
270.0
  0
LINE
  5
EC39
330
18
100
AcDbEntity
  8
0
100
AcDbLine
 10
1906.244489
 20
-766.3718639999999
 30
0.0
 11
1906.244489
 21
-796.332663
 31
0.0
1001
ACAD
1000
ASC_BOUNDS
1002
{
1070
    19
1005
0
1002
}
  0
LINE
  5
EC3A
330
18
100
AcDbEntity
  8
0
100
AcDbLine
 10
1907.263717
 20
-767.3522629999999
 30
0.0
 11
1907.263717
 21
-795.352263
 31
0.0
  0
LINE
  5
EC3B
330
18
100
AcDbEntity
  8
0
100
AcDbLine
 10
1895.244489
 20
-766.3718639999999
 30
0.0
 11
1895.244489
 21
-796.332663
 31
0.0
1001
ACAD
1000
ASC_BOUNDS
1002
{
1070
    19
1005
0
1002
}
  0
ARC
  5
EC3C
330
18
100
AcDbEntity
  8
0
100
AcDbCircle
 10
1940.660373
 20
-781.352263
 30
0.0
 40
48.396656
100
AcDbArc
 50
162.8197049999999
 51
197.180295
  0
LINE
  5
EC3F
330
18
100
AcDbEntity
  8
0
100
AcDbLine
 10
1907.263717
 20
-406.3522629999998
 30
0.0
 11
1910.263717
 21
-406.3522629999998
 31
0.0
  0
LINE
  5
EC40
330
18
100
AcDbEntity
  8
0
100
AcDbLine
 10
1907.263717
 20
-422.3522629999997
 30
0.0
 11
1910.263717
 21
-422.3522629999997
 31
0.0
  0
LINE
  5
EC41
330
18
100
AcDbEntity
  8
0
100
AcDbLine
 10
1912.107585999999
 20
-406.3522629999998
 30
0.0
 11
1913.107585999999
 21
-406.3522629999998
 31
0.0
  0
LINE
  5
EC42
330
18
100
AcDbEntity
  8
0
100
AcDbLine
 10
1910.263717
 20
-411.352263
 30
0.0
 11
1913.107585999999
 21
-411.352263
 31
0.0
  0
LINE
  5
EC43
330
18
100
AcDbEntity
  8
0
100
AcDbLine
 10
1910.263717
 20
-417.3522629999998
 30
0.0
 11
1913.107585999999
 21
-417.3522629999998
 31
0.0
  0
LINE
  5
EC44
330
18
100
AcDbEntity
  8
0
100
AcDbLine
 10
1912.107585999999
 20
-422.3522629999997
 30
0.0
 11
1913.107585999999
 21
-422.3522629999997
 31
0.0
  0
LINE
  5
EC45
330
18
100
AcDbEntity
  8
0
100
AcDbLine
 10
1913.107585999999
 20
-406.3522629999998
 30
0.0
 11
1913.107585999999
 21
-422.3522629999997
 31
0.0
  0
LINE
  5
EC46
330
18
100
AcDbEntity
  8
0
100
AcDbLine
 10
1912.107585999999
 20
-406.3522629999998
 30
0.0
 11
1912.107585999999
 21
-422.3522629999997
 31
0.0
  0
LINE
  5
EC47
330
18
100
AcDbEntity
  8
0
100
AcDbLine
 10
1910.263717
 20
-406.3522629999998
 30
0.0
 11
1910.263717
 21
-422.3522629999997
 31
0.0
  0
LINE
  5
EC48
330
18
100
AcDbEntity
  8
0
100
AcDbLine
 10
1895.378554999999
 20
-399.352263
 30
0.0
 11
1906.263717
 21
-399.352263
 31
0.0
1001
ACAD
1000
ASC_BOUNDS
1002
{
1070
    19
1005
0
1002
}
  0
ARC
  5
EC49
330
18
100
AcDbEntity
  8
0
100
AcDbCircle
 10
1906.263717
 20
-400.3522629999998
 30
0.0
 40
1.0
100
AcDbArc
 50
0.0
 51
90.0
  0
ARC
  5
EC4A
330
18
100
AcDbEntity
  8
0
100
AcDbCircle
 10
1895.378554999999
 20
-400.3522629999998
 30
0.0
 40
1.0
100
AcDbArc
 50
90.0
 51
162.8197049999999
  0
LINE
  5
EC4B
330
18
100
AcDbEntity
  8
0
100
AcDbLine
 10
1895.378554999999
 20
-429.352263
 30
0.0
 11
1906.263717
 21
-429.352263
 31
0.0
1001
ACAD
1000
ASC_BOUNDS
1002
{
1070
    19
1005
0
1002
}
  0
ARC
  5
EC4C
330
18
100
AcDbEntity
  8
0
100
AcDbCircle
 10
1906.263717
 20
-428.352263
 30
0.0
 40
1.0
100
AcDbArc
 50
270.0
 51
0.0
  0
ARC
  5
EC4D
330
18
100
AcDbEntity
  8
0
100
AcDbCircle
 10
1895.378554999999
 20
-428.352263
 30
0.0
 40
1.0
100
AcDbArc
 50
197.180295
 51
270.0
  0
LINE
  5
EC4E
330
18
100
AcDbEntity
  8
0
100
AcDbLine
 10
1906.244489
 20
-399.371864
 30
0.0
 11
1906.244489
 21
-429.332663
 31
0.0
1001
ACAD
1000
ASC_BOUNDS
1002
{
1070
    19
1005
0
1002
}
  0
LINE
  5
EC4F
330
18
100
AcDbEntity
  8
0
100
AcDbLine
 10
1907.263717
 20
-400.3522629999998
 30
0.0
 11
1907.263717
 21
-428.352263
 31
0.0
  0
LINE
  5
EC50
330
18
100
AcDbEntity
  8
0
100
AcDbLine
 10
1895.244489
 20
-399.371864
 30
0.0
 11
1895.244489
 21
-429.332663
 31
0.0
1001
ACAD
1000
ASC_BOUNDS
1002
{
1070
    19
1005
0
1002
}
  0
ARC
  5
EC51
330
18
100
AcDbEntity
  8
0
100
AcDbCircle
 10
1940.660373
 20
-414.3522629999997
 30
0.0
 40
48.396656
100
AcDbArc
 50
162.8197049999999
 51
197.180295
  0
LINE
  5
EC57
330
18
100
AcDbEntity
  8
0
100
AcDbLine
 10
1392.907586
 20
-223.896133
 30
0.0
 11
1392.907586
 21
-220.896133
 31
0.0
  0
LINE
  5
EC58
330
18
100
AcDbEntity
  8
0
100
AcDbLine
 10
1408.907586
 20
-223.896133
 30
0.0
 11
1408.907586
 21
-220.896133
 31
0.0
  0
LINE
  5
EC59
330
18
100
AcDbEntity
  8
0
100
AcDbLine
 10
1408.907586
 20
-220.896133
 30
0.0
 11
1392.907586
 21
-220.896133
 31
0.0
  0
LINE
  5
EC5A
330
18
100
AcDbEntity
  8
0
100
AcDbLine
 10
1408.907586
 20
-219.0522629999999
 30
0.0
 11
1392.907586
 21
-219.0522629999999
 31
0.0
  0
LINE
  5
EC5B
330
18
100
AcDbEntity
  8
0
100
AcDbLine
 10
1408.907586
 20
-218.052263
 30
0.0
 11
1392.907586
 21
-218.052263
 31
0.0
  0
LINE
  5
EC5C
330
18
100
AcDbEntity
  8
0
100
AcDbLine
 10
1392.907586
 20
-219.0522629999999
 30
0.0
 11
1392.907586
 21
-218.052263
 31
0.0
  0
LINE
  5
EC5D
330
18
100
AcDbEntity
  8
0
100
AcDbLine
 10
1397.907586
 20
-220.896133
 30
0.0
 11
1397.907586
 21
-218.052263
 31
0.0
  0
LINE
  5
EC5E
330
18
100
AcDbEntity
  8
0
100
AcDbLine
 10
1403.907586
 20
-220.896133
 30
0.0
 11
1403.907586
 21
-218.052263
 31
0.0
  0
LINE
  5
EC5F
330
18
100
AcDbEntity
  8
0
100
AcDbLine
 10
1408.907586
 20
-219.0522629999999
 30
0.0
 11
1408.907586
 21
-218.052263
 31
0.0
  0
ARC
  5
EC60
330
18
100
AcDbEntity
  8
0
100
AcDbCircle
 10
1400.907586
 20
-190.499477
 30
0.0
 40
48.396656
100
AcDbArc
 50
252.8197049999999
 51
287.180295
  0
LINE
  5
EC61
330
18
100
AcDbEntity
  8
0
100
AcDbLine
 10
1415.887985999999
 20
-235.91536
 30
0.0
 11
1385.927187
 21
-235.91536
 31
0.0
1001
ACAD
1000
ASC_BOUNDS
1002
{
1070
    19
1005
0
1002
}
  0
LINE
  5
EC62
330
18
100
AcDbEntity
  8
0
100
AcDbLine
 10
1414.907585999999
 20
-223.896133
 30
0.0
 11
1386.907586
 21
-223.896133
 31
0.0
  0
LINE
  5
EC63
330
18
100
AcDbEntity
  8
0
100
AcDbLine
 10
1415.887985999999
 20
-224.91536
 30
0.0
 11
1385.927187
 21
-224.91536
 31
0.0
1001
ACAD
1000
ASC_BOUNDS
1002
{
1070
    19
1005
0
1002
}
  0
ARC
  5
EC64
330
18
100
AcDbEntity
  8
0
100
AcDbCircle
 10
1386.907586
 20
-235.781294
 30
0.0
 40
1.0
100
AcDbArc
 50
180.0
 51
252.8197049999999
  0
ARC
  5
EC65
330
18
100
AcDbEntity
  8
0
100
AcDbCircle
 10
1386.907586
 20
-224.896133
 30
0.0
 40
1.0
100
AcDbArc
 50
90.0
 51
180.0
  0
LINE
  5
EC66
330
18
100
AcDbEntity
  8
0
100
AcDbLine
 10
1385.907586
 20
-235.781294
 30
0.0
 11
1385.907586
 21
-224.896133
 31
0.0
1001
ACAD
1000
ASC_BOUNDS
1002
{
1070
    19
1005
0
1002
}
  0
ARC
  5
EC67
330
18
100
AcDbEntity
  8
0
100
AcDbCircle
 10
1414.907585999999
 20
-235.781294
 30
0.0
 40
1.0
100
AcDbArc
 50
287.180295
 51
0.0
  0
ARC
  5
EC68
330
18
100
AcDbEntity
  8
0
100
AcDbCircle
 10
1414.907585999999
 20
-224.896133
 30
0.0
 40
1.0
100
AcDbArc
 50
0.0
 51
90.0
  0
LINE
  5
EC69
330
18
100
AcDbEntity
  8
0
100
AcDbLine
 10
1415.907586
 20
-235.781294
 30
0.0
 11
1415.907586
 21
-224.896133
 31
0.0
1001
ACAD
1000
ASC_BOUNDS
1002
{
1070
    19
1005
0
1002
}
  0
CIRCLE
  5
EC6D
330
18
100
AcDbEntity
  8
0
100
AcDbCircle
 10
1985.407586
 20
-760.752263
 30
0.0
 40
16.65
  0
CIRCLE
  5
ECEF
330
18
100
AcDbEntity
  8
0
100
AcDbCircle
 10
1400.907586
 20
-472.8522629999998
 30
0.0
 40
4.7
  0
LINE
  5
ECF0
330
18
100
AcDbEntity
  8
0
100
AcDbLine
 10
1399.412054999999
 20
-474.347794
 30
0.0
 11
1402.403117
 21
-471.356732
 31
0.0
  0
LINE
  5
ECF1
330
18
100
AcDbEntity
  8
0
100
AcDbLine
 10
1399.412054999999
 20
-471.356732
 30
0.0
 11
1402.403117
 21
-474.347794
 31
0.0
  0
LINE
  5
ECF5
330
18
100
AcDbEntity
  8
0
100
AcDbLine
 10
1399.412054999999
 20
-721.3567320000001
 30
0.0
 11
1402.403117
 21
-724.347794
 31
0.0
  0
LINE
  5
ECF6
330
18
100
AcDbEntity
  8
0
100
AcDbLine
 10
1399.412054999999
 20
-724.347794
 30
0.0
 11
1402.403117
 21
-721.3567320000001
 31
0.0
  0
CIRCLE
  5
ECF7
330
18
100
AcDbEntity
  8
0
100
AcDbCircle
 10
1400.907586
 20
-722.852263
 30
0.0
 40
4.7
  0
LINE
  5
ECF8
330
18
100
AcDbEntity
  8
0
100
AcDbLine
 10
946.7960259999999
 20
-477.7022549999998
 30
0.0
 11
946.507582
 21
-477.7022549999998
 31
0.0
  0
LINE
  5
ECF9
330
18
100
AcDbEntity
  8
0
100
AcDbLine
 10
946.7960259999999
 20
-468.302255
 30
0.0
 11
946.7960259999999
 21
-477.7022549999998
 31
0.0
  0
ARC
  5
ECFA
330
18
100
AcDbEntity
  8
0
100
AcDbCircle
 10
942.9075820000001
 20
-473.002255
 30
0.0
 40
6.099999999999998
100
AcDbArc
 50
309.6019269999998
 51
50.39807299999999
  0
LINE
  5
ECFB
330
18
100
AcDbEntity
  8
0
100
AcDbLine
 10
946.507582
 20
-468.302255
 30
0.0
 11
946.507582
 21
-477.7022549999998
 31
0.0
  0
LINE
  5
ECFC
330
18
100
AcDbEntity
  8
0
100
AcDbLine
 10
946.7960259999999
 20
-468.302255
 30
0.0
 11
946.507582
 21
-468.302255
 31
0.0
  0
LINE
  5
ED02
330
18
100
AcDbEntity
  8
0
100
AcDbLine
 10
946.7960259999999
 20
-718.3022549999998
 30
0.0
 11
946.507582
 21
-718.3022549999998
 31
0.0
  0
LINE
  5
ED03
330
18
100
AcDbEntity
  8
0
100
AcDbLine
 10
946.507582
 20
-718.3022549999998
 30
0.0
 11
946.507582
 21
-727.702255
 31
0.0
  0
ARC
  5
ED04
330
18
100
AcDbEntity
  8
0
100
AcDbCircle
 10
942.9075820000001
 20
-723.002255
 30
0.0
 40
6.099999999999998
100
AcDbArc
 50
309.6019269999998
 51
50.39807299999999
  0
LINE
  5
ED05
330
18
100
AcDbEntity
  8
0
100
AcDbLine
 10
946.7960259999999
 20
-718.3022549999998
 30
0.0
 11
946.7960259999999
 21
-727.702255
 31
0.0
  0
LINE
  5
ED06
330
18
100
AcDbEntity
  8
0
100
AcDbLine
 10
946.7960259999999
 20
-727.702255
 30
0.0
 11
946.507582
 21
-727.702255
 31
0.0
  0
LINE
  5
ED08
330
18
100
AcDbEntity
  8
0
100
AcDbLine
 10
1912.819142
 20
-468.302255
 30
0.0
 11
1913.107585999999
 21
-468.302255
 31
0.0
  0
LINE
  5
ED09
330
18
100
AcDbEntity
  8
0
100
AcDbLine
 10
1913.107585999999
 20
-468.302255
 30
0.0
 11
1913.107585999999
 21
-477.7022549999998
 31
0.0
  0
ARC
  5
ED0A
330
18
100
AcDbEntity
  8
0
100
AcDbCircle
 10
1916.707586
 20
-473.002255
 30
0.0
 40
6.099999999999998
100
AcDbArc
 50
129.6019269999999
 51
230.398073
  0
LINE
  5
ED0B
330
18
100
AcDbEntity
  8
0
100
AcDbLine
 10
1912.819142
 20
-468.302255
 30
0.0
 11
1912.819142
 21
-477.7022549999998
 31
0.0
  0
LINE
  5
ED0C
330
18
100
AcDbEntity
  8
0
100
AcDbLine
 10
1912.819142
 20
-477.7022549999998
 30
0.0
 11
1913.107585999999
 21
-477.7022549999998
 31
0.0
  0
LINE
  5
ED0E
330
18
100
AcDbEntity
  8
0
100
AcDbLine
 10
1912.819142
 20
-727.702255
 30
0.0
 11
1913.107585999999
 21
-727.702255
 31
0.0
  0
LINE
  5
ED0F
330
18
100
AcDbEntity
  8
0
100
AcDbLine
 10
1912.819142
 20
-718.3022549999998
 30
0.0
 11
1912.819142
 21
-727.702255
 31
0.0
  0
ARC
  5
ED10
330
18
100
AcDbEntity
  8
0
100
AcDbCircle
 10
1916.707586
 20
-723.002255
 30
0.0
 40
6.099999999999998
100
AcDbArc
 50
129.6019269999999
 51
230.398073
  0
LINE
  5
ED11
330
18
100
AcDbEntity
  8
0
100
AcDbLine
 10
1913.107585999999
 20
-718.3022549999998
 30
0.0
 11
1913.107585999999
 21
-727.702255
 31
0.0
  0
LINE
  5
ED12
330
18
100
AcDbEntity
  8
0
100
AcDbLine
 10
1912.819142
 20
-718.3022549999998
 30
0.0
 11
1913.107585999999
 21
-718.3022549999998
 31
0.0
  0
LINE
  5
EEEA
330
18
100
AcDbEntity
  8
0
100
AcDbLine
 10
925.507582
 20
-474.259974
 30
0.0
 11
761.134133
 21
-742.902255
 31
0.0
  0
LINE
  5
EEEB
330
18
100
AcDbEntity
  8
0
100
AcDbLine
 10
564.207586
 20
-460.041199
 30
0.0
 11
737.2810389999998
 21
-742.902255
 31
0.0
  0
LINE
  5
EEED
330
18
100
AcDbEntity
  8
0
100
AcDbLine
 10
925.507582
 20
-468.703562
 30
0.0
 11
757.7343469999998
 21
-742.902255
 31
0.0
  0
LINE
  5
EEEE
330
18
100
AcDbEntity
  8
0
100
AcDbLine
 10
564.207586
 20
-454.4847879999998
 30
0.0
 11
740.680826
 21
-742.902255
 31
0.0
  0
LINE
  5
EFAA
330
18
100
AcDbEntity
  8
0
100
AcDbLine
 10
564.207586
 20
-735.9633099999999
 30
0.0
 11
737.2810389999998
 21
-453.1022549999998
 31
0.0
  0
LINE
  5
EFAB
330
18
100
AcDbEntity
  8
0
100
AcDbLine
 10
564.207586
 20
-741.519721
 30
0.0
 11
740.680826
 21
-453.1022549999998
 31
0.0
  0
LINE
  5
EFAC
330
18
100
AcDbEntity
  8
0
100
AcDbLine
 10
925.507582
 20
-727.3009469999998
 30
0.0
 11
757.7343469999998
 21
-453.1022549999998
 31
0.0
  0
LINE
  5
EFAD
330
18
100
AcDbEntity
  8
0
100
AcDbLine
 10
925.507582
 20
-721.744536
 30
0.0
 11
761.134133
 21
-453.1022549999998
 31
0.0
  0
LINE
  5
F274
330
18
100
AcDbEntity
  8
0
100
AcDbLine
 10
1408.390900999999
 20
-794.352263
 30
0.0
 11
1435.907586
 21
-794.352263
 31
0.0
  0
LINE
  5
F275
330
18
100
AcDbEntity
  8
0
100
AcDbLine
 10
1394.579869
 20
-794.952263
 30
0.0
 11
1127.407586
 21
-794.952263
 31
0.0
  0
LINE
  5
F276
330
18
100
AcDbEntity
  8
0
100
AcDbLine
 10
1405.107585999999
 20
-795.7522629999998
 30
0.0
 11
1675.907586
 21
-795.7522629999998
 31
0.0
  0
LINE
  5
F277
330
18
100
AcDbEntity
  8
0
100
AcDbLine
 10
1405.107585999999
 20
-795.7522629999998
 30
0.0
 11
1675.907586
 21
-795.7522629999998
 31
0.0
  0
LINE
  5
F324
330
18
100
AcDbEntity
  8
0
100
AcDbLine
 10
564.2075861557205
 20
-468.5218677672319
 30
0.0
 11
579.6271991526339
 21
-453.1022547703186
 31
0.0
  0
LINE
  5
F325
330
18
100
AcDbEntity
  8
0
100
AcDbLine
 10
564.2075861557205
 20
-490.972508069905
 30
0.0
 11
602.0778394553068
 21
-453.1022547703186
 31
0.0
  0
LINE
  5
F326
330
18
100
AcDbEntity
  8
0
100
AcDbLine
 10
564.2075861557205
 20
-513.4231483725779
 30
0.0
 11
624.5284797579799
 21
-453.1022547703186
 31
0.0
  0
LINE
  5
F327
330
18
100
AcDbEntity
  8
0
100
AcDbLine
 10
564.2075861557205
 20
-535.8737886752505
 30
0.0
 11
646.9791200606525
 21
-453.1022547703186
 31
0.0
  0
LINE
  5
F328
330
18
100
AcDbEntity
  8
0
100
AcDbLine
 10
564.2075861557206
 20
-558.3244289779234
 30
0.0
 11
669.4297603633255
 21
-453.1022547703186
 31
0.0
  0
LINE
  5
F329
330
18
100
AcDbEntity
  8
0
100
AcDbLine
 10
564.2075861557206
 20
-580.7750692805964
 30
0.0
 11
691.8804006659985
 21
-453.1022547703186
 31
0.0
  0
LINE
  5
F32A
330
18
100
AcDbEntity
  8
0
100
AcDbLine
 10
564.2075861557205
 20
-603.2257095832692
 30
0.0
 11
570.1810326157612
 21
-597.2522631232284
 31
0.0
  0
LINE
  5
F32B
330
18
100
AcDbEntity
  8
0
100
AcDbLine
 10
570.1810326157612
 20
-597.2522631232284
 30
0.0
 11
714.3310409686712
 21
-453.1022547703186
 31
0.0
  0
LINE
  5
F32C
330
18
100
AcDbEntity
  8
0
100
AcDbLine
 10
564.2075861557205
 20
-625.6763498859422
 30
0.0
 11
592.6316729184342
 21
-597.2522631232284
 31
0.0
  0
LINE
  5
F32D
330
18
100
AcDbEntity
  8
0
100
AcDbLine
 10
592.6316729184342
 20
-597.2522631232284
 30
0.0
 11
736.7816812713442
 21
-453.1022547703186
 31
0.0
  0
LINE
  5
F32E
330
18
100
AcDbEntity
  8
0
100
AcDbLine
 10
564.2075861557205
 20
-648.126990188615
 30
0.0
 11
615.0823132211071
 21
-597.2522631232285
 31
0.0
  0
LINE
  5
F32F
330
18
100
AcDbEntity
  8
0
100
AcDbLine
 10
615.0823132211073
 20
-597.2522631232284
 30
0.0
 11
759.2323215740171
 21
-453.1022547703186
 31
0.0
  0
LINE
  5
F330
330
18
100
AcDbEntity
  8
0
100
AcDbLine
 10
564.2075861557205
 20
-670.577630491288
 30
0.0
 11
637.5329535237799
 21
-597.2522631232284
 31
0.0
  0
LINE
  5
F331
330
18
100
AcDbEntity
  8
0
100
AcDbLine
 10
637.5329535237799
 20
-597.2522631232284
 30
0.0
 11
781.6829618766901
 21
-453.1022547703186
 31
0.0
  0
LINE
  5
F332
330
18
100
AcDbEntity
  8
0
100
AcDbLine
 10
564.2075861557205
 20
-693.0282707939609
 30
0.0
 11
659.9835938264528
 21
-597.2522631232284
 31
0.0
  0
LINE
  5
F333
330
18
100
AcDbEntity
  8
0
100
AcDbLine
 10
659.9835938264531
 20
-597.2522631232282
 30
0.0
 11
804.1336021793629
 21
-453.1022547703186
 31
0.0
  0
LINE
  5
F334
330
18
100
AcDbEntity
  8
0
100
AcDbLine
 10
564.2075861557205
 20
-715.4789110966337
 30
0.0
 11
682.4342341291258
 21
-597.2522631232285
 31
0.0
  0
LINE
  5
F335
330
18
100
AcDbEntity
  8
0
100
AcDbLine
 10
682.434234129126
 20
-597.2522631232284
 30
0.0
 11
826.5842424820359
 21
-453.1022547703184
 31
0.0
  0
LINE
  5
F336
330
18
100
AcDbEntity
  8
0
100
AcDbLine
 10
564.2075861557205
 20
-737.9295513993066
 30
0.0
 11
704.8848744317986
 21
-597.2522631232285
 31
0.0
  0
LINE
  5
F337
330
18
100
AcDbEntity
  8
0
100
AcDbLine
 10
704.8848744317987
 20
-597.2522631232284
 30
0.0
 11
849.0348827847085
 21
-453.1022547703186
 31
0.0
  0
LINE
  5
F338
330
18
100
AcDbEntity
  8
0
100
AcDbLine
 10
581.6855230873816
 20
-742.9022547703183
 30
0.0
 11
727.3355147344714
 21
-597.2522631232284
 31
0.0
  0
LINE
  5
F339
330
18
100
AcDbEntity
  8
0
100
AcDbLine
 10
727.3355147344716
 20
-597.2522631232282
 30
0.0
 11
871.4855230873816
 21
-453.1022547703184
 31
0.0
  0
LINE
  5
F33A
330
18
100
AcDbEntity
  8
0
100
AcDbLine
 10
604.1361633900544
 20
-742.9022547703184
 30
0.0
 11
749.7861550371443
 21
-597.2522631232285
 31
0.0
  0
LINE
  5
F33B
330
18
100
AcDbEntity
  8
0
100
AcDbLine
 10
749.7861550371444
 20
-597.2522631232284
 30
0.0
 11
893.9361633900542
 21
-453.1022547703186
 31
0.0
  0
LINE
  5
F33C
330
18
100
AcDbEntity
  8
0
100
AcDbLine
 10
626.5868036927273
 20
-742.9022547703184
 30
0.0
 11
772.2367953398171
 21
-597.2522631232284
 31
0.0
  0
LINE
  5
F33D
330
18
100
AcDbEntity
  8
0
100
AcDbLine
 10
772.2367953398173
 20
-597.2522631232284
 30
0.0
 11
916.3868036927272
 21
-453.1022547703186
 31
0.0
  0
LINE
  5
F33E
330
18
100
AcDbEntity
  8
0
100
AcDbLine
 10
649.0374439954003
 20
-742.9022547703183
 30
0.0
 11
794.6874356424902
 21
-597.2522631232284
 31
0.0
  0
LINE
  5
F33F
330
18
100
AcDbEntity
  8
0
100
AcDbLine
 10
794.6874356424902
 20
-597.2522631232282
 30
0.0
 11
925.5075819792663
 21
-466.4321167864523
 31
0.0
  0
LINE
  5
F340
330
18
100
AcDbEntity
  8
0
100
AcDbLine
 10
671.4880842980733
 20
-742.9022547703184
 30
0.0
 11
817.1380759451631
 21
-597.2522631232285
 31
0.0
  0
LINE
  5
F341
330
18
100
AcDbEntity
  8
0
100
AcDbLine
 10
817.1380759451633
 20
-597.2522631232284
 30
0.0
 11
925.5075819792663
 21
-488.8827570891252
 31
0.0
  0
LINE
  5
F342
330
18
100
AcDbEntity
  8
0
100
AcDbLine
 10
693.938724600746
 20
-742.9022547703184
 30
0.0
 11
839.5887162478357
 21
-597.2522631232284
 31
0.0
  0
LINE
  5
F343
330
18
100
AcDbEntity
  8
0
100
AcDbLine
 10
839.5887162478361
 20
-597.2522631232284
 30
0.0
 11
925.5075819792663
 21
-511.333397391798
 31
0.0
  0
LINE
  5
F344
330
18
100
AcDbEntity
  8
0
100
AcDbLine
 10
716.3893649034189
 20
-742.9022547703183
 30
0.0
 11
862.0393565505088
 21
-597.2522631232284
 31
0.0
  0
LINE
  5
F345
330
18
100
AcDbEntity
  8
0
100
AcDbLine
 10
862.0393565505088
 20
-597.2522631232282
 30
0.0
 11
925.5075819792661
 21
-533.784037694471
 31
0.0
  0
LINE
  5
F346
330
18
100
AcDbEntity
  8
0
100
AcDbLine
 10
738.8400052060917
 20
-742.9022547703184
 30
0.0
 11
884.4899968531818
 21
-597.2522631232285
 31
0.0
  0
LINE
  5
F347
330
18
100
AcDbEntity
  8
0
100
AcDbLine
 10
884.4899968531818
 20
-597.2522631232284
 30
0.0
 11
925.5075819792663
 21
-556.234677997144
 31
0.0
  0
LINE
  5
F348
330
18
100
AcDbEntity
  8
0
100
AcDbLine
 10
761.2906455087648
 20
-742.9022547703183
 30
0.0
 11
906.9406371558546
 21
-597.2522631232284
 31
0.0
  0
LINE
  5
F349
330
18
100
AcDbEntity
  8
0
100
AcDbLine
 10
906.9406371558548
 20
-597.2522631232284
 30
0.0
 11
925.5075819792661
 21
-578.6853182998169
 31
0.0
  0
LINE
  5
F34A
330
18
100
AcDbEntity
  8
0
100
AcDbLine
 10
783.7412858114377
 20
-742.9022547703183
 30
0.0
 11
925.5075819792661
 21
-601.1359586024897
 31
0.0
  0
LINE
  5
F34B
330
18
100
AcDbEntity
  8
0
100
AcDbLine
 10
806.1919261141104
 20
-742.9022547703184
 30
0.0
 11
925.5075819792661
 21
-623.5865989051627
 31
0.0
  0
LINE
  5
F34C
330
18
100
AcDbEntity
  8
0
100
AcDbLine
 10
828.6425664167833
 20
-742.9022547703184
 30
0.0
 11
925.5075819792661
 21
-646.0372392078356
 31
0.0
  0
LINE
  5
F34D
330
18
100
AcDbEntity
  8
0
100
AcDbLine
 10
851.0932067194561
 20
-742.9022547703183
 30
0.0
 11
925.5075819792661
 21
-668.4878795105084
 31
0.0
  0
LINE
  5
F34E
330
18
100
AcDbEntity
  8
0
100
AcDbLine
 10
873.5438470221291
 20
-742.9022547703184
 30
0.0
 11
925.5075819792661
 21
-690.9385198131813
 31
0.0
  0
LINE
  5
F34F
330
18
100
AcDbEntity
  8
0
100
AcDbLine
 10
895.9944873248021
 20
-742.9022547703183
 30
0.0
 11
925.5075819792663
 21
-713.389160115854
 31
0.0
  0
LINE
  5
F350
330
18
100
AcDbEntity
  8
0
100
AcDbLine
 10
918.4451276274748
 20
-742.9022547703184
 30
0.0
 11
925.5075819792663
 21
-735.8398004185269
 31
0.0
  0
LINE
  5
F351
330
18
100
AcDbEntity
  8
0
100
AcDbLine
 10
585.7477726516083
 20
-742.9022547703184
 30
0.0
 11
564.2075861557202
 21
-721.3620682744307
 31
0.0
  0
LINE
  5
F352
330
18
100
AcDbEntity
  8
0
100
AcDbLine
 10
608.198412954281
 20
-742.9022547703184
 30
0.0
 11
564.2075861557202
 21
-698.9114279717577
 31
0.0
  0
LINE
  5
F353
330
18
100
AcDbEntity
  8
0
100
AcDbLine
 10
630.6490532569538
 20
-742.9022547703184
 30
0.0
 11
564.2075861557202
 21
-676.460787669085
 31
0.0
  0
LINE
  5
F354
330
18
100
AcDbEntity
  8
0
100
AcDbLine
 10
653.0996935596268
 20
-742.9022547703184
 30
0.0
 11
564.2075861557205
 21
-654.0101473664121
 31
0.0
  0
LINE
  5
F355
330
18
100
AcDbEntity
  8
0
100
AcDbLine
 10
675.5503338622997
 20
-742.9022547703184
 30
0.0
 11
564.2075861557202
 21
-631.5595070637392
 31
0.0
  0
LINE
  5
F356
330
18
100
AcDbEntity
  8
0
100
AcDbLine
 10
698.0009741649723
 20
-742.9022547703184
 30
0.0
 11
564.2075861557202
 21
-609.1088667610663
 31
0.0
  0
LINE
  5
F357
330
18
100
AcDbEntity
  8
0
100
AcDbLine
 10
720.4516144676455
 20
-742.9022547703184
 30
0.0
 11
574.8016228205555
 21
-597.2522631232284
 31
0.0
  0
LINE
  5
F358
330
18
100
AcDbEntity
  8
0
100
AcDbLine
 10
574.8016228205555
 20
-597.2522631232284
 30
0.0
 11
564.2075861557206
 21
-586.6582264583935
 31
0.0
  0
LINE
  5
F359
330
18
100
AcDbEntity
  8
0
100
AcDbLine
 10
742.9022547703184
 20
-742.9022547703184
 30
0.0
 11
597.2522631232282
 21
-597.2522631232284
 31
0.0
  0
LINE
  5
F35A
330
18
100
AcDbEntity
  8
0
100
AcDbLine
 10
597.2522631232282
 20
-597.2522631232284
 30
0.0
 11
564.2075861557206
 21
-564.2075861557206
 31
0.0
  0
LINE
  5
F35B
330
18
100
AcDbEntity
  8
0
100
AcDbLine
 10
765.3528950729911
 20
-742.9022547703184
 30
0.0
 11
619.7029034259011
 21
-597.2522631232284
 31
0.0
  0
LINE
  5
F35C
330
18
100
AcDbEntity
  8
0
100
AcDbLine
 10
619.7029034259011
 20
-597.2522631232284
 30
0.0
 11
564.2075861557205
 21
-541.7569458530477
 31
0.0
  0
LINE
  5
F35D
330
18
100
AcDbEntity
  8
0
100
AcDbLine
 10
787.8035353756639
 20
-742.9022547703183
 30
0.0
 11
642.1535437285741
 21
-597.2522631232284
 31
0.0
  0
LINE
  5
F35E
330
18
100
AcDbEntity
  8
0
100
AcDbLine
 10
642.1535437285741
 20
-597.2522631232284
 30
0.0
 11
564.2075861557206
 21
-519.3063055503748
 31
0.0
  0
LINE
  5
F35F
330
18
100
AcDbEntity
  8
0
100
AcDbLine
 10
810.2541756783367
 20
-742.9022547703183
 30
0.0
 11
664.6041840312468
 21
-597.2522631232284
 31
0.0
  0
LINE
  5
F360
330
18
100
AcDbEntity
  8
0
100
AcDbLine
 10
664.6041840312468
 20
-597.2522631232284
 30
0.0
 11
564.2075861557205
 21
-496.8556652477018
 31
0.0
  0
LINE
  5
F361
330
18
100
AcDbEntity
  8
0
100
AcDbLine
 10
832.7048159810097
 20
-742.9022547703184
 30
0.0
 11
687.0548243339198
 21
-597.2522631232284
 31
0.0
  0
LINE
  5
F362
330
18
100
AcDbEntity
  8
0
100
AcDbLine
 10
687.0548243339198
 20
-597.2522631232284
 30
0.0
 11
564.2075861557205
 21
-474.4050249450289
 31
0.0
  0
LINE
  5
F363
330
18
100
AcDbEntity
  8
0
100
AcDbLine
 10
855.1554562836825
 20
-742.9022547703183
 30
0.0
 11
709.5054646365927
 21
-597.2522631232284
 31
0.0
  0
LINE
  5
F364
330
18
100
AcDbEntity
  8
0
100
AcDbLine
 10
709.5054646365927
 20
-597.2522631232284
 30
0.0
 11
565.3554562836827
 21
-453.1022547703184
 31
0.0
  0
LINE
  5
F365
330
18
100
AcDbEntity
  8
0
100
AcDbLine
 10
877.6060965863553
 20
-742.9022547703183
 30
0.0
 11
731.9561049392656
 21
-597.2522631232284
 31
0.0
  0
LINE
  5
F366
330
18
100
AcDbEntity
  8
0
100
AcDbLine
 10
731.9561049392656
 20
-597.2522631232284
 30
0.0
 11
587.8060965863555
 21
-453.1022547703184
 31
0.0
  0
LINE
  5
F367
330
18
100
AcDbEntity
  8
0
100
AcDbLine
 10
900.0567368890283
 20
-742.9022547703183
 30
0.0
 11
754.4067452419383
 21
-597.2522631232284
 31
0.0
  0
LINE
  5
F368
330
18
100
AcDbEntity
  8
0
100
AcDbLine
 10
754.4067452419383
 20
-597.2522631232284
 30
0.0
 11
610.2567368890285
 21
-453.1022547703186
 31
0.0
  0
LINE
  5
F369
330
18
100
AcDbEntity
  8
0
100
AcDbLine
 10
922.5073771917012
 20
-742.9022547703183
 30
0.0
 11
776.8573855446113
 21
-597.2522631232284
 31
0.0
  0
LINE
  5
F36A
330
18
100
AcDbEntity
  8
0
100
AcDbLine
 10
776.8573855446113
 20
-597.2522631232284
 30
0.0
 11
632.7073771917013
 21
-453.1022547703184
 31
0.0
  0
LINE
  5
F36B
330
18
100
AcDbEntity
  8
0
100
AcDbLine
 10
925.5075819792661
 20
-723.4518192552102
 30
0.0
 11
799.3080258472843
 21
-597.2522631232284
 31
0.0
  0
LINE
  5
F36C
330
18
100
AcDbEntity
  8
0
100
AcDbLine
 10
799.3080258472843
 20
-597.2522631232284
 30
0.0
 11
655.1580174943742
 21
-453.1022547703184
 31
0.0
  0
LINE
  5
F36D
330
18
100
AcDbEntity
  8
0
100
AcDbLine
 10
925.5075819792661
 20
-701.0011789525374
 30
0.0
 11
821.758666149957
 21
-597.2522631232284
 31
0.0
  0
LINE
  5
F36E
330
18
100
AcDbEntity
  8
0
100
AcDbLine
 10
821.758666149957
 20
-597.2522631232282
 30
0.0
 11
677.6086577970472
 21
-453.1022547703186
 31
0.0
  0
LINE
  5
F36F
330
18
100
AcDbEntity
  8
0
100
AcDbLine
 10
925.5075819792661
 20
-678.5505386498646
 30
0.0
 11
844.20930645263
 21
-597.2522631232284
 31
0.0
  0
LINE
  5
F370
330
18
100
AcDbEntity
  8
0
100
AcDbLine
 10
844.2093064526297
 20
-597.2522631232282
 30
0.0
 11
700.05929809972
 21
-453.1022547703184
 31
0.0
  0
LINE
  5
F371
330
18
100
AcDbEntity
  8
0
100
AcDbLine
 10
925.5075819792661
 20
-656.0998983471916
 30
0.0
 11
866.6599467553027
 21
-597.2522631232284
 31
0.0
  0
LINE
  5
F372
330
18
100
AcDbEntity
  8
0
100
AcDbLine
 10
866.6599467553027
 20
-597.2522631232284
 30
0.0
 11
722.509938402393
 21
-453.1022547703184
 31
0.0
  0
LINE
  5
F373
330
18
100
AcDbEntity
  8
0
100
AcDbLine
 10
925.5075819792661
 20
-633.6492580445187
 30
0.0
 11
889.1105870579757
 21
-597.2522631232284
 31
0.0
  0
LINE
  5
F374
330
18
100
AcDbEntity
  8
0
100
AcDbLine
 10
889.1105870579757
 20
-597.2522631232282
 30
0.0
 11
744.9605787050658
 21
-453.1022547703186
 31
0.0
  0
LINE
  5
F375
330
18
100
AcDbEntity
  8
0
100
AcDbLine
 10
925.5075819792661
 20
-611.1986177418458
 30
0.0
 11
911.5612273606487
 21
-597.2522631232284
 31
0.0
  0
LINE
  5
F376
330
18
100
AcDbEntity
  8
0
100
AcDbLine
 10
911.5612273606483
 20
-597.2522631232282
 30
0.0
 11
767.4112190077388
 21
-453.1022547703184
 31
0.0
  0
LINE
  5
F377
330
18
100
AcDbEntity
  8
0
100
AcDbLine
 10
925.5075819792663
 20
-588.7479774391731
 30
0.0
 11
789.8618593104116
 21
-453.1022547703184
 31
0.0
  0
LINE
  5
F378
330
18
100
AcDbEntity
  8
0
100
AcDbLine
 10
925.5075819792663
 20
-566.2973371365002
 30
0.0
 11
812.3124996130844
 21
-453.1022547703186
 31
0.0
  0
LINE
  5
F379
330
18
100
AcDbEntity
  8
0
100
AcDbLine
 10
925.5075819792661
 20
-543.8466968338273
 30
0.0
 11
834.7631399157574
 21
-453.1022547703186
 31
0.0
  0
LINE
  5
F37A
330
18
100
AcDbEntity
  8
0
100
AcDbLine
 10
925.5075819792663
 20
-521.3960565311545
 30
0.0
 11
857.2137802184302
 21
-453.1022547703184
 31
0.0
  0
LINE
  5
F37B
330
18
100
AcDbEntity
  8
0
100
AcDbLine
 10
925.5075819792663
 20
-498.9454162284816
 30
0.0
 11
879.6644205211029
 21
-453.1022547703182
 31
0.0
  0
LINE
  5
F37C
330
18
100
AcDbEntity
  8
0
100
AcDbLine
 10
925.5075819792661
 20
-476.4947759258086
 30
0.0
 11
902.1150608237759
 21
-453.1022547703184
 31
0.0
  0
LINE
  5
F37D
330
18
100
AcDbEntity
  8
0
100
AcDbLine
 10
925.5075819792663
 20
-454.0441356231359
 30
0.0
 11
924.5657011264489
 21
-453.1022547703183
 31
0.0
  0
TEXT
  5
F3C8
330
18
100
AcDbEntity
  8
0
100
AcDbText
 10
1560.907586
 20
-750.7522629999998
 30
0.0
 40
4.0
  1
Serial No, H
  7
RCEXFONT
100
AcDbText
  0
LINE
  5
F3C9
330
18
100
AcDbEntity
  8
0
100
AcDbLine
 10
1557.907586
 20
-735.752263
 30
0.0
 11
1633.907586
 21
-735.752263
 31
0.0
  0
LINE
  5
F3CA
330
18
100
AcDbEntity
  8
0
100
AcDbLine
 10
1633.907586
 20
-755.752263
 30
0.0
 11
1557.907586
 21
-755.752263
 31
0.0
  0
LINE
  5
F3CB
330
18
100
AcDbEntity
  8
0
100
AcDbLine
 10
1559.907586
 20
-737.7522629999998
 30
0.0
 11
1631.907586
 21
-737.7522629999998
 31
0.0
  0
LINE
  5
F3CC
330
18
100
AcDbEntity
  8
0
100
AcDbLine
 10
1631.907586
 20
-753.7522629999998
 30
0.0
 11
1559.907586
 21
-753.7522629999998
 31
0.0
  0
LINE
  5
F3CD
330
18
100
AcDbEntity
  8
0
100
AcDbLine
 10
1555.907586
 20
-753.7522629999998
 30
0.0
 11
1555.907586
 21
-737.7522629999998
 31
0.0
  0
ARC
  5
F3CE
330
18
100
AcDbEntity
  8
0
100
AcDbCircle
 10
1559.907586
 20
-739.752263
 30
0.0
 40
2.0
100
AcDbArc
 50
90.0
 51
180.0
  0
LINE
  5
F3D0
330
18
100
AcDbEntity
  8
0
100
AcDbLine
 10
1557.907586
 20
-751.752263
 30
0.0
 11
1557.907586
 21
-739.752263
 31
0.0
  0
ARC
  5
F3D1
330
18
100
AcDbEntity
  8
0
100
AcDbCircle
 10
1557.907586
 20
-753.7522629999998
 30
0.0
 40
2.0
100
AcDbArc
 50
180.0
 51
270.0
  0
ARC
  5
F3D2
330
18
100
AcDbEntity
  8
0
100
AcDbCircle
 10
1559.907586
 20
-751.752263
 30
0.0
 40
2.0
100
AcDbArc
 50
180.0
 51
270.0
  0
ARC
  5
F3D3
330
18
100
AcDbEntity
  8
0
100
AcDbCircle
 10
1557.907586
 20
-737.7522629999998
 30
0.0
 40
2.0
100
AcDbArc
 50
90.0
 51
180.0
  0
LINE
  5
F3D4
330
18
100
AcDbEntity
  8
0
100
AcDbLine
 10
1635.907586
 20
-737.7522629999998
 30
0.0
 11
1635.907586
 21
-753.7522629999998
 31
0.0
  0
ARC
  5
F3D5
330
18
100
AcDbEntity
  8
0
100
AcDbCircle
 10
1631.907586
 20
-739.752263
 30
0.0
 40
2.0
100
AcDbArc
 50
0.0
 51
90.0
  0
LINE
  5
F3D6
330
18
100
AcDbEntity
  8
0
100
AcDbLine
 10
1633.907586
 20
-739.752263
 30
0.0
 11
1633.907586
 21
-751.752263
 31
0.0
  0
ARC
  5
F3D7
330
18
100
AcDbEntity
  8
0
100
AcDbCircle
 10
1633.907586
 20
-753.7522629999998
 30
0.0
 40
2.0
100
AcDbArc
 50
270.0
 51
0.0
  0
ARC
  5
F3D8
330
18
100
AcDbEntity
  8
0
100
AcDbCircle
 10
1631.907586
 20
-751.752263
 30
0.0
 40
2.0
100
AcDbArc
 50
270.0
 51
0.0
  0
ARC
  5
F3D9
330
18
100
AcDbEntity
  8
0
100
AcDbCircle
 10
1633.907586
 20
-737.7522629999998
 30
0.0
 40
2.0
100
AcDbArc
 50
0.0
 51
90.0
  0
LINE
  5
F3DB
330
18
100
AcDbEntity
  8
0
100
AcDbLine
 10
1265.907586
 20
-602.252263
 30
0.0
 11
1175.907586
 21
-602.252263
 31
0.0
  0
LINE
  5
F3DC
330
18
100
AcDbEntity
  8
0
100
AcDbLine
 10
1175.907586
 20
-592.2522630000002
 30
0.0
 11
1265.907586
 21
-592.2522630000002
 31
0.0
  0
LINE
  5
F3DD
330
18
100
AcDbEntity
  8
0
100
AcDbLine
 10
1175.907586
 20
-602.252263
 30
0.0
 11
1175.907586
 21
-592.2522630000002
 31
0.0
  0
LINE
  5
F3DE
330
18
100
AcDbEntity
  8
0
100
AcDbLine
 10
1295.907586
 20
-597.2522630000002
 30
0.0
 11
1265.907586
 21
-609.7522630000002
 31
0.0
  0
LINE
  5
F3DF
330
18
100
AcDbEntity
  8
0
100
AcDbLine
 10
1265.907586
 20
-584.7522630000002
 30
0.0
 11
1295.907586
 21
-597.2522630000002
 31
0.0
  0
LINE
  5
F3E0
330
18
100
AcDbEntity
  8
0
100
AcDbLine
 10
1265.907586
 20
-584.7522630000002
 30
0.0
 11
1265.907586
 21
-592.2522630000002
 31
0.0
  0
LINE
  5
F3E1
330
18
100
AcDbEntity
  8
0
100
AcDbLine
 10
1265.907586
 20
-602.252263
 30
0.0
 11
1265.907586
 21
-609.7522630000002
 31
0.0
  0
CIRCLE
  5
F3E3
330
18
100
AcDbEntity
  8
0
100
AcDbCircle
 10
1135.907586
 20
-423.7522629999999
 30
0.0
 40
4.75
  0
CIRCLE
  5
F3E5
330
18
100
AcDbEntity
  8
0
100
AcDbCircle
 10
1135.907586
 20
-423.7522629999999
 30
0.0
 40
1.5
  0
LINE
  5
F3E6
330
18
100
AcDbEntity
  8
0
100
AcDbLine
 10
1123.907586
 20
-406.5022629999998
 30
0.0
 11
1122.907585999999
 21
-406.5022629999998
 31
0.0
  0
LINE
  5
F3E7
330
18
100
AcDbEntity
  8
0
100
AcDbLine
 10
1075.907586
 20
-400.7522629999998
 30
0.0
 11
1075.907586
 21
-398.7522629999998
 31
0.0
  0
LINE
  5
F3E8
330
18
100
AcDbEntity
  8
0
100
AcDbLine
 10
1125.907586
 20
-398.7522629999998
 30
0.0
 11
1125.907586
 21
-448.7522629999999
 31
0.0
  0
LINE
  5
F3E9
330
18
100
AcDbEntity
  8
0
100
AcDbLine
 10
1123.907586
 20
-400.7522629999998
 30
0.0
 11
1123.907586
 21
-448.7522629999999
 31
0.0
  0
LINE
  5
F3EA
330
18
100
AcDbEntity
  8
0
100
AcDbLine
 10
1123.907586
 20
-448.7522629999999
 30
0.0
 11
1125.907586
 21
-448.7522629999999
 31
0.0
  0
LINE
  5
F3EB
330
18
100
AcDbEntity
  8
0
100
AcDbLine
 10
1125.907586
 20
-398.7522629999998
 30
0.0
 11
1125.907586
 21
-448.7522629999999
 31
0.0
  0
LINE
  5
F3EC
330
18
100
AcDbEntity
  8
0
100
AcDbLine
 10
1075.907586
 20
-398.7522629999998
 30
0.0
 11
1125.907586
 21
-398.7522629999998
 31
0.0
  0
LINE
  5
F3ED
330
18
100
AcDbEntity
  8
0
100
AcDbLine
 10
1075.907586
 20
-400.7522629999998
 30
0.0
 11
1123.907586
 21
-400.7522629999998
 31
0.0
  0
ARC
  5
F3EE
330
18
100
AcDbEntity
  8
0
100
AcDbCircle
 10
1145.220086
 20
-436.2522629999999
 30
0.0
 40
22.8125
100
AcDbArc
 50
167.9819880000005
 51
192.0180119999993
  0
LINE
  5
F3EF
330
18
100
AcDbEntity
  8
0
100
AcDbLine
 10
1122.907585999999
 20
-431.5022629999998
 30
0.0
 11
1122.907585999999
 21
-441.0022629999998
 31
0.0
  0
LINE
  5
F3F0
330
18
100
AcDbEntity
  8
0
100
AcDbLine
 10
1123.907586
 20
-431.5022629999998
 30
0.0
 11
1123.907586
 21
-441.0022629999998
 31
0.0
  0
LINE
  5
F3F1
330
18
100
AcDbEntity
  8
0
100
AcDbLine
 10
1123.907586
 20
-441.0022629999998
 30
0.0
 11
1122.907585999999
 21
-441.0022629999998
 31
0.0
  0
LINE
  5
F3F2
330
18
100
AcDbEntity
  8
0
100
AcDbLine
 10
1123.907586
 20
-431.5022629999998
 30
0.0
 11
1122.907585999999
 21
-431.5022629999998
 31
0.0
  0
LINE
  5
F3F4
330
18
100
AcDbEntity
  8
0
100
AcDbLine
 10
1123.907586
 20
-416.0022629999998
 30
0.0
 11
1122.907585999999
 21
-416.0022629999998
 31
0.0
  0
LINE
  5
F3F5
330
18
100
AcDbEntity
  8
0
100
AcDbLine
 10
1123.907586
 20
-406.5022629999998
 30
0.0
 11
1123.907586
 21
-416.0022629999998
 31
0.0
  0
LINE
  5
F3F6
330
18
100
AcDbEntity
  8
0
100
AcDbLine
 10
1122.907585999999
 20
-406.5022629999998
 30
0.0
 11
1122.907585999999
 21
-416.0022629999998
 31
0.0
  0
ARC
  5
F3F7
330
18
100
AcDbEntity
  8
0
100
AcDbCircle
 10
1145.220086
 20
-411.2522629999999
 30
0.0
 40
22.8125
100
AcDbArc
 50
167.9819880000005
 51
192.0180119999993
  0
CIRCLE
  5
F3FC
330
18
100
AcDbEntity
  8
0
100
AcDbCircle
 10
1665.907586
 20
-423.7522629999999
 30
0.0
 40
4.75
  0
CIRCLE
  5
F3FE
330
18
100
AcDbEntity
  8
0
100
AcDbCircle
 10
1665.907586
 20
-423.7522629999999
 30
0.0
 40
1.5
  0
LINE
  5
F3FF
330
18
100
AcDbEntity
  8
0
100
AcDbLine
 10
1677.907585999999
 20
-406.5022629999998
 30
0.0
 11
1678.907586
 21
-406.5022629999998
 31
0.0
  0
LINE
  5
F400
330
18
100
AcDbEntity
  8
0
100
AcDbLine
 10
1725.907585999999
 20
-400.7522629999998
 30
0.0
 11
1725.907585999999
 21
-398.7522629999998
 31
0.0
  0
LINE
  5
F401
330
18
100
AcDbEntity
  8
0
100
AcDbLine
 10
1675.907586
 20
-398.7522629999998
 30
0.0
 11
1675.907586
 21
-448.7522629999999
 31
0.0
  0
LINE
  5
F402
330
18
100
AcDbEntity
  8
0
100
AcDbLine
 10
1677.907585999999
 20
-400.7522629999998
 30
0.0
 11
1677.907585999999
 21
-448.7522629999999
 31
0.0
  0
LINE
  5
F403
330
18
100
AcDbEntity
  8
0
100
AcDbLine
 10
1677.907585999999
 20
-448.7522629999999
 30
0.0
 11
1675.907586
 21
-448.7522629999999
 31
0.0
  0
LINE
  5
F404
330
18
100
AcDbEntity
  8
0
100
AcDbLine
 10
1675.907586
 20
-398.7522629999998
 30
0.0
 11
1675.907586
 21
-448.7522629999999
 31
0.0
  0
LINE
  5
F405
330
18
100
AcDbEntity
  8
0
100
AcDbLine
 10
1725.907585999999
 20
-398.7522629999998
 30
0.0
 11
1675.907586
 21
-398.7522629999998
 31
0.0
  0
LINE
  5
F406
330
18
100
AcDbEntity
  8
0
100
AcDbLine
 10
1725.907585999999
 20
-400.7522629999998
 30
0.0
 11
1677.907585999999
 21
-400.7522629999998
 31
0.0
  0
ARC
  5
F407
330
18
100
AcDbEntity
  8
0
100
AcDbCircle
 10
1656.595086
 20
-436.2522629999999
 30
0.0
 40
22.8125
100
AcDbArc
 50
347.9819880000007
 51
12.01801199999931
  0
LINE
  5
F408
330
18
100
AcDbEntity
  8
0
100
AcDbLine
 10
1678.907586
 20
-431.5022629999998
 30
0.0
 11
1678.907586
 21
-441.0022629999998
 31
0.0
  0
LINE
  5
F409
330
18
100
AcDbEntity
  8
0
100
AcDbLine
 10
1677.907585999999
 20
-431.5022629999998
 30
0.0
 11
1677.907585999999
 21
-441.0022629999998
 31
0.0
  0
LINE
  5
F40A
330
18
100
AcDbEntity
  8
0
100
AcDbLine
 10
1677.907585999999
 20
-441.0022629999998
 30
0.0
 11
1678.907586
 21
-441.0022629999998
 31
0.0
  0
LINE
  5
F40B
330
18
100
AcDbEntity
  8
0
100
AcDbLine
 10
1677.907585999999
 20
-431.5022629999998
 30
0.0
 11
1678.907586
 21
-431.5022629999998
 31
0.0
  0
LINE
  5
F40D
330
18
100
AcDbEntity
  8
0
100
AcDbLine
 10
1677.907585999999
 20
-416.0022629999998
 30
0.0
 11
1678.907586
 21
-416.0022629999998
 31
0.0
  0
LINE
  5
F40E
330
18
100
AcDbEntity
  8
0
100
AcDbLine
 10
1677.907585999999
 20
-406.5022629999998
 30
0.0
 11
1677.907585999999
 21
-416.0022629999998
 31
0.0
  0
LINE
  5
F40F
330
18
100
AcDbEntity
  8
0
100
AcDbLine
 10
1678.907586
 20
-406.5022629999998
 30
0.0
 11
1678.907586
 21
-416.0022629999998
 31
0.0
  0
ARC
  5
F410
330
18
100
AcDbEntity
  8
0
100
AcDbCircle
 10
1656.595086
 20
-411.2522629999999
 30
0.0
 40
22.8125
100
AcDbArc
 50
347.9819880000007
 51
12.01801199999931
  0
LINE
  5
F435
330
18
100
AcDbEntity
  8
0
100
AcDbLine
 10
1590.35599725872
 20
-715.4319779999999
 30
0.0
 11
1598.896922858721
 21
-715.4319779999999
 31
0.0
  0
LINE
  5
F436
330
18
100
AcDbEntity
  8
0
100
AcDbLine
 10
1590.35599725872
 20
-712.2291308999999
 30
0.0
 11
1599.25279475872
 21
-712.2291308999999
 31
0.0
  0
ELLIPSE
  5
F437
330
18
100
AcDbEntity
  8
0
100
AcDbEllipse
 10
1592.49122865872
 20
-721.4818002999999
 30
0.0
 11
-3.019673222979207
 21
3.019673222979207
 31
0.0
210
0.0
220
0.0
230
1.0
 40
0.9999999878832936
 41
-0.7853984836150564
 42
2.356194484133991
  0
LINE
  5
F438
330
18
100
AcDbEntity
  8
0
100
AcDbLine
 10
1548.3631095
 20
-712.2291308999999
 30
0.0
 11
1551.9218285
 21
-712.2291308999999
 31
0.0
  0
ELLIPSE
  5
F439
330
18
100
AcDbEntity
  8
0
100
AcDbEllipse
 10
1548.0072376
 20
-721.8376721999999
 30
0.0
 11
2.768033770961259
 21
2.768033770961259
 31
0.0
210
0.0
220
0.0
230
0.9999999999999996
 40
0.9999999999999561
 41
3.926991166053133
 42
5.497787143782115
  0
LINE
  5
F43A
330
18
100
AcDbEntity
  8
0
100
AcDbLine
 10
1538.0428244
 20
-722.5494159999999
 30
0.0
 11
1538.0428244
 21
-725.7522630999999
 31
0.0
  0
LINE
  5
F43B
330
18
100
AcDbEntity
  8
0
100
AcDbLine
 10
1538.0428244
 20
-725.7522630999999
 30
0.0
 11
1548.0072376
 21
-725.7522630999999
 31
0.0
  0
ELLIPSE
  5
F43C
330
18
100
AcDbEntity
  8
0
100
AcDbEllipse
 10
1540.1780558
 20
-716.1437217999999
 30
0.0
 11
3.019673204684989
 21
3.019673204684989
 31
0.0
210
0.0
220
0.0
230
1.0
 40
0.9999999999999554
 41
2.356194141126472
 42
3.926991340586039
  0
ELLIPSE
  5
F43D
330
18
100
AcDbEntity
  8
0
100
AcDbEllipse
 10
1540.1780558
 20
-716.1437217999999
 30
0.0
 11
-3.019673204684968
 21
3.019673204684969
 31
0.0
210
0.0
220
0.0
230
1.0
 40
0.999999999999984
 41
0.7853981633974563
 42
2.356194490192336
  0
LINE
  5
F43E
330
18
100
AcDbEntity
  8
0
100
AcDbLine
 10
1538.0428244
 20
-722.5494159999999
 30
0.0
 11
1547.2954938
 21
-722.5494159999999
 31
0.0
  0
LINE
  5
F43F
330
18
100
AcDbEntity
  8
0
100
AcDbLine
 10
1535.907593
 20
-712.2291308999999
 30
0.0
 11
1539.466312
 21
-712.2291308999999
 31
0.0
  0
LINE
  5
F440
330
18
100
AcDbEntity
  8
0
100
AcDbLine
 10
1535.907593
 20
-712.2291308999999
 30
0.0
 11
1535.907593
 21
-716.1437217999999
 31
0.0
  0
LINE
  5
F441
330
18
100
AcDbEntity
  8
0
100
AcDbLine
 10
1540.5339277
 20
-717.2113375
 30
0.0
 11
1547.2954938
 21
-717.2113375
 31
0.0
  0
LINE
  5
F442
330
18
100
AcDbEntity
  8
0
100
AcDbLine
 10
1540.1780558
 20
-720.4141845999999
 30
0.0
 11
1547.2954938
 21
-720.4141845999999
 31
0.0
  0
LINE
  5
F443
330
18
100
AcDbEntity
  8
0
100
AcDbLine
 10
1539.466312
 20
-712.2291308999999
 30
0.0
 11
1539.466312
 21
-716.1437217999999
 31
0.0
  0
LINE
  5
F444
330
18
100
AcDbEntity
  8
0
100
AcDbLine
 10
1548.3631095
 20
-712.2291308999999
 30
0.0
 11
1548.3631095
 21
-716.1437217999999
 31
0.0
  0
LINE
  5
F445
330
18
100
AcDbEntity
  8
0
100
AcDbLine
 10
1548.3631095
 20
-719.3465688999999
 30
0.0
 11
1548.3631095
 21
-721.4818002999999
 31
0.0
  0
ELLIPSE
  5
F446
330
18
100
AcDbEntity
  8
0
100
AcDbEllipse
 10
1540.5339277
 20
-716.1437217999999
 30
0.0
 11
0.7549183011712472
 21
0.7549183011712472
 31
0.0
210
0.0
220
0.0
230
1.0
 40
0.999999999999982
 41
2.356194141126485
 42
3.926991340586026
  0
ELLIPSE
  5
F447
330
18
100
AcDbEntity
  8
0
100
AcDbEllipse
 10
1547.2954938
 20
-719.3465688999999
 30
0.0
 11
-0.754918301171256
 21
0.754918301171256
 31
0.0
210
0.0
220
0.0
230
1.0
 40
0.9999999999999285
 41
2.356194839258159
 42
3.926990816987276
  0
ELLIPSE
  5
F448
330
18
100
AcDbEntity
  8
0
100
AcDbEllipse
 10
1547.2954938
 20
-716.1437217999999
 30
0.0
 11
-0.754918301171256
 21
0.754918301171256
 31
0.0
210
0.0
220
0.0
230
1.0
 40
0.9999999999999285
 41
2.356194839258159
 42
3.926990816987276
  0
ELLIPSE
  5
F449
330
18
100
AcDbEntity
  8
0
100
AcDbEllipse
 10
1547.2954938
 20
-721.4818002999999
 30
0.0
 11
-0.754918301171256
 21
0.754918301171256
 31
0.0
210
0.0
220
0.0
230
1.0
 40
0.9999999999999285
 41
2.356194839258159
 42
3.926990816987276
  0
LINE
  5
F44A
330
18
100
AcDbEntity
  8
0
100
AcDbLine
 10
1569.35955515872
 20
-712.2291308999999
 30
0.0
 11
1582.17094355872
 21
-712.2291308999999
 31
0.0
  0
LINE
  5
F44B
330
18
100
AcDbEntity
  8
0
100
AcDbLine
 10
1569.35955515872
 20
-725.7522630999999
 30
0.0
 11
1572.91827415872
 21
-725.7522630999999
 31
0.0
  0
LINE
  5
F44C
330
18
100
AcDbEntity
  8
0
100
AcDbLine
 10
1569.35955515872
 20
-712.2291308999999
 30
0.0
 11
1569.35955515872
 21
-725.7522630999999
 31
0.0
  0
LINE
  5
F44D
330
18
100
AcDbEntity
  8
0
100
AcDbLine
 10
1568.291935900001
 20
-716.4995937
 30
0.0
 11
1568.291935900001
 21
-725.7522630999999
 31
0.0
  0
ELLIPSE
  5
F44E
330
18
100
AcDbEntity
  8
0
100
AcDbEllipse
 10
1557.259907
 20
-721.4818002999999
 30
0.0
 11
-3.019673222979207
 21
3.019673222979207
 31
0.0
210
0.0
220
0.0
230
1.0
 40
0.9999999878832936
 41
-0.7853984836150564
 42
2.356194484133991
  0
LINE
  5
F44F
330
18
100
AcDbEntity
  8
0
100
AcDbLine
 10
1557.259907
 20
-725.7522630999999
 30
0.0
 11
1568.291935900001
 21
-725.7522630999999
 31
0.0
  0
LINE
  5
F450
330
18
100
AcDbEntity
  8
0
100
AcDbLine
 10
1557.259907
 20
-722.5494159999999
 30
0.0
 11
1564.733216900001
 21
-722.5494159999999
 31
0.0
  0
LINE
  5
F451
330
18
100
AcDbEntity
  8
0
100
AcDbLine
 10
1555.1246756
 20
-715.4319779999999
 30
0.0
 11
1563.665601200001
 21
-715.4319779999999
 31
0.0
  0
LINE
  5
F452
330
18
100
AcDbEntity
  8
0
100
AcDbLine
 10
1555.1246756
 20
-712.2291308999999
 30
0.0
 11
1564.021476658719
 21
-712.2291308999999
 31
0.0
  0
LINE
  5
F453
330
18
100
AcDbEntity
  8
0
100
AcDbLine
 10
1557.259907
 20
-720.4141845999999
 30
0.0
 11
1564.733216900001
 21
-720.4141845999999
 31
0.0
  0
LINE
  5
F454
330
18
100
AcDbEntity
  8
0
100
AcDbLine
 10
1557.259907
 20
-717.2113375
 30
0.0
 11
1564.733216900001
 21
-717.2113375
 31
0.0
  0
LINE
  5
F455
330
18
100
AcDbEntity
  8
0
100
AcDbLine
 10
1551.9218285
 20
-712.2291308999999
 30
0.0
 11
1551.9218285
 21
-721.8376721999999
 31
0.0
  0
LINE
  5
F456
330
18
100
AcDbEntity
  8
0
100
AcDbLine
 10
1555.1246756
 20
-712.2291308999999
 30
0.0
 11
1555.1246756
 21
-715.4319779999999
 31
0.0
  0
ELLIPSE
  5
F457
330
18
100
AcDbEntity
  8
0
100
AcDbEllipse
 10
1557.259907
 20
-721.4818002999999
 30
0.0
 11
-0.7549183697121604
 21
0.7549183697121604
 31
0.0
210
0.0
220
0.0
230
1.0
 40
0.9999998184150401
 41
-0.7853985683492447
 42
2.356194399399856
  0
LINE
  5
F458
330
18
100
AcDbEntity
  8
0
100
AcDbLine
 10
1564.733216900001
 20
-716.4995937
 30
0.0
 11
1564.733216900001
 21
-717.2113375
 31
0.0
  0
LINE
  5
F459
330
18
100
AcDbEntity
  8
0
100
AcDbLine
 10
1564.733216900001
 20
-720.4141845999999
 30
0.0
 11
1564.733216900001
 21
-722.5494159999999
 31
0.0
  0
ELLIPSE
  5
F45A
330
18
100
AcDbEntity
  8
0
100
AcDbEllipse
 10
1563.665601200001
 20
-716.4995937
 30
0.0
 11
-0.7549183011712759
 21
0.754918301171276
 31
0.0
210
0.0
220
0.0
230
1.0
 40
0.9999999999999706
 41
3.926990816987256
 42
5.497786829622815
  0
ELLIPSE
  5
F45B
330
18
100
AcDbEntity
  8
0
100
AcDbEllipse
 10
1564.021476658719
 20
-716.4995937
 30
0.0
 11
-3.019673204684975
 21
3.019673204684975
 31
0.0
210
0.0
220
0.0
230
1.0
 40
0.9999999999999753
 41
3.926990816987253
 42
5.49778682962287
  0
LINE
  5
F45C
330
18
100
AcDbEntity
  8
0
100
AcDbLine
 10
1587.15315015872
 20
-717.2113375
 30
0.0
 11
1587.15315015872
 21
-725.7522630999999
 31
0.0
  0
LINE
  5
F45D
330
18
100
AcDbEntity
  8
0
100
AcDbLine
 10
1572.91827415872
 20
-715.4319779999999
 30
0.0
 11
1572.91827415872
 21
-725.7522630999999
 31
0.0
  0
LINE
  5
F45E
330
18
100
AcDbEntity
  8
0
100
AcDbLine
 10
1583.59443115872
 20
-716.8554656
 30
0.0
 11
1583.59443115872
 21
-725.7522630999999
 31
0.0
  0
LINE
  5
F45F
330
18
100
AcDbEntity
  8
0
100
AcDbLine
 10
1580.03571215872
 20
-716.4995937
 30
0.0
 11
1580.03571215872
 21
-725.7522630999999
 31
0.0
  0
LINE
  5
F460
330
18
100
AcDbEntity
  8
0
100
AcDbLine
 10
1576.47699315872
 20
-716.8554656
 30
0.0
 11
1576.47699315872
 21
-725.7522630999999
 31
0.0
  0
LINE
  5
F461
330
18
100
AcDbEntity
  8
0
100
AcDbLine
 10
1576.47699315872
 20
-725.7522630999999
 30
0.0
 11
1580.03571215872
 21
-725.7522630999999
 31
0.0
  0
LINE
  5
F462
330
18
100
AcDbEntity
  8
0
100
AcDbLine
 10
1583.59443115872
 20
-725.7522630999999
 30
0.0
 11
1587.15315015872
 21
-725.7522630999999
 31
0.0
  0
LINE
  5
F463
330
18
100
AcDbEntity
  8
0
100
AcDbLine
 10
1578.968092900001
 20
-715.4319779999999
 30
0.0
 11
1582.17094355872
 21
-715.4319779999999
 31
0.0
  0
LINE
  5
F464
330
18
100
AcDbEntity
  8
0
100
AcDbLine
 10
1572.91827415872
 20
-715.4319779999999
 30
0.0
 11
1575.05350555872
 21
-715.4319779999999
 31
0.0
  0
ELLIPSE
  5
F465
330
18
100
AcDbEntity
  8
0
100
AcDbEllipse
 10
1575.05350555872
 20
-716.8554656
 30
0.0
 11
-1.006557734894991
 21
1.006557734894991
 31
0.0
210
0.0
220
0.0
230
1.0
 40
0.9999999999999753
 41
3.926990816987253
 42
5.497786829622923
  0
ELLIPSE
  5
F466
330
18
100
AcDbEntity
  8
0
100
AcDbEllipse
 10
1578.968092900001
 20
-716.4995937
 30
0.0
 11
-0.7549183011712759
 21
0.754918301171276
 31
0.0
210
0.0
220
0.0
230
1.0
 40
0.9999999999999706
 41
3.926990816987256
 42
5.497786829622815
  0
LINE
  5
F467
330
18
100
AcDbEntity
  8
0
100
AcDbLine
 10
1590.35599725872
 20
-712.2291308999999
 30
0.0
 11
1590.35599725872
 21
-715.4319779999999
 31
0.0
  0
ELLIPSE
  5
F468
330
18
100
AcDbEntity
  8
0
100
AcDbEllipse
 10
1582.17094355872
 20
-716.8554656
 30
0.0
 11
-1.006557734894991
 21
1.006557734894991
 31
0.0
210
0.0
220
0.0
230
1.0
 40
0.9999999999999753
 41
3.926990816987253
 42
5.497786829622923
  0
ELLIPSE
  5
F469
330
18
100
AcDbEntity
  8
0
100
AcDbEllipse
 10
1582.17094355872
 20
-717.2113375
 30
0.0
 11
-3.522952072132455
 21
3.522952072132455
 31
0.0
210
0.0
220
0.0
230
1.0
 40
0.999999999999996
 41
3.926990816987243
 42
5.497786829622889
  0
ELLIPSE
  5
F46A
330
18
100
AcDbEntity
  8
0
100
AcDbEllipse
 10
1631.637134100002
 20
-716.4995937
 30
0.0
 11
-3.019673204684975
 21
3.019673204684975
 31
0.0
210
0.0
220
0.0
230
1.0
 40
0.9999999999999753
 41
3.926990816987253
 42
5.49778682962287
  0
LINE
  5
F46B
330
18
100
AcDbEntity
  8
0
100
AcDbLine
 10
1624.875560882564
 20
-722.5494159999999
 30
0.0
 11
1632.348870782565
 21
-722.5494159999999
 31
0.0
  0
LINE
  5
F46C
330
18
100
AcDbEntity
  8
0
100
AcDbLine
 10
1624.875568000002
 20
-725.7522630999999
 30
0.0
 11
1635.907589782564
 21
-725.7522630999999
 31
0.0
  0
LINE
  5
F46D
330
18
100
AcDbEntity
  8
0
100
AcDbLine
 10
1624.875560882564
 20
-720.4141845999999
 30
0.0
 11
1632.348870782565
 21
-720.4141845999999
 31
0.0
  0
LINE
  5
F46E
330
18
100
AcDbEntity
  8
0
100
AcDbLine
 10
1624.875568000002
 20
-717.2113375
 30
0.0
 11
1632.348870782565
 21
-717.2113375
 31
0.0
  0
ELLIPSE
  5
F46F
330
18
100
AcDbEntity
  8
0
100
AcDbEllipse
 10
1631.281258641283
 20
-716.4995937
 30
0.0
 11
-0.7549183011712759
 21
0.754918301171276
 31
0.0
210
0.0
220
0.0
230
1.0
 40
0.9999999999999706
 41
3.926990816987256
 42
5.497786829622815
  0
LINE
  5
F470
330
18
100
AcDbEntity
  8
0
100
AcDbLine
 10
1604.590873258721
 20
-725.7522630999999
 30
0.0
 11
1612.775923400002
 21
-725.7522630999999
 31
0.0
  0
LINE
  5
F471
330
18
100
AcDbEntity
  8
0
100
AcDbLine
 10
1604.590873258721
 20
-712.2291308999999
 30
0.0
 11
1612.775923400002
 21
-712.2291308999999
 31
0.0
  0
LINE
  5
F472
330
18
100
AcDbEntity
  8
0
100
AcDbLine
 10
1608.149592258721
 20
-715.7878498999999
 30
0.0
 11
1612.775923400002
 21
-715.7878498999999
 31
0.0
  0
LINE
  5
F473
330
18
100
AcDbEntity
  8
0
100
AcDbLine
 10
1608.149592258721
 20
-722.1935440999999
 30
0.0
 11
1612.775923400002
 21
-722.1935440999999
 31
0.0
  0
LINE
  5
F474
330
18
100
AcDbEntity
  8
0
100
AcDbLine
 10
1604.590873258721
 20
-712.2291308999999
 30
0.0
 11
1604.590873258721
 21
-725.7522630999999
 31
0.0
  0
LINE
  5
F475
330
18
100
AcDbEntity
  8
0
100
AcDbLine
 10
1603.523254000002
 20
-716.4995937
 30
0.0
 11
1603.523254000002
 21
-725.7522630999999
 31
0.0
  0
LINE
  5
F476
330
18
100
AcDbEntity
  8
0
100
AcDbLine
 10
1592.49122865872
 20
-725.7522630999999
 30
0.0
 11
1603.523254000002
 21
-725.7522630999999
 31
0.0
  0
ELLIPSE
  5
F477
330
18
100
AcDbEntity
  8
0
100
AcDbEllipse
 10
1599.25279475872
 20
-716.4995937
 30
0.0
 11
-3.019673204684975
 21
3.019673204684975
 31
0.0
210
0.0
220
0.0
230
1.0
 40
0.9999999999999753
 41
3.926990816987253
 42
5.49778682962287
  0
LINE
  5
F478
330
18
100
AcDbEntity
  8
0
100
AcDbLine
 10
1592.49122865872
 20
-722.5494159999999
 30
0.0
 11
1599.964535000002
 21
-722.5494159999999
 31
0.0
  0
LINE
  5
F479
330
18
100
AcDbEntity
  8
0
100
AcDbLine
 10
1592.49122865872
 20
-720.4141845999999
 30
0.0
 11
1599.964535000002
 21
-720.4141845999999
 31
0.0
  0
LINE
  5
F47A
330
18
100
AcDbEntity
  8
0
100
AcDbLine
 10
1592.49122865872
 20
-717.2113375
 30
0.0
 11
1599.964535000002
 21
-717.2113375
 31
0.0
  0
LINE
  5
F47B
330
18
100
AcDbEntity
  8
0
100
AcDbLine
 10
1599.964535000002
 20
-716.4995937
 30
0.0
 11
1599.964535000002
 21
-717.2113375
 31
0.0
  0
LINE
  5
F47C
330
18
100
AcDbEntity
  8
0
100
AcDbLine
 10
1599.964535000002
 20
-720.4141845999999
 30
0.0
 11
1599.964535000002
 21
-722.5494159999999
 31
0.0
  0
ELLIPSE
  5
F47D
330
18
100
AcDbEntity
  8
0
100
AcDbEllipse
 10
1598.896922858721
 20
-716.4995937
 30
0.0
 11
-0.7549183011712759
 21
0.754918301171276
 31
0.0
210
0.0
220
0.0
230
1.0
 40
0.9999999999999706
 41
3.926990816987256
 42
5.497786829623027
  0
ELLIPSE
  5
F47E
330
18
100
AcDbEntity
  8
0
100
AcDbEllipse
 10
1592.49122865872
 20
-721.4818002999999
 30
0.0
 11
-0.7549183698150041
 21
0.7549183698150041
 31
0.0
210
0.0
220
0.0
230
1.0
 40
0.9999998181425773
 41
-0.7853985684852632
 42
2.356194399263625
  0
LINE
  5
F47F
330
18
100
AcDbEntity
  8
0
100
AcDbLine
 10
1608.149592258721
 20
-715.7878498999999
 30
0.0
 11
1608.149592258721
 21
-722.1935440999999
 31
0.0
  0
ELLIPSE
  5
F480
330
18
100
AcDbEntity
  8
0
100
AcDbEllipse
 10
1624.875568000002
 20
-721.4818002999999
 30
0.0
 11
-3.019673222979207
 21
3.019673222979207
 31
0.0
210
0.0
220
0.0
230
1.0
 40
0.9999999878832936
 41
-0.7853984836150564
 42
2.356194484133991
  0
ELLIPSE
  5
F481
330
18
100
AcDbEntity
  8
0
100
AcDbEllipse
 10
1612.775923400002
 20
-718.990697
 30
0.0
 11
4.78114925944915
 21
4.78114925944915
 31
0.0
210
0.0
220
0.0
230
1.0
 40
0.9999999921784439
 41
3.926991169963858
 42
7.06858316032856
  0
ELLIPSE
  5
F482
330
18
100
AcDbEntity
  8
0
100
AcDbEllipse
 10
1612.775923400002
 20
-718.990697
 30
0.0
 11
2.264754944415278
 21
2.264754944415278
 31
0.0
210
0.0
220
0.0
230
1.0
 40
0.9999999638799097
 41
3.926991184113137
 42
7.068583174477843
  0
LINE
  5
F483
330
18
100
AcDbEntity
  8
0
100
AcDbLine
 10
1622.740336600002
 20
-715.4319779999999
 30
0.0
 11
1631.281258641283
 21
-715.4319779999999
 31
0.0
  0
LINE
  5
F484
330
18
100
AcDbEntity
  8
0
100
AcDbLine
 10
1622.740336600002
 20
-712.2291308999999
 30
0.0
 11
1622.740336600002
 21
-715.4319779999999
 31
0.0
  0
ELLIPSE
  5
F485
330
18
100
AcDbEntity
  8
0
100
AcDbEllipse
 10
1624.875560882564
 20
-721.4818002999999
 30
0.0
 11
-0.7549183698150041
 21
0.7549183698150041
 31
0.0
210
0.0
220
0.0
230
1.0
 40
0.9999998181425773
 41
-0.7853985684852632
 42
2.356194399263625
  0
LINE
  5
F486
330
18
100
AcDbEntity
  8
0
100
AcDbLine
 10
1622.740336600002
 20
-712.2291308999999
 30
0.0
 11
1631.637134100002
 21
-712.2291308999999
 31
0.0
  0
LINE
  5
F487
330
18
100
AcDbEntity
  8
0
100
AcDbLine
 10
1635.907589782564
 20
-716.4995937
 30
0.0
 11
1635.907589782564
 21
-725.7522630999999
 31
0.0
  0
LINE
  5
F488
330
18
100
AcDbEntity
  8
0
100
AcDbLine
 10
1632.348870782565
 20
-716.4995937
 30
0.0
 11
1632.348870782565
 21
-717.2113375
 31
0.0
  0
LINE
  5
F489
330
18
100
AcDbEntity
  8
0
100
AcDbLine
 10
1632.348870782565
 20
-720.4141845999999
 30
0.0
 11
1632.348870782565
 21
-722.5494159999999
 31
0.0
  0
SOLID
  5
F48B
330
18
100
AcDbEntity
  8
0
100
AcDbTrace
 10
1565.407586
 20
-742.2522629999999
 30
0.0
 11
1565.407586
 21
-742.3522629999999
 31
0.0
 12
1565.097803
 22
-742.2260149999999
 32
0.0
 13
1565.070404
 23
-742.3848429999999
 33
0.0
  0
SOLID
  5
F48C
330
18
100
AcDbEntity
  8
0
100
AcDbTrace
 10
1564.407586
 20
-739.6522629999999
 30
0.0
 11
1565.407586
 21
-739.6522629999999
 31
0.0
 12
1564.407586
 22
-742.2522629999999
 32
0.0
 13
1565.407586
 23
-742.2522629999999
 33
0.0
  0
LINE
  5
F490
330
18
100
AcDbEntity
  8
0
100
AcDbLine
 10
1564.407586
 20
-739.6522629999999
 30
0.0
 11
1565.407586
 21
-739.6522629999999
 31
0.0
  0
ARC
  5
F491
330
18
100
AcDbEntity
  8
0
100
AcDbCircle
 10
1564.307586
 20
-742.3522629999999
 30
0.0
 40
1.1
100
AcDbArc
 50
270.0000200000019
 51
0.0
  0
SOLID
  5
F492
330
18
100
AcDbEntity
  8
0
100
AcDbTrace
 10
1562.107586
 20
-741.952263
 30
0.0
 11
1562.207586
 21
-741.952263
 31
0.0
 12
1562.074818
 22
-741.4147889999999
 32
0.0
 13
1562.363992999999
 23
-741.375539
 33
0.0
  0
LINE
  5
F493
330
18
100
AcDbEntity
  8
0
100
AcDbLine
 10
1562.107586
 20
-741.952263
 30
0.0
 11
1564.107586
 21
-741.952263
 31
0.0
  0
SOLID
  5
F494
330
18
100
AcDbEntity
  8
0
100
AcDbTrace
 10
1561.507586
 20
-742.5522629999999
 30
0.0
 11
1561.507586
 21
-743.452263
 31
0.0
 12
1564.107586
 22
-742.5522629999999
 32
0.0
 13
1564.107586
 23
-743.452263
 33
0.0
  0
LINE
  5
F497
330
18
100
AcDbEntity
  8
0
100
AcDbLine
 10
1561.507586
 20
-742.5522629999999
 30
0.0
 11
1564.107586
 21
-742.5522629999999
 31
0.0
  0
LINE
  5
F498
330
18
100
AcDbEntity
  8
0
100
AcDbLine
 10
1561.507586
 20
-743.452263
 30
0.0
 11
1564.307586
 21
-743.452263
 31
0.0
  0
ARC
  5
F499
330
18
100
AcDbEntity
  8
0
100
AcDbCircle
 10
1562.207586
 20
-740.7522629999999
 30
0.0
 40
0.3
100
AcDbArc
 50
179.9999799999979
 51
270.0000300000029
  0
LINE
  5
F49B
330
18
100
AcDbEntity
  8
0
100
AcDbLine
 10
1560.907586
 20
-739.6522629999999
 30
0.0
 11
1560.907586
 21
-740.7522629999999
 31
0.0
  0
LINE
  5
F49C
330
18
100
AcDbEntity
  8
0
100
AcDbLine
 10
1560.907586
 20
-739.6522629999999
 30
0.0
 11
1561.907586
 21
-739.6522629999999
 31
0.0
  0
LINE
  5
F49D
330
18
100
AcDbEntity
  8
0
100
AcDbLine
 10
1561.907586
 20
-739.6522629999999
 30
0.0
 11
1561.907586
 21
-740.7522629999999
 31
0.0
  0
LINE
  5
F49E
330
18
100
AcDbEntity
  8
0
100
AcDbLine
 10
1561.507586
 20
-742.5522629999999
 30
0.0
 11
1561.507586
 21
-743.452263
 31
0.0
  0
ARC
  5
F49F
330
18
100
AcDbEntity
  8
0
100
AcDbCircle
 10
1562.107586
 20
-740.7522629999999
 30
0.0
 40
1.199999999999999
100
AcDbArc
 50
179.9999799999979
 51
270.0000300000029
  0
SOLID
  5
F4A0
330
18
100
AcDbEntity
  8
0
100
AcDbTrace
 10
1564.107586
 20
-743.452263
 30
0.0
 11
1564.307586
 21
-743.452263
 31
0.0
 12
1564.094854
 22
-743.2561939999999
 32
0.0
 13
1564.322881999999
 23
-743.200152
 33
0.0
  0
SOLID
  5
F4A1
330
18
100
AcDbEntity
  8
0
100
AcDbTrace
 10
1564.107586
 20
-742.5522629999999
 30
0.0
 11
1564.107586
 21
-743.452263
 31
0.0
 12
1564.107586
 22
-743.452263
 32
0.0
 13
1564.307586
 23
-743.452263
 33
0.0
  0
SOLID
  5
F4A2
330
18
100
AcDbEntity
  8
0
100
AcDbTrace
 10
1562.207586
 20
-741.952263
 30
0.0
 11
1562.207586
 21
-741.0522629999999
 31
0.0
 12
1564.107586
 22
-741.952263
 32
0.0
 13
1564.107586
 23
-741.0522629999999
 33
0.0
  0
LINE
  5
F4A4
330
18
100
AcDbEntity
  8
0
100
AcDbLine
 10
1562.207586
 20
-741.0522629999999
 30
0.0
 11
1564.107586
 21
-741.0522629999999
 31
0.0
  0
LINE
  5
F4A5
330
18
100
AcDbEntity
  8
0
100
AcDbLine
 10
1564.407586
 20
-739.6522629999999
 30
0.0
 11
1564.407586
 21
-740.7522629999999
 31
0.0
  0
LINE
  5
F4A6
330
18
100
AcDbEntity
  8
0
100
AcDbLine
 10
1564.407586
 20
-741.6522629999999
 30
0.0
 11
1564.407586
 21
-742.2522629999999
 31
0.0
  0
ARC
  5
F4A7
330
18
100
AcDbEntity
  8
0
100
AcDbCircle
 10
1564.107586
 20
-741.6522629999999
 30
0.0
 40
0.3
100
AcDbArc
 50
270.0000200000019
 51
0.0
  0
ARC
  5
F4A8
330
18
100
AcDbEntity
  8
0
100
AcDbCircle
 10
1564.107586
 20
-740.7522629999999
 30
0.0
 40
0.3
100
AcDbArc
 50
270.0000200000019
 51
0.0
  0
ARC
  5
F4A9
330
18
100
AcDbEntity
  8
0
100
AcDbCircle
 10
1564.107586
 20
-742.2522629999999
 30
0.0
 40
0.3
100
AcDbArc
 50
270.0000200000019
 51
0.0
  0
ARC
  5
F4AB
330
18
100
AcDbEntity
  8
0
100
AcDbCircle
 10
1581.407588
 20
-740.852263
 30
0.0
 40
1.199999999999999
100
AcDbArc
 50
0.0
 51
89.9999820000008
  0
ARC
  5
F4AF
330
18
100
AcDbEntity
  8
0
100
AcDbCircle
 10
1575.707587
 20
-741.0522629999999
 30
0.0
 40
1.399999999999999
100
AcDbArc
 50
0.0
 51
89.9999820000008
  0
ARC
  5
F4B0
330
18
100
AcDbEntity
  8
0
100
AcDbCircle
 10
1569.707585999999
 20
-740.852263
 30
0.0
 40
1.199999999999999
100
AcDbArc
 50
0.0
 51
89.9999820000008
  0
SOLID
  5
F4B1
330
18
100
AcDbEntity
  8
0
100
AcDbTrace
 10
1577.107587
 20
-741.0522629999999
 30
0.0
 11
1576.107587
 21
-741.0522629999999
 31
0.0
 12
1576.107587
 22
-740.952263
 32
0.0
 13
1576.107587
 23
-740.952263
 33
0.0
  0
SOLID
  5
F4B2
330
18
100
AcDbEntity
  8
0
100
AcDbTrace
 10
1577.107587
 20
-743.452263
 30
0.0
 11
1576.107587
 21
-743.452263
 31
0.0
 12
1577.107587
 22
-741.0522629999999
 32
0.0
 13
1576.107587
 23
-741.0522629999999
 33
0.0
  0
LINE
  5
F4B4
330
18
100
AcDbEntity
  8
0
100
AcDbLine
 10
1576.107587
 20
-743.452263
 30
0.0
 11
1577.107587
 21
-743.452263
 31
0.0
  0
SOLID
  5
F4B5
330
18
100
AcDbEntity
  8
0
100
AcDbTrace
 10
1569.907586
 20
-740.852263
 30
0.0
 11
1570.907586
 21
-740.852263
 31
0.0
 12
1569.907586
 22
-742.5522629999999
 32
0.0
 13
1570.907586
 23
-743.452263
 33
0.0
  0
SOLID
  5
F4B6
330
18
100
AcDbEntity
  8
0
100
AcDbTrace
 10
1567.807587
 20
-742.5522629999999
 30
0.0
 11
1567.807586
 21
-743.452263
 31
0.0
 12
1569.907586
 22
-742.5522629999999
 32
0.0
 13
1570.907586
 23
-743.452263
 33
0.0
  0
LINE
  5
F4B7
330
18
100
AcDbEntity
  8
0
100
AcDbLine
 10
1567.807586
 20
-743.452263
 30
0.0
 11
1570.907586
 21
-743.452263
 31
0.0
  0
SOLID
  5
F4B8
330
18
100
AcDbEntity
  8
0
100
AcDbTrace
 10
1567.807586
 20
-741.0522629999999
 30
0.0
 11
1567.807587
 21
-741.952263
 31
0.0
 12
1569.907586
 22
-741.0522629999999
 32
0.0
 13
1569.907586
 23
-741.952263
 33
0.0
  0
SOLID
  5
F4B9
330
18
100
AcDbEntity
  8
0
100
AcDbTrace
 10
1567.207586
 20
-739.6522629999999
 30
0.0
 11
1567.207586
 21
-740.5522629999999
 31
0.0
 12
1569.607586
 22
-739.6522629999999
 32
0.0
 13
1569.607586
 23
-740.5522629999999
 33
0.0
  0
LINE
  5
F4BB
330
18
100
AcDbEntity
  8
0
100
AcDbLine
 10
1567.807587
 20
-742.5522629999999
 30
0.0
 11
1569.907586
 21
-742.5522629999999
 31
0.0
  0
LINE
  5
F4BC
330
18
100
AcDbEntity
  8
0
100
AcDbLine
 10
1567.207586
 20
-740.5522629999999
 30
0.0
 11
1569.607586
 21
-740.5522629999999
 31
0.0
  0
LINE
  5
F4BD
330
18
100
AcDbEntity
  8
0
100
AcDbLine
 10
1567.207586
 20
-739.6522629999999
 30
0.0
 11
1569.707585999999
 21
-739.6522629999999
 31
0.0
  0
LINE
  5
F4BE
330
18
100
AcDbEntity
  8
0
100
AcDbLine
 10
1567.807587
 20
-741.952263
 30
0.0
 11
1569.907586
 21
-741.952263
 31
0.0
  0
LINE
  5
F4BF
330
18
100
AcDbEntity
  8
0
100
AcDbLine
 10
1567.807586
 20
-741.0522629999999
 30
0.0
 11
1569.907586
 21
-741.0522629999999
 31
0.0
  0
ARC
  5
F4C0
330
18
100
AcDbEntity
  8
0
100
AcDbCircle
 10
1567.807586
 20
-742.2522629999999
 30
0.0
 40
1.199999999999999
100
AcDbArc
 50
89.9999820000008
 51
270.0
  0
ARC
  5
F4C1
330
18
100
AcDbEntity
  8
0
100
AcDbCircle
 10
1567.807587
 20
-742.2522629999999
 30
0.0
 40
0.3
100
AcDbArc
 50
89.9999820000008
 51
270.0
  0
LINE
  5
F4C3
330
18
100
AcDbEntity
  8
0
100
AcDbLine
 10
1565.407586
 20
-739.6522629999999
 30
0.0
 11
1565.407586
 21
-742.3522629999999
 31
0.0
  0
LINE
  5
F4C4
330
18
100
AcDbEntity
  8
0
100
AcDbLine
 10
1567.207586
 20
-739.6522629999999
 30
0.0
 11
1567.207586
 21
-740.5522629999999
 31
0.0
  0
SOLID
  5
F4C5
330
18
100
AcDbEntity
  8
0
100
AcDbTrace
 10
1569.607586
 20
-739.6522629999999
 30
0.0
 11
1569.707585999999
 21
-739.6522629999999
 31
0.0
 12
1569.607586
 22
-740.2272629999999
 32
0.0
 13
1569.81454
 23
-739.9831769999999
 33
0.0
  0
LINE
  5
F4C6
330
18
100
AcDbEntity
  8
0
100
AcDbLine
 10
1569.907586
 20
-740.852263
 30
0.0
 11
1569.907586
 21
-741.0522629999999
 31
0.0
  0
LINE
  5
F4C7
330
18
100
AcDbEntity
  8
0
100
AcDbLine
 10
1569.907586
 20
-741.952263
 30
0.0
 11
1569.907586
 21
-742.5522629999999
 31
0.0
  0
ARC
  5
F4C8
330
18
100
AcDbEntity
  8
0
100
AcDbCircle
 10
1569.607586
 20
-740.852263
 30
0.0
 40
0.3
100
AcDbArc
 50
0.0
 51
89.9999820000008
  0
ARC
  5
F4CA
330
18
100
AcDbEntity
  8
0
100
AcDbCircle
 10
1573.707587
 20
-740.952263
 30
0.0
 40
0.4
100
AcDbArc
 50
0.0
 51
89.9999820000008
  0
SOLID
  5
F4CB
330
18
100
AcDbEntity
  8
0
100
AcDbTrace
 10
1573.107586999999
 20
-740.5522629999999
 30
0.0
 11
1572.107587
 21
-739.6522629999999
 31
0.0
 12
1575.707587
 22
-740.5522629999999
 32
0.0
 13
1575.707587
 23
-739.6522629999999
 33
0.0
  0
LINE
  5
F4CC
330
18
100
AcDbEntity
  8
0
100
AcDbLine
 10
1572.107587
 20
-739.6522629999999
 30
0.0
 11
1575.707587
 21
-739.6522629999999
 31
0.0
  0
SOLID
  5
F4CD
330
18
100
AcDbEntity
  8
0
100
AcDbTrace
 10
1573.107586999999
 20
-743.452263
 30
0.0
 11
1572.107587
 21
-743.452263
 31
0.0
 12
1573.107586999999
 22
-740.5522629999999
 32
0.0
 13
1572.107587
 23
-739.6522629999999
 33
0.0
  0
LINE
  5
F4CE
330
18
100
AcDbEntity
  8
0
100
AcDbLine
 10
1572.107587
 20
-739.6522629999999
 30
0.0
 11
1572.107587
 21
-743.452263
 31
0.0
  0
LINE
  5
F4CF
330
18
100
AcDbEntity
  8
0
100
AcDbLine
 10
1572.107587
 20
-743.452263
 30
0.0
 11
1573.107586999999
 21
-743.452263
 31
0.0
  0
LINE
  5
F4D0
330
18
100
AcDbEntity
  8
0
100
AcDbLine
 10
1573.107586999999
 20
-740.5522629999999
 30
0.0
 11
1573.107586999999
 21
-743.452263
 31
0.0
  0
LINE
  5
F4D1
330
18
100
AcDbEntity
  8
0
100
AcDbLine
 10
1570.907586
 20
-740.852263
 30
0.0
 11
1570.907586
 21
-743.452263
 31
0.0
  0
LINE
  5
F4D2
330
18
100
AcDbEntity
  8
0
100
AcDbLine
 10
1573.107586999999
 20
-740.5522629999999
 30
0.0
 11
1573.707587
 21
-740.5522629999999
 31
0.0
  0
SOLID
  5
F4D3
330
18
100
AcDbEntity
  8
0
100
AcDbTrace
 10
1575.107586999999
 20
-740.952263
 30
0.0
 11
1575.107586999999
 21
-740.852263
 31
0.0
 12
1574.794435
 22
-741.1241669999999
 32
0.0
 13
1574.807587
 23
-740.702263
 33
0.0
  0
SOLID
  5
F4D4
330
18
100
AcDbEntity
  8
0
100
AcDbTrace
 10
1575.107586999999
 20
-740.952263
 30
0.0
 11
1575.107586999999
 21
-740.852263
 31
0.0
 12
1574.807587
 22
-740.702263
 32
0.0
 13
1574.492837
 23
-740.952263
 33
0.0
  0
SOLID
  5
F4D5
330
18
100
AcDbEntity
  8
0
100
AcDbTrace
 10
1575.107586999999
 20
-743.452263
 30
0.0
 11
1574.107587
 21
-743.452263
 31
0.0
 12
1575.107586999999
 22
-740.952263
 32
0.0
 13
1574.107587
 23
-740.952263
 33
0.0
  0
LINE
  5
F4D7
330
18
100
AcDbEntity
  8
0
100
AcDbLine
 10
1576.107587
 20
-740.952263
 30
0.0
 11
1576.107587
 21
-743.452263
 31
0.0
  0
LINE
  5
F4D8
330
18
100
AcDbEntity
  8
0
100
AcDbLine
 10
1575.107586999999
 20
-740.852263
 30
0.0
 11
1575.107586999999
 21
-743.452263
 31
0.0
  0
LINE
  5
F4D9
330
18
100
AcDbEntity
  8
0
100
AcDbLine
 10
1574.107587
 20
-740.952263
 30
0.0
 11
1574.107587
 21
-743.452263
 31
0.0
  0
LINE
  5
F4DA
330
18
100
AcDbEntity
  8
0
100
AcDbLine
 10
1574.107587
 20
-743.452263
 30
0.0
 11
1575.107586999999
 21
-743.452263
 31
0.0
  0
LINE
  5
F4DB
330
18
100
AcDbEntity
  8
0
100
AcDbLine
 10
1574.807587
 20
-740.5522629999999
 30
0.0
 11
1575.707587
 21
-740.5522629999999
 31
0.0
  0
ARC
  5
F4DC
330
18
100
AcDbEntity
  8
0
100
AcDbCircle
 10
1575.707587
 20
-740.952263
 30
0.0
 40
0.4
100
AcDbArc
 50
0.0
 51
89.9999820000008
  0
ARC
  5
F4DD
330
18
100
AcDbEntity
  8
0
100
AcDbCircle
 10
1574.807587
 20
-740.852263
 30
0.0
 40
0.3
100
AcDbArc
 50
0.0
 51
89.9999820000008
  0
LINE
  5
F4DE
330
18
100
AcDbEntity
  8
0
100
AcDbLine
 10
1579.507588
 20
-743.452263
 30
0.0
 11
1582.607588
 21
-743.452263
 31
0.0
  0
SOLID
  5
F4DF
330
18
100
AcDbEntity
  8
0
100
AcDbTrace
 10
1579.507588
 20
-742.5522629999999
 30
0.0
 11
1579.507588
 21
-743.452263
 31
0.0
 12
1581.607588
 22
-742.5522629999999
 32
0.0
 13
1582.607588
 23
-743.452263
 33
0.0
  0
SOLID
  5
F4E0
330
18
100
AcDbEntity
  8
0
100
AcDbTrace
 10
1581.607588
 20
-740.852263
 30
0.0
 11
1582.607588
 21
-740.852263
 31
0.0
 12
1581.607588
 22
-742.5522629999999
 32
0.0
 13
1582.607588
 23
-743.452263
 33
0.0
  0
LINE
  5
F4E1
330
18
100
AcDbEntity
  8
0
100
AcDbLine
 10
1579.507588
 20
-741.0522629999999
 30
0.0
 11
1581.607588
 21
-741.0522629999999
 31
0.0
  0
LINE
  5
F4E2
330
18
100
AcDbEntity
  8
0
100
AcDbLine
 10
1579.507588
 20
-741.952263
 30
0.0
 11
1581.607588
 21
-741.952263
 31
0.0
  0
LINE
  5
F4E3
330
18
100
AcDbEntity
  8
0
100
AcDbLine
 10
1579.507588
 20
-742.5522629999999
 30
0.0
 11
1581.607588
 21
-742.5522629999999
 31
0.0
  0
SOLID
  5
F4E4
330
18
100
AcDbEntity
  8
0
100
AcDbTrace
 10
1579.507588
 20
-741.0522629999999
 30
0.0
 11
1579.507588
 21
-741.952263
 31
0.0
 12
1581.607588
 22
-741.0522629999999
 32
0.0
 13
1581.607588
 23
-741.952263
 33
0.0
  0
ARC
  5
F4E5
330
18
100
AcDbEntity
  8
0
100
AcDbCircle
 10
1579.507588
 20
-742.2522629999999
 30
0.0
 40
0.3
100
AcDbArc
 50
89.9999820000008
 51
270.0
  0
ARC
  5
F4E6
330
18
100
AcDbEntity
  8
0
100
AcDbCircle
 10
1579.507588
 20
-742.2522629999999
 30
0.0
 40
1.199999999999999
100
AcDbArc
 50
89.9999820000008
 51
270.0
  0
LINE
  5
F4E7
330
18
100
AcDbEntity
  8
0
100
AcDbLine
 10
1578.907588
 20
-739.6522629999999
 30
0.0
 11
1581.407588
 21
-739.6522629999999
 31
0.0
  0
LINE
  5
F4E8
330
18
100
AcDbEntity
  8
0
100
AcDbLine
 10
1578.907588
 20
-740.5522629999999
 30
0.0
 11
1581.307588
 21
-740.5522629999999
 31
0.0
  0
SOLID
  5
F4EA
330
18
100
AcDbEntity
  8
0
100
AcDbTrace
 10
1578.907588
 20
-739.6522629999999
 30
0.0
 11
1578.907588
 21
-740.5522629999999
 31
0.0
 12
1581.307588
 22
-739.6522629999999
 32
0.0
 13
1581.307588
 23
-740.5522629999999
 33
0.0
  0
LINE
  5
F4EC
330
18
100
AcDbEntity
  8
0
100
AcDbLine
 10
1578.907588
 20
-739.6522629999999
 30
0.0
 11
1578.907588
 21
-740.5522629999999
 31
0.0
  0
LINE
  5
F4ED
330
18
100
AcDbEntity
  8
0
100
AcDbLine
 10
1577.107587
 20
-741.0522629999999
 30
0.0
 11
1577.107587
 21
-743.452263
 31
0.0
  0
ARC
  5
F4EE
330
18
100
AcDbEntity
  8
0
100
AcDbCircle
 10
1581.307588
 20
-740.852263
 30
0.0
 40
0.3
100
AcDbArc
 50
0.0
 51
89.9999820000008
  0
LINE
  5
F4EF
330
18
100
AcDbEntity
  8
0
100
AcDbLine
 10
1581.607588
 20
-741.952263
 30
0.0
 11
1581.607588
 21
-742.5522629999999
 31
0.0
  0
LINE
  5
F4F0
330
18
100
AcDbEntity
  8
0
100
AcDbLine
 10
1581.607588
 20
-740.852263
 30
0.0
 11
1581.607588
 21
-741.0522629999999
 31
0.0
  0
SOLID
  5
F4F1
330
18
100
AcDbEntity
  8
0
100
AcDbTrace
 10
1581.307588
 20
-739.6522629999999
 30
0.0
 11
1581.407588
 21
-739.6522629999999
 31
0.0
 12
1581.307588
 22
-740.2272629999999
 32
0.0
 13
1581.514542
 23
-739.9831769999999
 33
0.0
  0
LINE
  5
F4F3
330
18
100
AcDbEntity
  8
0
100
AcDbLine
 10
1584.807586
 20
-742.452263
 30
0.0
 11
1586.107585
 21
-742.452263
 31
0.0
  0
LINE
  5
F4F4
330
18
100
AcDbEntity
  8
0
100
AcDbLine
 10
1584.807586
 20
-740.6522629999999
 30
0.0
 11
1586.107585
 21
-740.6522629999999
 31
0.0
  0
LINE
  5
F4F5
330
18
100
AcDbEntity
  8
0
100
AcDbLine
 10
1583.807586
 20
-739.6522629999999
 30
0.0
 11
1586.107585
 21
-739.6522629999999
 31
0.0
  0
LINE
  5
F4F6
330
18
100
AcDbEntity
  8
0
100
AcDbLine
 10
1583.807586
 20
-743.452263
 30
0.0
 11
1586.107585
 21
-743.452263
 31
0.0
  0
SOLID
  5
F4F7
330
18
100
AcDbEntity
  8
0
100
AcDbTrace
 10
1586.107585
 20
-739.6522629999999
 30
0.0
 11
1586.107585
 21
-740.6522629999999
 31
0.0
 12
1583.807586
 22
-739.6522629999999
 32
0.0
 13
1584.807586
 23
-740.6522629999999
 33
0.0
  0
SOLID
  5
F4F8
330
18
100
AcDbEntity
  8
0
100
AcDbTrace
 10
1583.807586
 20
-743.452263
 30
0.0
 11
1584.807586
 21
-742.452263
 31
0.0
 12
1586.107585
 22
-743.452263
 32
0.0
 13
1586.107585
 23
-742.452263
 33
0.0
  0
LINE
  5
F4F9
330
18
100
AcDbEntity
  8
0
100
AcDbLine
 10
1582.607588
 20
-740.852263
 30
0.0
 11
1582.607588
 21
-743.452263
 31
0.0
  0
LINE
  5
F4FA
330
18
100
AcDbEntity
  8
0
100
AcDbLine
 10
1584.807586
 20
-740.6522629999999
 30
0.0
 11
1584.807586
 21
-742.452263
 31
0.0
  0
LINE
  5
F4FB
330
18
100
AcDbEntity
  8
0
100
AcDbLine
 10
1583.807586
 20
-739.6522629999999
 30
0.0
 11
1583.807586
 21
-743.452263
 31
0.0
  0
SOLID
  5
F4FC
330
18
100
AcDbEntity
  8
0
100
AcDbTrace
 10
1583.807586
 20
-739.6522629999999
 30
0.0
 11
1584.807586
 21
-740.6522629999999
 31
0.0
 12
1583.807586
 22
-743.452263
 32
0.0
 13
1584.807586
 23
-742.452263
 33
0.0
  0
ARC
  5
F4FD
330
18
100
AcDbEntity
  8
0
100
AcDbCircle
 10
1586.107585
 20
-741.5522629999999
 30
0.0
 40
1.9
100
AcDbArc
 50
270.0000200000019
 51
89.9999820000008
  0
ARC
  5
F4FE
330
18
100
AcDbEntity
  8
0
100
AcDbCircle
 10
1586.107585
 20
-741.5522629999999
 30
0.0
 40
0.9
100
AcDbArc
 50
270.0000200000019
 51
89.9999820000008
  0
ARC
  5
F4FF
330
18
100
AcDbEntity
  8
0
100
AcDbCircle
 10
1592.307586
 20
-740.852263
 30
0.0
 40
1.199999999999999
100
AcDbArc
 50
0.0
 51
89.9999820000008
  0
ARC
  5
F501
330
18
100
AcDbEntity
  8
0
100
AcDbCircle
 10
1590.407586
 20
-742.2522629999999
 30
0.0
 40
1.199999999999999
100
AcDbArc
 50
89.9999820000008
 51
270.0
  0
LINE
  5
F502
330
18
100
AcDbEntity
  8
0
100
AcDbLine
 10
1590.407586
 20
-741.0522629999999
 30
0.0
 11
1592.507585999999
 21
-741.0522629999999
 31
0.0
  0
LINE
  5
F503
330
18
100
AcDbEntity
  8
0
100
AcDbLine
 10
1590.407586
 20
-741.952263
 30
0.0
 11
1592.507585999999
 21
-741.952263
 31
0.0
  0
LINE
  5
F504
330
18
100
AcDbEntity
  8
0
100
AcDbLine
 10
1589.807586
 20
-739.6522629999999
 30
0.0
 11
1592.307586
 21
-739.6522629999999
 31
0.0
  0
LINE
  5
F505
330
18
100
AcDbEntity
  8
0
100
AcDbLine
 10
1589.807586
 20
-740.5522629999999
 30
0.0
 11
1592.207585999999
 21
-740.5522629999999
 31
0.0
  0
LINE
  5
F506
330
18
100
AcDbEntity
  8
0
100
AcDbLine
 10
1590.407586
 20
-742.5522629999999
 30
0.0
 11
1592.507585999999
 21
-742.5522629999999
 31
0.0
  0
SOLID
  5
F507
330
18
100
AcDbEntity
  8
0
100
AcDbTrace
 10
1589.807586
 20
-739.6522629999999
 30
0.0
 11
1589.807586
 21
-740.5522629999999
 31
0.0
 12
1592.207585999999
 22
-739.6522629999999
 32
0.0
 13
1592.207585999999
 23
-740.5522629999999
 33
0.0
  0
SOLID
  5
F508
330
18
100
AcDbEntity
  8
0
100
AcDbTrace
 10
1590.407586
 20
-741.0522629999999
 30
0.0
 11
1590.407586
 21
-741.952263
 31
0.0
 12
1592.507585999999
 22
-741.0522629999999
 32
0.0
 13
1592.507585999999
 23
-741.952263
 33
0.0
  0
LINE
  5
F509
330
18
100
AcDbEntity
  8
0
100
AcDbLine
 10
1590.407586
 20
-743.452263
 30
0.0
 11
1593.507586
 21
-743.452263
 31
0.0
  0
SOLID
  5
F50A
330
18
100
AcDbEntity
  8
0
100
AcDbTrace
 10
1590.407586
 20
-742.5522629999999
 30
0.0
 11
1590.407586
 21
-743.452263
 31
0.0
 12
1592.507585999999
 22
-742.5522629999999
 32
0.0
 13
1593.507586
 23
-743.452263
 33
0.0
  0
LINE
  5
F50B
330
18
100
AcDbEntity
  8
0
100
AcDbLine
 10
1589.807586
 20
-739.6522629999999
 30
0.0
 11
1589.807586
 21
-740.5522629999999
 31
0.0
  0
ARC
  5
F50C
330
18
100
AcDbEntity
  8
0
100
AcDbCircle
 10
1590.407586
 20
-742.2522629999999
 30
0.0
 40
0.3
100
AcDbArc
 50
89.9999820000008
 51
270.0
  0
LINE
  5
F50F
330
18
100
AcDbEntity
  8
0
100
AcDbLine
 10
1593.507586
 20
-740.852263
 30
0.0
 11
1593.507586
 21
-743.452263
 31
0.0
  0
ARC
  5
F510
330
18
100
AcDbEntity
  8
0
100
AcDbCircle
 10
1592.207585999999
 20
-740.852263
 30
0.0
 40
0.3
100
AcDbArc
 50
0.0
 51
89.9999820000008
  0
LINE
  5
F511
330
18
100
AcDbEntity
  8
0
100
AcDbLine
 10
1592.507585999999
 20
-741.952263
 30
0.0
 11
1592.507585999999
 21
-742.5522629999999
 31
0.0
  0
LINE
  5
F512
330
18
100
AcDbEntity
  8
0
100
AcDbLine
 10
1592.507585999999
 20
-740.852263
 30
0.0
 11
1592.507585999999
 21
-741.0522629999999
 31
0.0
  0
SOLID
  5
F513
330
18
100
AcDbEntity
  8
0
100
AcDbTrace
 10
1592.207585999999
 20
-739.6522629999999
 30
0.0
 11
1592.307586
 21
-739.6522629999999
 31
0.0
 12
1592.207585999999
 22
-740.2272629999999
 32
0.0
 13
1592.41454
 23
-739.9831769999999
 33
0.0
  0
SOLID
  5
F514
330
18
100
AcDbEntity
  8
0
100
AcDbTrace
 10
1592.507585999999
 20
-740.852263
 30
0.0
 11
1593.507586
 21
-740.852263
 31
0.0
 12
1592.507585999999
 22
-742.5522629999999
 32
0.0
 13
1593.507586
 23
-743.452263
 33
0.0
  0
ARC
  5
F516
330
18
100
AcDbEntity
  8
0
100
AcDbCircle
 10
1592.207586466922
 20
-740.8522625330779
 30
0.0
 40
0.6249995330781001
100
AcDbArc
 50
359.9999571957052
 51
90.00004280429472
  0
ARC
  5
F517
330
18
100
AcDbEntity
  8
0
100
AcDbCircle
 10
1590.407585439693
 20
-742.2522635603063
 30
0.0
 40
0.7499994396937203
100
AcDbArc
 50
179.9999571957139
 51
270.0000428042947
  0
ARC
  5
F518
330
18
100
AcDbEntity
  8
0
100
AcDbCircle
 10
1590.407585439693
 20
-742.2522624396935
 30
0.0
 40
0.749999439693834
100
AcDbArc
 50
89.99995719570527
 51
180.000042804286
  0
ARC
  5
F519
330
18
100
AcDbEntity
  8
0
100
AcDbCircle
 10
1592.307586560306
 20
-740.8522624396936
 30
0.0
 40
0.7499994396937203
100
AcDbArc
 50
359.9999571957139
 51
90.00004280429472
  0
ARC
  5
F51A
330
18
100
AcDbEntity
  8
0
100
AcDbCircle
 10
1581.307588466922
 20
-740.8522625330779
 30
0.0
 40
0.6249995330781001
100
AcDbArc
 50
359.9999571957052
 51
90.00004280429472
  0
ARC
  5
F51B
330
18
100
AcDbEntity
  8
0
100
AcDbCircle
 10
1579.507587439693
 20
-742.2522635603063
 30
0.0
 40
0.7499994396937203
100
AcDbArc
 50
179.9999571957139
 51
270.0000428042947
  0
ARC
  5
F51C
330
18
100
AcDbEntity
  8
0
100
AcDbCircle
 10
1579.507587439693
 20
-742.2522624396935
 30
0.0
 40
0.749999439693834
100
AcDbArc
 50
89.99995719570527
 51
180.000042804286
  0
ARC
  5
F51D
330
18
100
AcDbEntity
  8
0
100
AcDbCircle
 10
1574.807587112061
 20
-740.8522628879388
 30
0.0
 40
0.1499998879387895
100
AcDbArc
 50
359.9999571957313
 51
90.00004280431209
  0
ARC
  5
F51E
330
18
100
AcDbEntity
  8
0
100
AcDbCircle
 10
1569.607586466922
 20
-740.8522625330779
 30
0.0
 40
0.6249995330781001
100
AcDbArc
 50
359.9999571957052
 51
90.00004280429472
  0
ARC
  5
F51F
330
18
100
AcDbEntity
  8
0
100
AcDbCircle
 10
1567.807585939693
 20
-742.252263060307
 30
0.0
 40
0.7499999396934552
100
AcDbArc
 50
179.9999953928753
 51
270.0000810014511
  0
ARC
  5
F520
330
18
100
AcDbEntity
  8
0
100
AcDbCircle
 10
1567.807585439693
 20
-742.2522624396935
 30
0.0
 40
0.749999439693834
100
AcDbArc
 50
89.99995719570527
 51
180.000042804286
  0
ARC
  5
F521
330
18
100
AcDbEntity
  8
0
100
AcDbCircle
 10
1575.707587485599
 20
-740.952262514401
 30
0.0
 40
0.6499995144012696
100
AcDbArc
 50
359.9999571957012
 51
90.00004280427871
  0
ARC
  5
F522
330
18
100
AcDbEntity
  8
0
100
AcDbCircle
 10
1569.707586560306
 20
-740.8522624396936
 30
0.0
 40
0.7499994396937203
100
AcDbArc
 50
359.9999571957139
 51
90.00004280429472
  0
ARC
  5
F523
330
18
100
AcDbEntity
  8
0
100
AcDbCircle
 10
1575.707587709722
 20
-741.0522622902785
 30
0.0
 40
0.949999290278621
100
AcDbArc
 50
359.9999571957176
 51
90.00004280430294
  0
ARC
  5
F524
330
18
100
AcDbEntity
  8
0
100
AcDbCircle
 10
1581.407588560306
 20
-740.8522624396936
 30
0.0
 40
0.7499994396937203
100
AcDbArc
 50
359.9999571957139
 51
90.00004280429472
  0
ARC
  5
F525
330
18
100
AcDbEntity
  8
0
100
AcDbCircle
 10
1573.70758758664
 20
-740.9522624133592
 30
0.0
 40
0.7852494133594437
100
AcDbArc
 50
359.9999571957125
 51
90.00004280427916
  0
ARC
  5
F526
330
18
100
AcDbEntity
  8
0
100
AcDbCircle
 10
1564.107586112061
 20
-741.6522631120613
 30
0.0
 40
0.1499998879386758
100
AcDbArc
 50
269.9999571957747
 51
0.0000428043121018
  0
LINE
  5
F527
330
18
100
AcDbEntity
  8
0
100
AcDbLine
 10
1561.407586
 20
-740.7522629999999
 30
0.0
 11
1561.407586
 21
-739.6522629999999
 31
0.0
  0
ARC
  5
F528
330
18
100
AcDbEntity
  8
0
100
AcDbCircle
 10
1562.207585589108
 20
-740.7522634108913
 30
0.0
 40
0.5499995891085917
100
AcDbArc
 50
179.9999571957076
 51
270.0000428043042
  0
ARC
  5
F529
330
18
100
AcDbEntity
  8
0
100
AcDbCircle
 10
1562.107585290279
 20
-740.7522637097213
 30
0.0
 40
0.9499992902790758
100
AcDbArc
 50
179.9999571957175
 51
270.0000428042755
  0
ARC
  5
F52A
330
18
100
AcDbEntity
  8
0
100
AcDbCircle
 10
1564.107586466473
 20
-740.7522634664737
 30
0.0
 40
0.6243995335264041
100
AcDbArc
 50
269.9999571957385
 51
0.0000428042927121
  0
ARC
  5
F52B
330
18
100
AcDbEntity
  8
0
100
AcDbCircle
 10
1564.307586631801
 20
-742.3522636318015
 30
0.0
 40
0.8456993681986746
100
AcDbArc
 50
269.9999571957177
 51
0.0000428042899502
  0
ARC
  5
F52C
330
18
100
AcDbEntity
  8
0
100
AcDbCircle
 10
1564.107586485598
 20
-742.2522634855988
 30
0.0
 40
0.6499995144012696
100
AcDbArc
 50
269.9999571957212
 51
0.000042804288719
  0
ARC
  5
F52D
330
18
100
AcDbEntity
  8
0
100
AcDbCircle
 10
1586.107586045905
 20
-741.5522640459052
 30
0.0
 40
1.399998954095217
100
AcDbArc
 50
269.9999571957127
 51
0.0000428042872874
  0
ARC
  5
F52E
330
18
100
AcDbEntity
  8
0
100
AcDbCircle
 10
1586.107586045905
 20
-741.5522619540947
 30
0.0
 40
1.399998954095217
100
AcDbArc
 50
359.9999571957173
 51
90.00004280428727
  0
VIEWPORT
  5
37
330
15
100
AcDbEntity
 67
     1
  8
0
100
AcDbViewport
 10
319.7973172381453
 20
210.0072899999999
 30
0.0
 40
656.0644263926462
 41
423.2529848039574
 68
     1
 69
     1
 12
319.7973172381453
 22
210.0072899999999
 13
0.0
 23
0.0
 14
10.0
 24
10.0
 15
10.0
 25
10.0
 16
0.0
 26
0.0
 36
1.0
 17
0.0
 27
0.0
 37
0.0
 42
50.0
 43
0.0
 44
0.0
 45
423.2529848039574
 50
0.0
 51
0.0
 72
   100
 90
    32768
  1

281
     0
 71
     1
 74
     0
110
0.0
120
0.0
130
0.0
111
1.0
121
0.0
131
0.0
112
0.0
122
1.0
132
0.0
 79
     0
146
0.0
  0
ENDSEC
  0
SECTION
  2
OBJECTS
  0
DICTIONARY
  5
C
330
0
100
AcDbDictionary
281
     1
  3
ACAD_GROUP
350
D
  3
ACAD_IMAGE_VARS
350
7A9
  3
ACAD_LAYOUT
350
1AD
  3
ACAD_MLINESTYLE
350
1B
  3
ACAD_PLOTSETTINGS
350
1AE
  3
ACAD_PLOTSTYLENAME
350
1AB
  3
AcDbVariableDictionary
350
ED24
  0
DICTIONARY
  5
D
102
{ACAD_REACTORS
330
C
102
}
330
C
100
AcDbDictionary
281
     1
  3
*A1
350
41B8
  3
*A2
350
41B9
  3
*A3
350
41BA
  3
*A4
350
BAEA
  3
*A5
350
BAEB
  0
RASTERVARIABLES
  5
7A9
102
{ACAD_REACTORS
330
C
102
}
330
C
100
AcDbRasterVariables
 90
        0
 70
     1
 71
     1
 72
     0
  0
DICTIONARY
  5
1AD
102
{ACAD_REACTORS
330
C
102
}
330
C
100
AcDbDictionary
281
     1
  3
Model
350
1AF
  3
ﾚｲｱｳﾄ1
350
1B0
  0
DICTIONARY
  5
1B
102
{ACAD_REACTORS
330
C
102
}
330
C
100
AcDbDictionary
281
     1
  3
STANDARD
350
1C
  0
DICTIONARY
  5
1AE
102
{ACAD_REACTORS
330
C
102
}
330
C
100
AcDbDictionary
281
     1
  3
トレース紙Ａ１
350
41BB
  3
トレース紙Ａ２
350
41BC
  3
トレース紙Ａ２_LP-2150_Win98
350
BAEC
  3
トレース紙Ａ２_LP-2150_WinNT40
350
CDE
  3
トレース紙Ａ３
350
41BD
  3
トレース紙Ａ３_LP-2150_Win98
350
41BE
  3
トレース紙Ａ３_LP-2150_WinNT40
350
41BF
  3
トレース紙Ａ４
350
41C0
  3
トレース紙Ａ４_LP-2150_Win98
350
41C1
  3
トレース紙Ａ４_LP-2150_WinNT40
350
41C2
  3
モデル
350
41C3
  3
モデル XL-5810
350
41C4
  3
普通紙Ａ１からＡ３
350
41C5
  3
普通紙Ａ１からＡ３ XL-5810
350
41C6
  3
普通紙Ａ２からＡ３
350
41C7
  3
普通紙Ａ２からＡ３ XL-5810
350
41C8
  3
普通紙Ａ２からＡ３_NX610
350
CDF
  3
普通紙Ａ２からＡ４_NX610
350
41C9
  3
普通紙Ａ３
350
41CA
  3
普通紙Ａ３ XL-5810
350
41CB
  3
普通紙Ａ３_NX610
350
41CC
  3
普通紙Ａ３からＡ４_NX610
350
41CD
  3
普通紙Ａ４
350
41CE
  3
普通紙Ａ４ XL-5810
350
41CF
  3
普通紙Ａ４_NX610
350
41D0
  0
ACDBDICTIONARYWDFLT
  5
1AB
102
{ACAD_REACTORS
330
C
102
}
330
C
100
AcDbDictionary
281
     1
  3
Normal
350
1AC
100
AcDbDictionaryWithDefault
340
1AC
  0
DICTIONARY
  5
ED24
102
{ACAD_REACTORS
330
C
102
}
330
C
100
AcDbDictionary
281
     1
  3
SORTENTS
350
ED25
  0
GROUP
  5
41B8
102
{ACAD_REACTORS
330
D
102
}
330
D
100
AcDbGroup
300

 70
     1
 71
     1
  0
GROUP
  5
41B9
102
{ACAD_REACTORS
330
D
102
}
330
D
100
AcDbGroup
300

 70
     1
 71
     1
  0
GROUP
  5
41BA
102
{ACAD_REACTORS
330
D
102
}
330
D
100
AcDbGroup
300

 70
     1
 71
     1
  0
GROUP
  5
BAEA
102
{ACAD_REACTORS
330
D
102
}
330
D
100
AcDbGroup
300

 70
     1
 71
     1
  0
GROUP
  5
BAEB
102
{ACAD_REACTORS
330
D
102
}
330
D
100
AcDbGroup
300

 70
     1
 71
     1
  0
LAYOUT
  5
1AF
102
{ACAD_REACTORS
330
1AD
102
}
330
1AD
100
AcDbPlotSettings
  1
モデル
  2
FUJITSU XL-5800
  4
モデル
  6

 40
5.87375
 41
5.704405999999998
 42
5.873749
 43
5.873749
 44
210.057999
 45
296.925995
 46
-934.06
 47
-482.3299999999998
 48
0.0
 49
0.0
140
0.0
141
0.0
142
1.0
143
1.0
 70
 11956
 72
     1
 73
     0
 74
     0
  7
LineScale_10.ctb
 75
    16
147
1.0
148
1033.210332
149
625.0
100
AcDbLayout
  1
Model
 70
     0
 71
     0
 10
0.0
 20
0.0
 11
12.0
 21
9.0
 12
0.0
 22
0.0
 32
0.0
 14
0.0
 24
0.0
 34
0.0
 15
0.0
 25
0.0
 35
0.0
146
0.0
 13
0.0
 23
0.0
 33
0.0
 16
1.0
 26
0.0
 36
0.0
 17
0.0
 27
1.0
 37
0.0
 76
     0
330
18
  0
LAYOUT
  5
1B0
102
{ACAD_REACTORS
330
1AD
102
}
330
1AD
100
AcDbPlotSettings
  1

  2
SII LP-2150 (D-SCAN)
  4

  6
A1
 40
3.174999999999998
 41
3.174999999999998
 42
3.174987999999998
 43
3.174987999999998
 44
593.979004
 45
419.988983
 46
-0.8100000000000001
 47
-3.799999999999998
 48
0.0
 49
0.0
140
841.0
141
594.0
142
1.0
143
1.0
 70
   688
 72
     1
 73
     0
 74
     4
  7
LineScale_10.ctb
 75
    16
147
1.0
148
0.0
149
0.0
100
AcDbLayout
  1
ﾚｲｱｳﾄ1
 70
     1
 71
     1
 10
-0.027002
 20
-0.030288
 11
593.927183
 21
419.94639
 12
0.0
 22
0.0
 32
0.0
 14
0.0
 24
0.0
 34
0.0
 15
594.0
 25
420.0
 35
0.0
146
0.0
 13
0.0
 23
0.0
 33
0.0
 16
1.0
 26
0.0
 36
0.0
 17
0.0
 27
1.0
 37
0.0
 76
     0
330
15
331
37
  0
MLINESTYLE
  5
1C
102
{ACAD_REACTORS
330
1B
102
}
330
1B
100
AcDbMlineStyle
  2
STANDARD
 70
     0
  3

 62
   256
 51
90.0
 52
90.0
 71
     2
 49
0.5
 62
   256
  6
BYLAYER
 49
-0.5
 62
   256
  6
BYLAYER
  0
PLOTSETTINGS
  5
41BB
102
{ACAD_REACTORS
330
1AE
102
}
330
1AE
100
AcDbPlotSettings
  1
トレース紙Ａ１
  2
SII LP-2150 (D-SCAN)
  4
User117
  6
A1
 40
3.174999952316283
 41
3.174999952316283
 42
3.17498779296875
 43
3.17498779296875
 44
840.9939575195313
 45
593.97900390625
 46
1.0
 47
-7.0
 48
0.0
 49
0.0
140
841.0
141
594.0
142
1.0
143
1.0
 70
   688
 72
     1
 73
     0
 74
     4
  7
LineScale_10.ctb
 75
    16
147
1.0
148
0.0
149
0.0
  0
PLOTSETTINGS
  5
41BC
102
{ACAD_REACTORS
330
1AE
102
}
330
1AE
100
AcDbPlotSettings
  1
トレース紙Ａ２
  2
SII LP-2150 (D-SCAN)
  4
User118
  6
A1
 40
3.174999952316283
 41
3.174999952316283
 42
3.17498779296875
 43
3.17498779296875
 44
593.97900390625
 45
419.9889831542968
 46
0.5
 47
-6.5
 48
0.0
 49
0.0
140
594.0
141
420.0
142
1.0
143
1.0
 70
   688
 72
     1
 73
     0
 74
     4
  7
LineScale_10.ctb
 75
    16
147
1.0
148
0.0
149
0.0
  0
PLOTSETTINGS
  5
BAEC
102
{ACAD_REACTORS
330
1AE
102
}
330
1AE
100
AcDbPlotSettings
  1
トレース紙Ａ２_LP-2150_Win98
  2
SII LP-2150 (D-SCAN)
  4
User66
  6
A1
 40
3.174999952316283
 41
3.174999952316283
 42
3.17498779296875
 43
3.17498779296875
 44
593.97900390625
 45
419.9889831542968
 46
-3.879999999999999
 47
-2.399999999999999
 48
0.0
 49
0.0
140
594.0
141
420.0
142
1.0
143
1.0
 70
   688
 72
     1
 73
     0
 74
     4
  7
LineScale_10.ctb
 75
    16
147
1.0
148
0.0
149
0.0
  0
PLOTSETTINGS
  5
CDE
102
{ACAD_REACTORS
330
1AE
102
}
330
1AE
100
AcDbPlotSettings
  1
トレース紙Ａ２_LP-2150_WinNT40
  2
SII LP-2150 (D-SCAN)
  4
User118
  6
A1
 40
3.174999952316283
 41
3.174999952316283
 42
3.17498779296875
 43
3.17498779296875
 44
593.97900390625
 45
419.9889831542968
 46
-0.8100000000000001
 47
-3.799999999999998
 48
0.0
 49
0.0
140
841.0
141
594.0
142
1.0
143
1.0
 70
   688
 72
     1
 73
     0
 74
     4
  7
LineScale_10.ctb
 75
    16
147
1.0
148
0.0
149
0.0
  0
PLOTSETTINGS
  5
41BD
102
{ACAD_REACTORS
330
1AE
102
}
330
1AE
100
AcDbPlotSettings
  1
トレース紙Ａ３
  2
SII LP-2150 (D-SCAN)
  4
User257
  6
A1
 40
3.174999952316283
 41
3.174999952316283
 42
3.17498779296875
 43
3.17498779296875
 44
419.9889831542968
 45
296.989501953125
 46
1.0
 47
-6.0
 48
0.0
 49
0.0
140
420.0
141
297.0
142
1.0
143
1.0
 70
   688
 72
     1
 73
     0
 74
     4
  7
LineScale_10.ctb
 75
    16
147
1.0
148
0.0
149
0.0
  0
PLOTSETTINGS
  5
41BE
102
{ACAD_REACTORS
330
1AE
102
}
330
1AE
100
AcDbPlotSettings
  1
トレース紙Ａ３_LP-2150_Win98
  2
SII LP-2150 (D-SCAN)
  4
A3
  6
A1
 40
3.174999952316283
 41
3.174999952316283
 42
3.17498779296875
 43
3.17498779296875
 44
419.9889831542968
 45
296.989501953125
 46
-0.16
 47
-3.009999999999998
 48
0.0
 49
0.0
140
420.0
141
297.0
142
1.0
143
1.0
 70
   688
 72
     1
 73
     0
 74
     4
  7
LineScale_10.ctb
 75
    16
147
1.0
148
0.0
149
0.0
  0
PLOTSETTINGS
  5
41BF
102
{ACAD_REACTORS
330
1AE
102
}
330
1AE
100
AcDbPlotSettings
  1
トレース紙Ａ３_LP-2150_WinNT40
  2
SII LP-2150 (D-SCAN)
  4
User257
  6
A1
 40
3.174999952316283
 41
3.174999952316283
 42
3.17498779296875
 43
3.17498779296875
 44
419.9889831542968
 45
296.989501953125
 46
1.85
 47
-5.879999999999999
 48
0.0
 49
0.0
140
420.0
141
297.0
142
1.0
143
1.0
 70
   688
 72
     1
 73
     0
 74
     4
  7
LineScale_10.ctb
 75
    16
147
1.0
148
0.0
149
0.0
  0
PLOTSETTINGS
  5
41C0
102
{ACAD_REACTORS
330
1AE
102
}
330
1AE
100
AcDbPlotSettings
  1
トレース紙Ａ４
  2
SII LP-2150 (D-SCAN)
  4
User258
  6
A1
 40
3.174999952316283
 41
3.174999952316283
 42
3.17498779296875
 43
3.175003051757812
 44
296.989501953125
 45
209.9944915771484
 46
0.8
 47
-2.0
 48
0.0
 49
0.0
140
210.0
141
297.0
142
1.0
143
1.0
 70
   688
 72
     1
 73
     1
 74
     4
  7
LineScale_10.ctb
 75
    16
147
1.0
148
0.0
149
0.0
  0
PLOTSETTINGS
  5
41C1
102
{ACAD_REACTORS
330
1AE
102
}
330
1AE
100
AcDbPlotSettings
  1
トレース紙Ａ４_LP-2150_Win98
  2
SII LP-2150 (D-SCAN)
  4
A4
  6
A1
 40
3.174999952316283
 41
3.174999952316283
 42
3.17498779296875
 43
3.175003051757812
 44
296.989501953125
 45
209.9944915771484
 46
-3.29
 47
-3.859999999999999
 48
0.0
 49
0.0
140
210.0
141
297.0
142
1.0
143
1.0
 70
   688
 72
     1
 73
     1
 74
     4
  7
LineScale_10.ctb
 75
    16
147
1.0
148
0.0
149
0.0
  0
PLOTSETTINGS
  5
41C2
102
{ACAD_REACTORS
330
1AE
102
}
330
1AE
100
AcDbPlotSettings
  1
トレース紙Ａ４_LP-2150_WinNT40
  2
SII LP-2150 (D-SCAN)
  4
User258
  6
A1
 40
3.174999952316283
 41
3.174999952316283
 42
3.17498779296875
 43
3.175003051757812
 44
296.989501953125
 45
209.9944915771484
 46
-0.14
 47
-2.339999999999998
 48
0.0
 49
0.0
140
210.0
141
297.0
142
1.0
143
1.0
 70
   688
 72
     1
 73
     1
 74
     4
  7
LineScale_10.ctb
 75
    16
147
1.0
148
0.0
149
0.0
  0
PLOTSETTINGS
  5
41C3
102
{ACAD_REACTORS
330
1AE
102
}
330
1AE
100
AcDbPlotSettings
  1
モデル
  2
FUJITSU XL-5800
  4
A4
  6

 40
5.873749732971191
 41
5.704405784606932
 42
5.873748779296875
 43
5.873748779296875
 44
210.0579986572264
 45
296.9259948730469
 46
-934.06
 47
-482.3299999999998
 48
0.0
 49
0.0
140
0.0
141
0.0
142
1.0
143
1.0
 70
  1716
 72
     1
 73
     0
 74
     0
  7
LineScale_10.ctb
 75
    16
147
1.0
148
1033.210332103321
149
625.0
  0
PLOTSETTINGS
  5
41C4
102
{ACAD_REACTORS
330
1AE
102
}
330
1AE
100
AcDbPlotSettings
  1
モデル XL-5810
  2
\\PROLIANT1500\FUJITSU XL-5810
  4
A4
  6

 40
5.873749732971191
 41
5.704405784606932
 42
5.873748779296875
 43
5.873748779296875
 44
210.0579986572264
 45
296.9259948730469
 46
-588.8099999999998
 47
-890.54
 48
0.0
 49
0.0
140
0.0
141
0.0
142
1.0
143
1.0
 70
  1716
 72
     1
 73
     1
 74
     0
  7
LineScale_10.ctb
 75
    16
147
1.0
148
1033.210332103321
149
625.0
  0
PLOTSETTINGS
  5
41C5
102
{ACAD_REACTORS
330
1AE
102
}
330
1AE
100
AcDbPlotSettings
  1
普通紙Ａ１からＡ３
  2
FUJITSU XL-5800
  4
A3
  6
A1
 40
5.873749732971191
 41
5.873747825622557
 42
5.70440673828125
 43
5.873748779296875
 44
296.9259948730469
 45
420.1159973144531
 46
-4.129999999999999
 47
-7.07
 48
0.0
 49
0.0
140
841.0
141
594.0
142
1.0
143
2.0
 70
   688
 72
     1
 73
     1
 74
     4
  7
LineScale_05.ctb
 75
    17
147
0.5
148
0.0
149
0.0
  0
PLOTSETTINGS
  5
41C6
102
{ACAD_REACTORS
330
1AE
102
}
330
1AE
100
AcDbPlotSettings
  1
普通紙Ａ１からＡ３ XL-5810
  2
\\PROLIANT1500\FUJITSU XL-5810
  4
A3
  6
A1
 40
5.873749732971191
 41
5.873747825622557
 42
5.70440673828125
 43
5.873748779296875
 44
296.9259948730469
 45
420.1159973144531
 46
-4.129999999999999
 47
-7.07
 48
0.0
 49
0.0
140
841.0
141
594.0
142
1.0
143
2.0
 70
   688
 72
     1
 73
     1
 74
     4
  7
LineScale_05.ctb
 75
    17
147
0.5
148
0.0
149
0.0
  0
PLOTSETTINGS
  5
41C7
102
{ACAD_REACTORS
330
1AE
102
}
330
1AE
100
AcDbPlotSettings
  1
普通紙Ａ２からＡ３
  2
FUJITSU XL-5800
  4
A3
  6
A1
 40
5.873749732971191
 41
5.873747825622557
 42
5.70440673828125
 43
5.873748779296875
 44
296.9259948730469
 45
420.1159973144531
 46
-5.0
 47
-7.0
 48
0.0
 49
0.0
140
594.0
141
420.0
142
0.7071066999999999
143
1.0
 70
   672
 72
     1
 73
     1
 74
     4
  7
LineScale_07.ctb
 75
     0
147
0.7071066999999999
148
0.0
149
0.0
  0
PLOTSETTINGS
  5
41C8
102
{ACAD_REACTORS
330
1AE
102
}
330
1AE
100
AcDbPlotSettings
  1
普通紙Ａ２からＡ３ XL-5810
  2
\\PROLIANT1500\FUJITSU XL-5810
  4
A3
  6
A1
 40
5.873749732971191
 41
5.873747825622557
 42
5.70440673828125
 43
5.873748779296875
 44
296.9259948730469
 45
420.1159973144531
 46
-5.0
 47
-7.0
 48
0.0
 49
0.0
140
594.0
141
420.0
142
0.7071066999999999
143
1.0
 70
   672
 72
     1
 73
     1
 74
     4
  7
LineScale_07.ctb
 75
     0
147
0.7071066999999999
148
0.0
149
0.0
  0
PLOTSETTINGS
  5
CDF
102
{ACAD_REACTORS
330
1AE
102
}
330
1AE
100
AcDbPlotSettings
  1
普通紙Ａ２からＡ３_NX610
  2
RICOH IPSiO NX610
  4
A3
  6
A1
 40
5.831416606903076
 41
4.307413101196288
 42
8.244415283203125
 43
5.789093017578125
 44
296.9683227539062
 45
419.9889831542968
 46
-5.809999999999998
 47
-5.769999999999998
 48
0.0
 49
0.0
140
594.0
141
420.0
142
0.7071066999999999
143
1.0
 70
   672
 72
     1
 73
     1
 74
     4
  7
LineScale_07.ctb
 75
     0
147
0.7071066999999999
148
0.0
149
0.0
  0
PLOTSETTINGS
  5
41C9
102
{ACAD_REACTORS
330
1AE
102
}
330
1AE
100
AcDbPlotSettings
  1
普通紙Ａ２からＡ４_NX610
  2
RICOH IPSiO NX610
  4
A4
  6
A1
 40
5.831416606903076
 41
4.942422866821289
 42
7.609405517578125
 43
5.789093017578125
 44
209.9733276367186
 45
296.9683227539062
 46
-5.809999999999998
 47
-5.769999999999998
 48
0.0
 49
0.0
140
594.0
141
420.0
142
1.0
143
2.0
 70
   688
 72
     1
 73
     1
 74
     4
  7
LineScale_05.ctb
 75
    17
147
0.5
148
0.0
149
0.0
  0
PLOTSETTINGS
  5
41CA
102
{ACAD_REACTORS
330
1AE
102
}
330
1AE
100
AcDbPlotSettings
  1
普通紙Ａ３
  2
FUJITSU XL-5800
  4
A3
  6
A1
 40
5.873749732971191
 41
5.873747825622557
 42
5.70440673828125
 43
5.873748779296875
 44
296.9259948730469
 45
420.1159973144531
 46
-3.83
 47
-6.82
 48
0.0
 49
0.0
140
420.0
141
297.0
142
1.0
143
1.0
 70
   688
 72
     1
 73
     1
 74
     4
  7
LineScale_10.ctb
 75
    16
147
1.0
148
0.0
149
0.0
  0
PLOTSETTINGS
  5
41CB
102
{ACAD_REACTORS
330
1AE
102
}
330
1AE
100
AcDbPlotSettings
  1
普通紙Ａ３ XL-5810
  2
\\PROLIANT1500\FUJITSU XL-5810
  4
A3
  6
A1
 40
5.873749732971191
 41
5.873747825622557
 42
5.70440673828125
 43
5.873748779296875
 44
296.9259948730469
 45
420.1159973144531
 46
-3.83
 47
-6.82
 48
0.0
 49
0.0
140
420.0
141
297.0
142
1.0
143
1.0
 70
   688
 72
     1
 73
     1
 74
     4
  7
LineScale_10.ctb
 75
    16
147
1.0
148
0.0
149
0.0
  0
PLOTSETTINGS
  5
41CC
102
{ACAD_REACTORS
330
1AE
102
}
330
1AE
100
AcDbPlotSettings
  1
普通紙Ａ３_NX610
  2
RICOH IPSiO NX610
  4
A3
  6
A1
 40
5.831416606903076
 41
4.307413101196288
 42
8.244415283203125
 43
5.789093017578125
 44
296.9683227539062
 45
419.9889831542968
 46
-5.809999999999998
 47
-5.769999999999998
 48
0.0
 49
0.0
140
420.0
141
297.0
142
1.0
143
1.0
 70
   688
 72
     1
 73
     1
 74
     4
  7
LineScale_10.ctb
 75
    16
147
1.0
148
0.0
149
0.0
  0
PLOTSETTINGS
  5
41CD
102
{ACAD_REACTORS
330
1AE
102
}
330
1AE
100
AcDbPlotSettings
  1
普通紙Ａ３からＡ４_NX610
  2
RICOH IPSiO NX610
  4
A4
  6
A1
 40
5.831416606903076
 41
4.942422866821289
 42
7.609405517578125
 43
5.789093017578125
 44
209.9733276367186
 45
296.9683227539062
 46
-5.809999999999998
 47
-5.769999999999998
 48
0.0
 49
0.0
140
420.0
141
297.0
142
0.7071066999999999
143
1.0
 70
   672
 72
     1
 73
     1
 74
     4
  7
LineScale_07.ctb
 75
     0
147
0.7071066999999999
148
0.0
149
0.0
  0
PLOTSETTINGS
  5
41CE
102
{ACAD_REACTORS
330
1AE
102
}
330
1AE
100
AcDbPlotSettings
  1
普通紙Ａ４
  2
FUJITSU XL-5800
  4
A4
  6
A1
 40
5.873749732971191
 41
5.704405784606932
 42
5.873748779296875
 43
5.873748779296875
 44
210.0579986572264
 45
296.9259948730469
 46
-6.82
 47
-3.83
 48
0.0
 49
0.0
140
420.0
141
297.0
142
1.0
143
1.0
 70
   688
 72
     1
 73
     0
 74
     4
  7
LineScale_10.ctb
 75
    16
147
1.0
148
0.0
149
0.0
  0
PLOTSETTINGS
  5
41CF
102
{ACAD_REACTORS
330
1AE
102
}
330
1AE
100
AcDbPlotSettings
  1
普通紙Ａ４ XL-5810
  2
\\PROLIANT1500\FUJITSU XL-5810
  4
A4
  6
A1
 40
5.873749732971191
 41
5.704405784606932
 42
5.873748779296875
 43
5.873748779296875
 44
210.0579986572264
 45
296.9259948730469
 46
-6.82
 47
-3.83
 48
0.0
 49
0.0
140
420.0
141
297.0
142
1.0
143
1.0
 70
   688
 72
     1
 73
     0
 74
     4
  7
LineScale_10.ctb
 75
    16
147
1.0
148
0.0
149
0.0
  0
PLOTSETTINGS
  5
41D0
102
{ACAD_REACTORS
330
1AE
102
}
330
1AE
100
AcDbPlotSettings
  1
普通紙Ａ４_NX610
  2
RICOH IPSiO NX610
  4
A4
  6
A1
 40
5.831416606903076
 41
4.942422866821289
 42
7.609405517578125
 43
5.789093017578125
 44
209.9733276367186
 45
296.9683227539062
 46
-5.82
 47
-4.919999999999999
 48
0.0
 49
0.0
140
420.0
141
297.0
142
1.0
143
1.0
 70
   688
 72
     1
 73
     0
 74
     4
  7
LineScale_10.ctb
 75
    16
147
1.0
148
0.0
149
0.0
  0
ACDBPLACEHOLDER
  5
1AC
102
{ACAD_REACTORS
330
1AB
102
}
330
1AB
  0
DICTIONARYVAR
  5
ED25
102
{ACAD_REACTORS
330
ED24
102
}
330
ED24
100
DictionaryVariables
280
     0
  1
96
  0
ENDSEC
  0
EOF
