  0
SECTION
  2
HEADER
  9
$ACADVER
  1
AC1015
  9
$ACADMAINTVER
 70
     6
  9
$DWGCODEPAGE
  3
ANSI_932
  9
$INSBASE
 10
0.0
 20
0.0
 30
0.0
  9
$EXTMIN
 10
-804.0277818253644
 20
-980.0574432878283
 30
-0.0000000100019835
  9
$EXTMAX
 10
1682.770542118086
 20
203.180413077307
 30
0.0000000100019837
  9
$LIMMIN
 10
-841.0
 20
-594.0
  9
$LIMMAX
 10
841.0
 20
594.0
  9
$ORTHOMODE
 70
     1
  9
$REGENMODE
 70
     1
  9
$FILLMODE
 70
     1
  9
$QTEXTMODE
 70
     0
  9
$MIRRTEXT
 70
     0
  9
$LTSCALE
 40
7.0
  9
$ATTMODE
 70
     1
  9
$TEXTSIZE
 40
3.2
  9
$TRACEWID
 40
1.0
  9
$TEXTSTYLE
  7
DIMFONT
  9
$CLAYER
  8
0
  9
$CELTYPE
  6
ByLayer
  9
$CECOLOR
 62
   256
  9
$CELTSCALE
 40
1.0
  9
$DISPSILH
 70
     0
  9
$DIMSCALE
 40
5.0
  9
$DIMASZ
 40
3.0
  9
$DIMEXO
 40
0.0
  9
$DIMDLI
 40
10.0
  9
$DIMRND
 40
0.0
  9
$DIMDLE
 40
0.0
  9
$DIMEXE
 40
1.0
  9
$DIMTP
 40
0.0
  9
$DIMTM
 40
0.0
  9
$DIMTXT
 40
3.2
  9
$DIMCEN
 40
0.0
  9
$DIMTSZ
 40
0.0
  9
$DIMTOL
 70
     0
  9
$DIMLIM
 70
     0
  9
$DIMTIH
 70
     0
  9
$DIMTOH
 70
     0
  9
$DIMSE1
 70
     0
  9
$DIMSE2
 70
     0
  9
$DIMTAD
 70
     3
  9
$DIMZIN
 70
     8
  9
$DIMBLK
  1

  9
$DIMASO
 70
     1
  9
$DIMSHO
 70
     1
  9
$DIMPOST
  1

  9
$DIMAPOST
  1

  9
$DIMALT
 70
     0
  9
$DIMALTD
 70
     2
  9
$DIMALTF
 40
25.4
  9
$DIMLFAC
 40
1.0
  9
$DIMTOFL
 70
     1
  9
$DIMTVP
 40
0.0
  9
$DIMTIX
 70
     0
  9
$DIMSOXD
 70
     0
  9
$DIMSAH
 70
     1
  9
$DIMBLK1
  1
OPEN
  9
$DIMBLK2
  1
OPEN
  9
$DIMSTYLE
  2
1_5
  9
$DIMCLRD
 70
     0
  9
$DIMCLRE
 70
     0
  9
$DIMCLRT
 70
     0
  9
$DIMTFAC
 40
0.75
  9
$DIMGAP
 40
1.0
  9
$DIMJUST
 70
     0
  9
$DIMSD1
 70
     0
  9
$DIMSD2
 70
     0
  9
$DIMTOLJ
 70
     1
  9
$DIMTZIN
 70
     8
  9
$DIMALTZ
 70
     0
  9
$DIMALTTZ
 70
     0
  9
$DIMUPT
 70
     0
  9
$DIMDEC
 70
     4
  9
$DIMTDEC
 70
     4
  9
$DIMALTU
 70
     2
  9
$DIMALTTD
 70
     2
  9
$DIMTXSTY
  7
DIMFONT
  9
$DIMAUNIT
 70
     0
  9
$DIMADEC
 70
     2
  9
$DIMALTRND
 40
0.0
  9
$DIMAZIN
 70
     2
  9
$DIMDSEP
 70
    46
  9
$DIMATFIT
 70
     1
  9
$DIMFRAC
 70
     0
  9
$DIMLDRBLK
  1

  9
$DIMLUNIT
 70
     2
  9
$DIMLWD
 70
    -2
  9
$DIMLWE
 70
    -2
  9
$DIMTMOVE
 70
     0
  9
$LUNITS
 70
     2
  9
$LUPREC
 70
     4
  9
$SKETCHINC
 40
1.0
  9
$FILLETRAD
 40
0.0
  9
$AUNITS
 70
     0
  9
$AUPREC
 70
     4
  9
$MENU
  1
acad
  9
$ELEVATION
 40
0.0
  9
$PELEVATION
 40
0.0
  9
$THICKNESS
 40
0.0
  9
$LIMCHECK
 70
     0
  9
$CHAMFERA
 40
0.0
  9
$CHAMFERB
 40
0.0
  9
$CHAMFERC
 40
0.0
  9
$CHAMFERD
 40
0.0
  9
$SKPOLY
 70
     0
  9
$TDCREATE
 40
2453365.400997349
  9
$TDUCREATE
 40
2453365.025997349
  9
$TDUPDATE
 40
2453634.673047592
  9
$TDUUPDATE
 40
2453634.298047592
  9
$TDINDWG
 40
0.2378198843
  9
$TDUSRTIMER
 40
0.2378197106
  9
$USRTIMER
 70
     1
  9
$ANGBASE
 50
0.0
  9
$ANGDIR
 70
     0
  9
$PDMODE
 70
    35
  9
$PDSIZE
 40
0.5
  9
$PLINEWID
 40
0.0
  9
$SPLFRAME
 70
     0
  9
$SPLINETYPE
 70
     6
  9
$SPLINESEGS
 70
     8
  9
$HANDSEED
  5
10B53
  9
$SURFTAB1
 70
     6
  9
$SURFTAB2
 70
     6
  9
$SURFTYPE
 70
     6
  9
$SURFU
 70
     6
  9
$SURFV
 70
     6
  9
$UCSBASE
  2

  9
$UCSNAME
  2

  9
$UCSORG
 10
0.0
 20
0.0
 30
0.0
  9
$UCSXDIR
 10
1.0
 20
0.0
 30
0.0
  9
$UCSYDIR
 10
0.0
 20
1.0
 30
0.0
  9
$UCSORTHOREF
  2

  9
$UCSORTHOVIEW
 70
     0
  9
$UCSORGTOP
 10
0.0
 20
0.0
 30
0.0
  9
$UCSORGBOTTOM
 10
0.0
 20
0.0
 30
0.0
  9
$UCSORGLEFT
 10
0.0
 20
0.0
 30
0.0
  9
$UCSORGRIGHT
 10
0.0
 20
0.0
 30
0.0
  9
$UCSORGFRONT
 10
0.0
 20
0.0
 30
0.0
  9
$UCSORGBACK
 10
0.0
 20
0.0
 30
0.0
  9
$PUCSBASE
  2

  9
$PUCSNAME
  2

  9
$PUCSORG
 10
0.0
 20
0.0
 30
0.0
  9
$PUCSXDIR
 10
1.0
 20
0.0
 30
0.0
  9
$PUCSYDIR
 10
0.0
 20
1.0
 30
0.0
  9
$PUCSORTHOREF
  2

  9
$PUCSORTHOVIEW
 70
     0
  9
$PUCSORGTOP
 10
0.0
 20
0.0
 30
0.0
  9
$PUCSORGBOTTOM
 10
0.0
 20
0.0
 30
0.0
  9
$PUCSORGLEFT
 10
0.0
 20
0.0
 30
0.0
  9
$PUCSORGRIGHT
 10
0.0
 20
0.0
 30
0.0
  9
$PUCSORGFRONT
 10
0.0
 20
0.0
 30
0.0
  9
$PUCSORGBACK
 10
0.0
 20
0.0
 30
0.0
  9
$USERI1
 70
     0
  9
$USERI2
 70
     0
  9
$USERI3
 70
     0
  9
$USERI4
 70
     0
  9
$USERI5
 70
     0
  9
$USERR1
 40
0.0
  9
$USERR2
 40
0.0
  9
$USERR3
 40
0.0
  9
$USERR4
 40
0.0
  9
$USERR5
 40
0.0
  9
$WORLDVIEW
 70
     1
  9
$SHADEDGE
 70
     3
  9
$SHADEDIF
 70
    70
  9
$TILEMODE
 70
     1
  9
$MAXACTVP
 70
    48
  9
$PINSBASE
 10
0.0
 20
0.0
 30
0.0
  9
$PLIMCHECK
 70
     0
  9
$PEXTMIN
 10
0.0
 20
0.0
 30
0.0
  9
$PEXTMAX
 10
594.0
 20
420.0
 30
0.0
  9
$PLIMMIN
 10
-0.027002
 20
-0.030288
  9
$PLIMMAX
 10
593.927183
 20
419.94639
  9
$UNITMODE
 70
     0
  9
$VISRETAIN
 70
     0
  9
$PLINEGEN
 70
     1
  9
$PSLTSCALE
 70
     1
  9
$TREEDEPTH
 70
  3020
  9
$CMLSTYLE
  2
STANDARD
  9
$CMLJUST
 70
     0
  9
$CMLSCALE
 40
20.0
  9
$PROXYGRAPHICS
 70
     1
  9
$MEASUREMENT
 70
     1
  9
$CELWEIGHT
370
    -1
  9
$ENDCAPS
280
     0
  9
$JOINSTYLE
280
     0
  9
$LWDISPLAY
290
     0
  9
$INSUNITS
 70
     0
  9
$HYPERLINKBASE
  1

  9
$STYLESHEET
  1

  9
$XEDIT
290
     1
  9
$CEPSNTYPE
380
     0
  9
$PSTYLEMODE
290
     1
  9
$FINGERPRINTGUID
  2
{7FD28A7C-F8BA-11D3-9BCC-00A0C977751D}
  9
$VERSIONGUID
  2
{19463BEA-85ED-4FB7-A180-4287D332218F}
  9
$EXTNAMES
290
     1
  9
$PSVPSCALE
 40
0.0
  9
$OLESTARTUP
290
     0
  0
ENDSEC
  0
SECTION
  2
CLASSES
  0
CLASS
  1
LWPOLYLINE
  2
AcDbPolyline
  3
AutoCAD 2000
 90
    32768
280
     0
281
     1
  0
CLASS
  1
ACDBDICTIONARYWDFLT
  2
AcDbDictionaryWithDefault
  3
AutoCAD 2000
 90
        0
280
     0
281
     0
  0
CLASS
  1
ACDBPLACEHOLDER
  2
AcDbPlaceHolder
  3
AutoCAD 2000
 90
        0
280
     0
281
     0
  0
CLASS
  1
LAYOUT
  2
AcDbLayout
  3
AutoCAD 2000
 90
        0
280
     0
281
     0
  0
CLASS
  1
PLOTSETTINGS
  2
AcDbPlotSettings
  3
AutoCAD 2000
 90
        0
280
     0
281
     0
  0
CLASS
  1
RASTERVARIABLES
  2
AcDbRasterVariables
  3
ISM
 90
        0
280
     0
281
     0
  0
CLASS
  1
DICTIONARYVAR
  2
AcDbDictionaryVar
  3
AutoCAD 2000
 90
        0
280
     0
281
     0
  0
CLASS
  1
IMAGE
  2
AcDbRasterImage
  3
ISM
 90
    32895
280
     0
281
     1
  0
CLASS
  1
OLE2FRAME
  2
AcDbOle2Frame
  3
AutoCAD 2000
 90
    32768
280
     0
281
     1
  0
CLASS
  1
HATCH
  2
AcDbHatch
  3
AutoCAD 2000
 90
    32768
280
     0
281
     1
  0
CLASS
  1
IMAGEDEF
  2
AcDbRasterImageDef
  3
ISM
 90
    32768
280
     0
281
     0
  0
CLASS
  1
IMAGEDEF_REACTOR
  2
AcDbRasterImageDefReactor
  3
ISM
 90
    32769
280
     0
281
     0
  0
CLASS
  1
IDBUFFER
  2
AcDbIdBuffer
  3
AutoCAD 2000
 90
    32768
280
     0
281
     0
  0
CLASS
  1
SPATIAL_FILTER
  2
AcDbSpatialFilter
  3
AutoCAD 2000
 90
    32768
280
     0
281
     0
  0
CLASS
  1
XRECORD
  2
AcDbXrecord
  3
AutoCAD 2000
 90
    32768
280
     0
281
     0
  0
CLASS
  1
SORTENTSTABLE
  2
AcDbSortentsTable
  3
AutoCAD 2000
 90
    32768
280
     0
281
     0
  0
CLASS
  1
LAYER_INDEX
  2
AcDbLayerIndex
  3
AutoCAD 2000
 90
    32768
280
     0
281
     0
  0
CLASS
  1
SPATIAL_INDEX
  2
AcDbSpatialIndex
  3
AutoCAD 2000
 90
    32768
280
     0
281
     0
  0
CLASS
  1
OBJECT_PTR
  2
CAseDLPNTableRecord
  3
"ASE-LPNTableRecord"
 90
    32769
280
     0
281
     0
  0
CLASS
  1
VBA_PROJECT
  2
AcDbVbaProject
  3
"acadvba"
 90
    32769
280
     0
281
     0
  0
CLASS
  1
WIPEOUT
  2
AcDbWipeout
  3
WipeOut|AutoCAD Express Tool|expresstools@autodesk.com
 90
    32895
280
     0
281
     1
  0
CLASS
  1
WIPEOUTVARIABLES
  2
AcDbWipeoutVariables
  3
WipeOut|AutoCAD Express Tool|expresstools@autodesk.com
 90
    32768
280
     0
281
     0
  0
CLASS
  1
RTEXT
  2
RText
  3
RText|AutoCAD Express Tool|expresstools@autodesk.com
 90
    32768
280
     0
281
     1
  0
CLASS
  1
ARCALIGNEDTEXT
  2
AcDbArcAlignedText
  3
ATEXT|AutoCAD Express Tool|expresstools@autodesk.com
 90
    32768
280
     0
281
     1
  0
ENDSEC
  0
SECTION
  2
TABLES
  0
TABLE
  2
VPORT
  5
8
330
0
100
AcDbSymbolTable
 70
     2
  0
VPORT
  5
10B52
330
8
100
AcDbSymbolTableRecord
100
AcDbViewportTableRecord
  2
*Active
 70
     0
 10
0.0
 20
0.0
 11
1.0
 21
1.0
 12
439.3713801463611
 22
-388.4385151052606
 13
0.0
 23
0.0
 14
5.0
 24
5.0
 15
10.0
 25
10.0
 16
0.0
 26
0.0
 36
1.0
 17
0.0
 27
0.0
 37
0.0
 40
1566.73486325419
 41
1.593716143011917
 42
50.0
 43
0.0
 44
0.0
 50
0.0
 51
0.0
 71
     0
 72
   100
 73
     1
 74
     0
 75
     0
 76
     0
 77
     0
 78
     0
281
     0
 65
     1
110
0.0
120
0.0
130
0.0
111
1.0
121
0.0
131
0.0
112
0.0
122
1.0
132
0.0
 79
     0
146
0.0
  0
ENDTAB
  0
TABLE
  2
LTYPE
  5
5
330
0
100
AcDbSymbolTable
 70
     4
  0
LTYPE
  5
12
330
5
100
AcDbSymbolTableRecord
100
AcDbLinetypeTableRecord
  2
ByBlock
 70
     0
  3

 72
    65
 73
     0
 40
0.0
  0
LTYPE
  5
13
330
5
100
AcDbSymbolTableRecord
100
AcDbLinetypeTableRecord
  2
ByLayer
 70
     0
  3

 72
    65
 73
     0
 40
0.0
  0
LTYPE
  5
14
330
5
100
AcDbSymbolTableRecord
100
AcDbLinetypeTableRecord
  2
CONTINUOUS
 70
     0
  3
Solid line
 72
    65
 73
     0
 40
0.0
  0
LTYPE
  5
22
330
5
100
AcDbSymbolTableRecord
100
AcDbLinetypeTableRecord
  2
CENTER
 70
     0
  3
____ _ ____ _ ____ _ ____ _ ____ _ ____ _ ____ 
 72
    65
 73
     4
 40
2.0
 49
1.25
 74
     0
 49
-0.25
 74
     0
 49
0.25
 74
     0
 49
-0.25
 74
     0
  0
LTYPE
  5
23
330
5
100
AcDbSymbolTableRecord
100
AcDbLinetypeTableRecord
  2
HIDDEN
 70
     0
  3
__ __ __ __ __ __ __ __ __ __ __ __ __ __ __ __
 72
    65
 73
     2
 40
0.375
 49
0.25
 74
     0
 49
-0.125
 74
     0
  0
LTYPE
  5
24
330
5
100
AcDbSymbolTableRecord
100
AcDbLinetypeTableRecord
  2
PHANTOM
 70
     0
  3
______  __  __  ______  __  __  ______  __  __ 
 72
    65
 73
     6
 40
2.5
 49
1.25
 74
     0
 49
-0.25
 74
     0
 49
0.25
 74
     0
 49
-0.25
 74
     0
 49
0.25
 74
     0
 49
-0.25
 74
     0
  0
ENDTAB
  0
TABLE
  2
LAYER
  5
2
330
0
100
AcDbSymbolTable
 70
    14
  0
LAYER
  5
E
330
2
100
AcDbSymbolTableRecord
100
AcDbLayerTableRecord
  2
0
 70
     0
 62
     7
  6
CONTINUOUS
370
    -3
390
1AC
  0
LAYER
  5
25
330
2
100
AcDbSymbolTableRecord
100
AcDbLayerTableRecord
  2
CENTER
 70
     0
 62
     1
  6
CENTER
370
    -3
390
1AC
  0
LAYER
  5
26
330
2
100
AcDbSymbolTableRecord
100
AcDbLayerTableRecord
  2
DIM1-1
 70
     0
 62
     1
  6
CONTINUOUS
370
    -3
390
1AC
  0
LAYER
  5
27
330
2
100
AcDbSymbolTableRecord
100
AcDbLayerTableRecord
  2
DRAW
 70
     0
 62
     7
  6
CONTINUOUS
370
    -3
390
1AC
  0
LAYER
  5
28
330
2
100
AcDbSymbolTableRecord
100
AcDbLayerTableRecord
  2
DRAW1
 70
     0
 62
     3
  6
CONTINUOUS
370
    -3
390
1AC
  0
LAYER
  5
29
330
2
100
AcDbSymbolTableRecord
100
AcDbLayerTableRecord
  2
DRAW2
 70
     0
 62
     4
  6
CONTINUOUS
370
    -3
390
1AC
  0
LAYER
  5
2A
330
2
100
AcDbSymbolTableRecord
100
AcDbLayerTableRecord
  2
DRAW3
 70
     0
 62
     1
  6
CONTINUOUS
370
    -3
390
1AC
  0
LAYER
  5
2C
330
2
100
AcDbSymbolTableRecord
100
AcDbLayerTableRecord
  2
HIDDEN
 70
     0
 62
     7
  6
HIDDEN
370
    -3
390
1AC
  0
LAYER
  5
2D
330
2
100
AcDbSymbolTableRecord
100
AcDbLayerTableRecord
  2
IMAGE
 70
     0
 62
     1
  6
PHANTOM
370
    -3
390
1AC
  0
LAYER
  5
2E
330
2
100
AcDbSymbolTableRecord
100
AcDbLayerTableRecord
  2
NOTE
 70
     0
 62
     7
  6
CONTINUOUS
370
    -3
390
1AC
  0
LAYER
  5
2F
330
2
100
AcDbSymbolTableRecord
100
AcDbLayerTableRecord
  2
POINT
 70
     0
 62
     6
  6
CONTINUOUS
290
     0
370
    -3
390
1AC
  0
LAYER
  5
133
330
2
100
AcDbSymbolTableRecord
100
AcDbLayerTableRecord
  2
DEFPOINTS
 70
     0
 62
     7
  6
CONTINUOUS
290
     0
370
    -3
390
1AC
  0
LAYER
  5
1B8
330
2
100
AcDbSymbolTableRecord
100
AcDbLayerTableRecord
  2
FRAME
 70
     0
 62
     7
  6
CONTINUOUS
370
    -3
390
1AC
  0
LAYER
  5
7F28
330
2
100
AcDbSymbolTableRecord
100
AcDbLayerTableRecord
  2
SYMBOL
 70
     0
 62
     7
  6
CONTINUOUS
370
    -3
390
1AC
  0
ENDTAB
  0
TABLE
  2
STYLE
  5
3
330
0
100
AcDbSymbolTable
 70
     3
  0
STYLE
  5
F
330
3
100
AcDbSymbolTableRecord
100
AcDbTextStyleTableRecord
  2
STANDARD
 70
     0
 40
0.0
 41
1.0
 50
0.0
 71
     0
 42
2.5
  3
txt
  4

  0
STYLE
  5
30
330
3
100
AcDbSymbolTableRecord
100
AcDbTextStyleTableRecord
  2
DIMFONT
 70
     0
 40
0.0
 41
1.0
 50
10.0
 71
     0
 42
3.2
  3
romans.shx
  4
extfont.shx
  0
STYLE
  5
C38
330
3
100
AcDbSymbolTableRecord
100
AcDbTextStyleTableRecord
  2
RCEXFONT
 70
     0
 40
0.0
 41
1.0
 50
0.0
 71
     0
 42
3.2
  3
romanc.shx
  4
extfont.shx
  0
ENDTAB
  0
TABLE
  2
VIEW
  5
6
330
0
100
AcDbSymbolTable
 70
     5
  0
VIEW
  5
C27
330
6
100
AcDbSymbolTableRecord
100
AcDbViewTableRecord
  2
View1
 70
     0
 40
1250.0
 10
0.0
 20
0.0
 41
2066.420664
 11
0.0
 21
0.0
 31
1.0
 12
0.0
 22
0.0
 32
0.0
 42
50.0
 43
0.0
 44
0.0
 50
0.0
 71
     0
281
     0
 72
     1
110
0.0
120
0.0
130
0.0
111
1.0
121
0.0
131
0.0
112
0.0
122
1.0
132
0.0
 79
     0
146
0.0
  0
VIEW
  5
C2A
330
6
100
AcDbSymbolTableRecord
100
AcDbViewTableRecord
  2
A4
 70
     0
 40
314.214893
 10
103.822243
 20
144.519751
 41
519.4401179999998
 11
0.0
 21
0.0
 31
1.0
 12
0.0
 22
0.0
 32
0.0
 42
50.0
 43
0.0
 44
0.0
 50
0.0
 71
     0
281
     1
 72
     1
110
0.0
120
0.0
130
0.0
111
1.0
121
0.0
131
0.0
112
0.0
122
1.0
132
0.0
 79
     0
146
0.0
  0
VIEW
  5
C2B
330
6
100
AcDbSymbolTableRecord
100
AcDbViewTableRecord
  2
A3
 70
     0
 40
314.214893
 10
205.819492
 20
151.3197509999999
 41
519.4401179999998
 11
0.0
 21
0.0
 31
1.0
 12
0.0
 22
0.0
 32
0.0
 42
50.0
 43
0.0
 44
0.0
 50
0.0
 71
     0
281
     1
 72
     1
110
0.0
120
0.0
130
0.0
111
1.0
121
0.0
131
0.0
112
0.0
122
1.0
132
0.0
 79
     0
146
0.0
  0
VIEW
  5
C2C
330
6
100
AcDbSymbolTableRecord
100
AcDbViewTableRecord
  2
A2
 70
     0
 40
444.348344
 10
293.3145019999999
 20
213.319492
 41
734.56848
 11
0.0
 21
0.0
 31
1.0
 12
0.0
 22
0.0
 32
0.0
 42
50.0
 43
0.0
 44
0.0
 50
0.0
 71
     0
281
     1
 72
     1
110
0.0
120
0.0
130
0.0
111
1.0
121
0.0
131
0.0
112
0.0
122
1.0
132
0.0
 79
     0
146
0.0
  0
VIEW
  5
C2D
330
6
100
AcDbSymbolTableRecord
100
AcDbViewTableRecord
  2
A1
 70
     0
 40
628.2954049999998
 10
422.5084999999998
 20
293.438495
 41
1038.658087
 11
0.0
 21
0.0
 31
1.0
 12
0.0
 22
0.0
 32
0.0
 42
50.0
 43
0.0
 44
0.0
 50
0.0
 71
     0
281
     1
 72
     1
110
0.0
120
0.0
130
0.0
111
1.0
121
0.0
131
0.0
112
0.0
122
1.0
132
0.0
 79
     0
146
0.0
  0
ENDTAB
  0
TABLE
  2
UCS
  5
7
330
0
100
AcDbSymbolTable
 70
     0
  0
ENDTAB
  0
TABLE
  2
APPID
  5
9
330
0
100
AcDbSymbolTable
 70
     1
  0
APPID
  5
10
330
9
100
AcDbSymbolTableRecord
100
AcDbRegAppTableRecord
  2
ACAD
 70
     0
  0
ENDTAB
  0
TABLE
  2
DIMSTYLE
  5
A
330
0
100
AcDbSymbolTable
 70
     4
100
AcDbDimStyleTable
 71
     0
  0
DIMSTYLE
105
43
330
A
100
AcDbSymbolTableRecord
100
AcDbDimStyleTableRecord
  2
1_1
 70
     0
 41
3.0
 42
0.0
 43
10.0
 44
1.0
 73
     0
 74
     0
 77
     3
 78
     8
 79
     2
140
3.2
141
0.0
146
0.75
147
1.0
172
     1
173
     1
179
     2
284
     8
340
30
341
125
343
125
344
125
  0
DIMSTYLE
105
4E
330
A
100
AcDbSymbolTableRecord
100
AcDbDimStyleTableRecord
  2
1_4
 70
     0
 40
4.0
 41
3.0
 42
0.0
 43
10.0
 44
1.0
 73
     0
 74
     0
 77
     3
 78
     8
 79
     2
140
3.2
141
0.0
146
0.75
147
1.0
172
     1
173
     1
179
     2
284
     8
340
30
341
125
343
125
344
125
  0
DIMSTYLE
105
4F
330
A
100
AcDbSymbolTableRecord
100
AcDbDimStyleTableRecord
  2
1_5
 70
     0
 40
5.0
 41
3.0
 42
0.0
 43
10.0
 44
1.0
 73
     0
 74
     0
 77
     3
 78
     8
 79
     2
140
3.2
141
0.0
146
0.75
147
1.0
172
     1
173
     1
179
     2
284
     8
340
30
341
125
343
125
344
125
  0
DIMSTYLE
105
C39
330
A
100
AcDbSymbolTableRecord
100
AcDbDimStyleTableRecord
  2
STANDARD
 70
     0
340
F
  0
ENDTAB
  0
TABLE
  2
BLOCK_RECORD
  5
1
330
0
100
AcDbSymbolTable
 70
    23
  0
BLOCK_RECORD
  5
18
330
1
100
AcDbSymbolTableRecord
100
AcDbBlockTableRecord
  2
*MODEL_SPACE
340
1AF
  0
BLOCK_RECORD
  5
15
330
1
100
AcDbSymbolTableRecord
100
AcDbBlockTableRecord
  2
*PAPER_SPACE
340
1B0
  0
BLOCK_RECORD
  5
125
330
1
100
AcDbSymbolTableRecord
100
AcDbBlockTableRecord
  2
_OPEN
340
0
102
{BLKREFS
331
108A9
331
108AA
331
8DE0
331
8DE1
331
10698
331
10699
331
10667
331
10668
331
10807
331
10808
331
107FE
331
107FF
331
1071B
331
1071C
331
10732
331
10733
331
10712
331
10713
331
10709
331
1070A
331
106F3
331
106F4
331
10748
331
10749
331
107F5
331
107F6
331
10866
331
10867
331
10885
331
10886
331
108DA
331
108DB
331
10907
331
10908
331
1090D
331
1090E
331
1091A
331
1091B
331
10920
331
10921
331
10926
331
10927
331
1092C
331
1092D
331
10932
331
10933
331
1097B
331
1097C
331
1097E
331
10980
331
10985
331
10986
331
1098B
331
1098C
331
10991
331
10992
331
109AB
331
109AC
331
109B4
331
109B5
331
109BA
331
109BB
331
109BD
331
109C3
331
109C4
331
109C9
331
109CA
102
}
  0
BLOCK_RECORD
  5
3014
330
1
100
AcDbSymbolTableRecord
100
AcDbBlockTableRecord
  2
_Dot
340
0
  0
BLOCK_RECORD
  5
8D5F
330
1
100
AcDbSymbolTableRecord
100
AcDbBlockTableRecord
  2
*D2
340
0
  0
BLOCK_RECORD
  5
8D6B
330
1
100
AcDbSymbolTableRecord
100
AcDbBlockTableRecord
  2
*D3
340
0
  0
BLOCK_RECORD
  5
8D83
330
1
100
AcDbSymbolTableRecord
100
AcDbBlockTableRecord
  2
*D4
340
0
  0
BLOCK_RECORD
  5
8D8F
330
1
100
AcDbSymbolTableRecord
100
AcDbBlockTableRecord
  2
*D5
340
0
  0
BLOCK_RECORD
  5
8D9B
330
1
100
AcDbSymbolTableRecord
100
AcDbBlockTableRecord
  2
*D6
340
0
  0
BLOCK_RECORD
  5
8DBF
330
1
100
AcDbSymbolTableRecord
100
AcDbBlockTableRecord
  2
*D7
340
0
  0
BLOCK_RECORD
  5
A483
330
1
100
AcDbSymbolTableRecord
100
AcDbBlockTableRecord
  2
6-05
340
0
102
{BLKREFS
331
A4DC
331
109AE
102
}
  0
BLOCK_RECORD
  5
A4DB
330
1
100
AcDbSymbolTableRecord
100
AcDbBlockTableRecord
  2
A$C9270
340
0
102
{BLKREFS
331
104D4
102
}
  0
BLOCK_RECORD
  5
A4DF
330
1
100
AcDbSymbolTableRecord
100
AcDbBlockTableRecord
  2
6-12
340
0
102
{BLKREFS
331
A576
331
1099B
102
}
  0
BLOCK_RECORD
  5
A56E
330
1
100
AcDbSymbolTableRecord
100
AcDbBlockTableRecord
  2
A$CA052
340
0
102
{BLKREFS
331
104D8
102
}
  0
BLOCK_RECORD
  5
A583
330
1
100
AcDbSymbolTableRecord
100
AcDbBlockTableRecord
  2
A$CA1A3
340
0
102
{BLKREFS
331
104AA
102
}
  0
BLOCK_RECORD
  5
104AC
330
1
100
AcDbSymbolTableRecord
100
AcDbBlockTableRecord
  2
*D13
340
0
  0
BLOCK_RECORD
  5
104D9
330
1
100
AcDbSymbolTableRecord
100
AcDbBlockTableRecord
  2
*D14
340
0
  0
BLOCK_RECORD
  5
104E7
330
1
100
AcDbSymbolTableRecord
100
AcDbBlockTableRecord
  2
*D15
340
0
  0
BLOCK_RECORD
  5
104F3
330
1
100
AcDbSymbolTableRecord
100
AcDbBlockTableRecord
  2
*D16
340
0
  0
BLOCK_RECORD
  5
1069F
330
1
100
AcDbSymbolTableRecord
100
AcDbBlockTableRecord
  2
*D17
340
0
  0
BLOCK_RECORD
  5
10739
330
1
100
AcDbSymbolTableRecord
100
AcDbBlockTableRecord
  2
*D18
340
0
  0
BLOCK_RECORD
  5
1077E
330
1
100
AcDbSymbolTableRecord
100
AcDbBlockTableRecord
  2
*D19
340
0
  0
BLOCK_RECORD
  5
1084E
330
1
100
AcDbSymbolTableRecord
100
AcDbBlockTableRecord
  2
*D20
340
0
  0
BLOCK_RECORD
  5
1086D
330
1
100
AcDbSymbolTableRecord
100
AcDbBlockTableRecord
  2
*D21
340
0
  0
BLOCK_RECORD
  5
108C2
330
1
100
AcDbSymbolTableRecord
100
AcDbBlockTableRecord
  2
*D22
340
0
  0
ENDTAB
  0
ENDSEC
  0
SECTION
  2
BLOCKS
  0
BLOCK
  5
19
330
18
100
AcDbEntity
  8
0
100
AcDbBlockBegin
  2
*MODEL_SPACE
 70
     0
 10
0.0
 20
0.0
 30
0.0
  3
*MODEL_SPACE
  1

  0
ENDBLK
  5
1A
330
18
100
AcDbEntity
  8
0
100
AcDbBlockEnd
  0
BLOCK
  5
16
330
15
100
AcDbEntity
 67
     1
  8
0
100
AcDbBlockBegin
  2
*PAPER_SPACE
 70
     0
 10
0.0
 20
0.0
 30
0.0
  3
*PAPER_SPACE
  1

  0
ENDBLK
  5
17
330
15
100
AcDbEntity
 67
     1
  8
0
100
AcDbBlockEnd
  0
BLOCK
  5
126
330
125
100
AcDbEntity
  8
0
100
AcDbBlockBegin
  2
_OPEN
 70
     0
 10
0.0
 20
0.0
 30
0.0
  3
_OPEN
  1

  0
LINE
  5
127
330
125
100
AcDbEntity
  8
0
  6
ByBlock
 62
     0
100
AcDbLine
 10
-1.0
 20
0.166667
 30
0.0
 11
0.0
 21
0.0
 31
0.0
  0
LINE
  5
128
330
125
100
AcDbEntity
  8
0
  6
ByBlock
 62
     0
100
AcDbLine
 10
0.0
 20
0.0
 30
0.0
 11
-1.0
 21
-0.166667
 31
0.0
  0
LINE
  5
129
330
125
100
AcDbEntity
  8
0
  6
ByBlock
 62
     0
100
AcDbLine
 10
0.0
 20
0.0
 30
0.0
 11
-1.0
 21
0.0
 31
0.0
  0
ENDBLK
  5
12A
330
125
100
AcDbEntity
  8
0
100
AcDbBlockEnd
  0
BLOCK
  5
3017
330
3014
100
AcDbEntity
  8
0
100
AcDbBlockBegin
  2
_Dot
 70
     0
 10
0.0
 20
0.0
 30
0.0
  3
_Dot
  1

  0
LWPOLYLINE
  5
3015
330
3014
100
AcDbEntity
  8
NOTE
 62
     0
100
AcDbPolyline
 90
        2
 70
     1
 43
0.5
 10
-0.25
 20
0.0
 42
1.0
 10
0.25
 20
0.0
 42
1.0
  0
LINE
  5
3016
330
3014
100
AcDbEntity
  8
NOTE
 62
     0
370
    -2
100
AcDbLine
 10
-0.5
 20
0.0
 30
0.0
 11
-1.0
 21
0.0
 31
0.0
  0
ENDBLK
  5
3018
330
3014
100
AcDbEntity
  8
0
100
AcDbBlockEnd
  0
BLOCK
  5
8D69
330
8D5F
100
AcDbEntity
  8
0
100
AcDbBlockBegin
  2
*D2
 70
     1
 10
0.0
 20
0.0
 30
0.0
  3
*D2
  1

  0
LINE
  5
108A6
330
8D5F
100
AcDbEntity
  8
DIM1-1
 62
     0
370
    -2
100
AcDbLine
 10
-803.971066
 20
-978.2687609999999
 30
0.0
 11
-803.971066
 21
-1044.068760999999
 31
0.0
  0
LINE
  5
108A7
330
8D5F
100
AcDbEntity
  8
DIM1-1
 62
     0
370
    -2
100
AcDbLine
 10
-354.371066
 20
-978.2687609999999
 30
0.0
 11
-354.371066
 21
-1044.068760999999
 31
0.0
  0
LINE
  5
108A8
330
8D5F
100
AcDbEntity
  8
DIM1-1
 62
     0
370
    -2
100
AcDbLine
 10
-788.971066
 20
-1039.068761
 30
0.0
 11
-369.371066
 21
-1039.068761
 31
0.0
  0
INSERT
  5
108A9
330
8D5F
100
AcDbEntity
  8
DIM1-1
 62
     0
370
    -2
100
AcDbBlockReference
  2
_OPEN
 10
-803.971066
 20
-1039.068761
 30
0.0
 41
15.0
 42
15.0
 43
15.0
 50
180.0
  0
INSERT
  5
108AA
330
8D5F
100
AcDbEntity
  8
DIM1-1
 62
     0
370
    -2
100
AcDbBlockReference
  2
_OPEN
 10
-354.371066
 20
-1039.068761
 30
0.0
 41
15.0
 42
15.0
 43
15.0
  0
MTEXT
  5
108AB
330
8D5F
100
AcDbEntity
  8
DIM1-1
 62
     0
100
AcDbMText
 10
-579.1710659999998
 20
-1021.878284
 30
0.0
 40
16.0
 41
0.0
 71
     5
 72
     1
  1
\A1;(450)
  7
DIMFONT
 73
     1
 44
1.0
  0
POINT
  5
108AC
330
8D5F
100
AcDbEntity
  8
DEFPOINTS
 62
     0
100
AcDbPoint
 10
-803.971066
 20
-978.2687609999999
 30
0.0
  0
POINT
  5
108AD
330
8D5F
100
AcDbEntity
  8
DEFPOINTS
 62
     0
100
AcDbPoint
 10
-354.371066
 20
-978.2687609999999
 30
0.0
  0
POINT
  5
108AE
330
8D5F
100
AcDbEntity
  8
DEFPOINTS
 62
     0
100
AcDbPoint
 10
-354.371066
 20
-1039.068761
 30
0.0
  0
ENDBLK
  5
8D6A
330
8D5F
100
AcDbEntity
  8
0
100
AcDbBlockEnd
  0
BLOCK
  5
8D75
330
8D6B
100
AcDbEntity
  8
0
100
AcDbBlockBegin
  2
*D3
 70
     1
 10
0.0
 20
0.0
 30
0.0
  3
*D3
  1

  0
LINE
  5
8DDD
330
8D6B
100
AcDbEntity
  8
DIM1-1
 62
     0
370
    -2
100
AcDbLine
 10
214.880077
 20
-829.5687609999998
 30
0.0
 11
214.880077
 21
-1104.068761
 31
0.0
  0
LINE
  5
8DDE
330
8D6B
100
AcDbEntity
  8
DIM1-1
 62
     0
370
    -2
100
AcDbLine
 10
1013.880077
 20
-829.5687609999998
 30
0.0
 11
1013.880077
 21
-1104.068761
 31
0.0
  0
LINE
  5
8DDF
330
8D6B
100
AcDbEntity
  8
DIM1-1
 62
     0
370
    -2
100
AcDbLine
 10
229.880077
 20
-1099.068761
 30
0.0
 11
998.880077
 21
-1099.068761
 31
0.0
  0
INSERT
  5
8DE0
330
8D6B
100
AcDbEntity
  8
DIM1-1
 62
     0
370
    -2
100
AcDbBlockReference
  2
_OPEN
 10
214.880077
 20
-1099.068761
 30
0.0
 41
15.0
 42
15.0
 43
15.0
 50
180.0
  0
INSERT
  5
8DE1
330
8D6B
100
AcDbEntity
  8
DIM1-1
 62
     0
370
    -2
100
AcDbBlockReference
  2
_OPEN
 10
1013.880077
 20
-1099.068761
 30
0.0
 41
15.0
 42
15.0
 43
15.0
  0
MTEXT
  5
8DE2
330
8D6B
100
AcDbEntity
  8
DIM1-1
 62
     0
100
AcDbMText
 10
614.3800769999998
 20
-1081.878283999998
 30
0.0
 40
16.0
 41
0.0
 71
     5
 72
     1
  1
\A1;(800)
  7
DIMFONT
 73
     1
 44
1.0
  0
POINT
  5
8DE3
330
8D6B
100
AcDbEntity
  8
DEFPOINTS
 62
     0
100
AcDbPoint
 10
214.880077
 20
-829.5687609999998
 30
0.0
  0
POINT
  5
8DE4
330
8D6B
100
AcDbEntity
  8
DEFPOINTS
 62
     0
100
AcDbPoint
 10
1013.880077
 20
-829.5687609999998
 30
0.0
  0
POINT
  5
8DE5
330
8D6B
100
AcDbEntity
  8
DEFPOINTS
 62
     0
100
AcDbPoint
 10
1013.880077
 20
-1099.068761
 30
0.0
  0
ENDBLK
  5
8D76
330
8D6B
100
AcDbEntity
  8
0
100
AcDbBlockEnd
  0
BLOCK
  5
8D8D
330
8D83
100
AcDbEntity
  8
0
100
AcDbBlockBegin
  2
*D4
 70
     1
 10
0.0
 20
0.0
 30
0.0
  3
*D4
  1

  0
LINE
  5
10695
330
8D83
100
AcDbEntity
  8
DIM1-1
 62
     0
370
    -2
100
AcDbLine
 10
1013.880077
 20
-681.568761
 30
0.0
 11
1078.880076999998
 21
-681.568761
 31
0.0
  0
LINE
  5
10696
330
8D83
100
AcDbEntity
  8
DIM1-1
 62
     0
370
    -2
100
AcDbLine
 10
1013.880077
 20
-829.5687609999998
 30
0.0
 11
1078.880076999998
 21
-829.5687609999998
 31
0.0
  0
LINE
  5
10697
330
8D83
100
AcDbEntity
  8
DIM1-1
 62
     0
370
    -2
100
AcDbLine
 10
1073.880077
 20
-696.5687609999998
 30
0.0
 11
1073.880077
 21
-814.5687609999999
 31
0.0
  0
INSERT
  5
10698
330
8D83
100
AcDbEntity
  8
DIM1-1
 62
     0
370
    -2
100
AcDbBlockReference
  2
_OPEN
 10
1073.880077
 20
-681.568761
 30
0.0
 41
15.0
 42
15.0
 43
15.0
 50
90.0
  0
INSERT
  5
10699
330
8D83
100
AcDbEntity
  8
DIM1-1
 62
     0
370
    -2
100
AcDbBlockReference
  2
_OPEN
 10
1073.880077
 20
-829.5687609999998
 30
0.0
 41
15.0
 42
15.0
 43
15.0
 50
270.0
  0
MTEXT
  5
1069A
330
8D83
100
AcDbEntity
  8
DIM1-1
 62
     0
100
AcDbMText
 10
1056.689601
 20
-755.5687609999998
 30
0.0
 40
16.0
 41
0.0
 71
     5
 72
     1
  1
\A1;(%%c148)
  7
DIMFONT
 11
0.0
 21
1.0
 31
0.0
 73
     1
 44
1.0
  0
POINT
  5
1069B
330
8D83
100
AcDbEntity
  8
DEFPOINTS
 62
     0
100
AcDbPoint
 10
1013.880077
 20
-681.568761
 30
0.0
  0
POINT
  5
1069C
330
8D83
100
AcDbEntity
  8
DEFPOINTS
 62
     0
100
AcDbPoint
 10
1013.880077
 20
-829.5687609999998
 30
0.0
  0
POINT
  5
1069D
330
8D83
100
AcDbEntity
  8
DEFPOINTS
 62
     0
100
AcDbPoint
 10
1073.880077
 20
-829.5687609999998
 30
0.0
  0
ENDBLK
  5
8D8E
330
8D83
100
AcDbEntity
  8
0
100
AcDbBlockEnd
  0
BLOCK
  5
8D99
330
8D8F
100
AcDbEntity
  8
0
100
AcDbBlockBegin
  2
*D5
 70
     1
 10
0.0
 20
0.0
 30
0.0
  3
*D5
  1

  0
LINE
  5
10664
330
8D8F
100
AcDbEntity
  8
DIM1-1
 62
     0
370
    -2
100
AcDbLine
 10
912.8800769999999
 20
-531.268761
 30
0.0
 11
1138.880077
 21
-531.268761
 31
0.0
  0
LINE
  5
10665
330
8D8F
100
AcDbEntity
  8
DIM1-1
 62
     0
370
    -2
100
AcDbLine
 10
914.3800769999996
 20
-979.068761
 30
0.0
 11
1138.880077
 21
-979.068761
 31
0.0
  0
LINE
  5
10666
330
8D8F
100
AcDbEntity
  8
DIM1-1
 62
     0
370
    -2
100
AcDbLine
 10
1133.880077
 20
-546.268761
 30
0.0
 11
1133.880077
 21
-964.068761
 31
0.0
  0
INSERT
  5
10667
330
8D8F
100
AcDbEntity
  8
DIM1-1
 62
     0
370
    -2
100
AcDbBlockReference
  2
_OPEN
 10
1133.880077
 20
-531.268761
 30
0.0
 41
15.0
 42
15.0
 43
15.0
 50
90.0
  0
INSERT
  5
10668
330
8D8F
100
AcDbEntity
  8
DIM1-1
 62
     0
370
    -2
100
AcDbBlockReference
  2
_OPEN
 10
1133.880077
 20
-979.068761
 30
0.0
 41
15.0
 42
15.0
 43
15.0
 50
270.0
  0
MTEXT
  5
10669
330
8D8F
100
AcDbEntity
  8
DIM1-1
 62
     0
100
AcDbMText
 10
1116.689601
 20
-755.168761
 30
0.0
 40
16.0
 41
0.0
 71
     5
 72
     1
  1
\A1;(448)
  7
DIMFONT
 11
0.0
 21
1.0
 31
0.0
 73
     1
 44
1.0
  0
POINT
  5
1066A
330
8D8F
100
AcDbEntity
  8
DEFPOINTS
 62
     0
100
AcDbPoint
 10
912.8800769999999
 20
-531.268761
 30
0.0
  0
POINT
  5
1066B
330
8D8F
100
AcDbEntity
  8
DEFPOINTS
 62
     0
100
AcDbPoint
 10
914.3800769999996
 20
-979.068761
 30
0.0
  0
POINT
  5
1066C
330
8D8F
100
AcDbEntity
  8
DEFPOINTS
 62
     0
100
AcDbPoint
 10
1133.880077
 20
-979.068761
 30
0.0
  0
ENDBLK
  5
8D9A
330
8D8F
100
AcDbEntity
  8
0
100
AcDbBlockEnd
  0
BLOCK
  5
8DA5
330
8D9B
100
AcDbEntity
  8
0
100
AcDbBlockBegin
  2
*D6
 70
     1
 10
0.0
 20
0.0
 30
0.0
  3
*D6
  1

  0
LINE
  5
10804
330
8D9B
100
AcDbEntity
  8
DIM1-1
 62
     0
370
    -2
100
AcDbLine
 10
954.3800769999997
 20
176.8540679999999
 30
0.0
 11
1078.880076999998
 21
176.8540679999999
 31
0.0
  0
LINE
  5
10805
330
8D9B
100
AcDbEntity
  8
DIM1-1
 62
     0
370
    -2
100
AcDbLine
 10
954.3800769999997
 20
-220.145932
 30
0.0
 11
1078.880076999998
 21
-220.145932
 31
0.0
  0
LINE
  5
10806
330
8D9B
100
AcDbEntity
  8
DIM1-1
 62
     0
370
    -2
100
AcDbLine
 10
1073.880077
 20
161.8540679999999
 30
0.0
 11
1073.880077
 21
-205.145932
 31
0.0
  0
INSERT
  5
10807
330
8D9B
100
AcDbEntity
  8
DIM1-1
 62
     0
370
    -2
100
AcDbBlockReference
  2
_OPEN
 10
1073.880077
 20
176.8540679999999
 30
0.0
 41
15.0
 42
15.0
 43
15.0
 50
90.0
  0
INSERT
  5
10808
330
8D9B
100
AcDbEntity
  8
DIM1-1
 62
     0
370
    -2
100
AcDbBlockReference
  2
_OPEN
 10
1073.880077
 20
-220.145932
 30
0.0
 41
15.0
 42
15.0
 43
15.0
 50
270.0
  0
MTEXT
  5
10809
330
8D9B
100
AcDbEntity
  8
DIM1-1
 62
     0
100
AcDbMText
 10
1060.880076999999
 20
-21.645932
 30
0.0
 40
16.0
 41
0.0
 71
     5
 72
     1
  1
\A1;取付寸法397
  7
DIMFONT
 11
0.0
 21
1.0
 31
0.0
 73
     1
 44
1.0
  0
POINT
  5
1080A
330
8D9B
100
AcDbEntity
  8
DEFPOINTS
 62
     0
100
AcDbPoint
 10
954.3800769999997
 20
176.8540679999999
 30
0.0
  0
POINT
  5
1080B
330
8D9B
100
AcDbEntity
  8
DEFPOINTS
 62
     0
100
AcDbPoint
 10
954.3800769999997
 20
-220.145932
 30
0.0
  0
POINT
  5
1080C
330
8D9B
100
AcDbEntity
  8
DEFPOINTS
 62
     0
100
AcDbPoint
 10
1073.880077
 20
-220.145932
 30
0.0
  0
ENDBLK
  5
8DA6
330
8D9B
100
AcDbEntity
  8
0
100
AcDbBlockEnd
  0
BLOCK
  5
8DC9
330
8DBF
100
AcDbEntity
  8
0
100
AcDbBlockBegin
  2
*D7
 70
     1
 10
0.0
 20
0.0
 30
0.0
  3
*D7
  1

  0
LINE
  5
107FB
330
8DBF
100
AcDbEntity
  8
DIM1-1
 62
     0
370
    -2
100
AcDbLine
 10
289.380077
 20
185.8540679999999
 30
0.0
 11
289.380077
 21
266.854068
 31
0.0
  0
LINE
  5
107FC
330
8DBF
100
AcDbEntity
  8
DIM1-1
 62
     0
370
    -2
100
AcDbLine
 10
939.3800769999996
 20
185.8540679999999
 30
0.0
 11
939.3800769999996
 21
266.854068
 31
0.0
  0
LINE
  5
107FD
330
8DBF
100
AcDbEntity
  8
DIM1-1
 62
     0
370
    -2
100
AcDbLine
 10
304.380077
 20
261.854068
 30
0.0
 11
924.3800769999999
 21
261.854068
 31
0.0
  0
INSERT
  5
107FE
330
8DBF
100
AcDbEntity
  8
DIM1-1
 62
     0
370
    -2
100
AcDbBlockReference
  2
_OPEN
 10
289.380077
 20
261.854068
 30
0.0
 41
15.0
 42
15.0
 43
15.0
 50
180.0
  0
INSERT
  5
107FF
330
8DBF
100
AcDbEntity
  8
DIM1-1
 62
     0
370
    -2
100
AcDbBlockReference
  2
_OPEN
 10
939.3800769999996
 20
261.854068
 30
0.0
 41
15.0
 42
15.0
 43
15.0
  0
MTEXT
  5
10800
330
8DBF
100
AcDbEntity
  8
DIM1-1
 62
     0
100
AcDbMText
 10
614.3800769999998
 20
274.854068
 30
0.0
 40
16.0
 41
0.0
 71
     5
 72
     1
  1
\A1;取付寸法650
  7
DIMFONT
 73
     1
 44
1.0
  0
POINT
  5
10801
330
8DBF
100
AcDbEntity
  8
DEFPOINTS
 62
     0
100
AcDbPoint
 10
289.380077
 20
185.8540679999999
 30
0.0
  0
POINT
  5
10802
330
8DBF
100
AcDbEntity
  8
DEFPOINTS
 62
     0
100
AcDbPoint
 10
939.3800769999996
 20
185.8540679999999
 30
0.0
  0
POINT
  5
10803
330
8DBF
100
AcDbEntity
  8
DEFPOINTS
 62
     0
100
AcDbPoint
 10
939.3800769999996
 20
261.854068
 30
0.0
  0
ENDBLK
  5
8DCA
330
8DBF
100
AcDbEntity
  8
0
100
AcDbBlockEnd
  0
BLOCK
  5
A4D9
330
A483
100
AcDbEntity
  8
0
100
AcDbBlockBegin
  2
6-05
 70
     0
 10
0.0
 20
0.0
 30
0.0
  3
6-05
  1

  0
LINE
  5
A484
330
A483
100
AcDbEntity
  8
SYMBOL
100
AcDbLine
 10
15.300001
 20
1.0
 30
0.0
 11
17.700001
 21
1.0
 31
0.0
  0
LINE
  5
A485
330
A483
100
AcDbEntity
  8
SYMBOL
100
AcDbLine
 10
15.300001
 20
1.9
 30
0.0
 11
17.800001
 21
1.9
 31
0.0
  0
ARC
  5
A486
330
A483
100
AcDbEntity
  8
SYMBOL
100
AcDbCircle
 10
15.900001
 20
-0.7
 30
0.0
 40
1.199999999999999
100
AcDbArc
 50
89.99998199999998
 51
270.0
  0
LINE
  5
A487
330
A483
100
AcDbEntity
  8
SYMBOL
100
AcDbLine
 10
3.5
 20
1.9
 30
0.0
 11
4.5
 21
1.9
 31
0.0
  0
ARC
  5
A488
330
A483
100
AcDbEntity
  8
SYMBOL
100
AcDbCircle
 10
3.399999999999999
 20
-0.8
 30
0.0
 40
1.1
100
AcDbArc
 50
270.00002
 51
0.0
  0
LINE
  5
A489
330
A483
100
AcDbEntity
  8
SYMBOL
100
AcDbLine
 10
0.6
 20
-1.0
 30
0.0
 11
0.6
 21
-1.9
 31
0.0
  0
LINE
  5
A48A
330
A483
100
AcDbEntity
  8
SYMBOL
100
AcDbLine
 10
0.6
 20
-1.9
 30
0.0
 11
3.399999999999999
 21
-1.9
 31
0.0
  0
ARC
  5
A48B
330
A483
100
AcDbEntity
  8
SYMBOL
100
AcDbCircle
 10
1.199999999999999
 20
0.8
 30
0.0
 40
1.199999999999999
100
AcDbArc
 50
179.9999799999999
 51
270.0000299999999
  0
ARC
  5
A48C
330
A483
100
AcDbEntity
  8
SYMBOL
100
AcDbCircle
 10
1.199999999999999
 20
0.8
 30
0.0
 40
1.199999999999999
100
AcDbArc
 50
180.0
 51
270.0
  0
LINE
  5
A48D
330
A483
100
AcDbEntity
  8
SYMBOL
100
AcDbLine
 10
0.6
 20
-1.0
 30
0.0
 11
3.2
 21
-1.0
 31
0.0
  0
LINE
  5
A48E
330
A483
100
AcDbEntity
  8
SYMBOL
100
AcDbLine
 10
0.0
 20
1.9
 30
0.0
 11
1.0
 21
1.9
 31
0.0
  0
LINE
  5
A48F
330
A483
100
AcDbEntity
  8
SYMBOL
100
AcDbLine
 10
0.0
 20
1.9
 30
0.0
 11
0.0
 21
0.8
 31
0.0
  0
LINE
  5
A490
330
A483
100
AcDbEntity
  8
SYMBOL
100
AcDbLine
 10
1.3
 20
0.5
 30
0.0
 11
3.2
 21
0.5
 31
0.0
  0
LINE
  5
A491
330
A483
100
AcDbEntity
  8
SYMBOL
100
AcDbLine
 10
1.199999999999999
 20
-0.4
 30
0.0
 11
3.2
 21
-0.4
 31
0.0
  0
LINE
  5
A492
330
A483
100
AcDbEntity
  8
SYMBOL
100
AcDbLine
 10
1.0
 20
1.9
 30
0.0
 11
1.0
 21
0.8
 31
0.0
  0
LINE
  5
A493
330
A483
100
AcDbEntity
  8
SYMBOL
100
AcDbLine
 10
3.5
 20
1.9
 30
0.0
 11
3.5
 21
0.8
 31
0.0
  0
LINE
  5
A494
330
A483
100
AcDbEntity
  8
SYMBOL
100
AcDbLine
 10
3.5
 20
-0.1
 30
0.0
 11
3.5
 21
-0.7
 31
0.0
  0
ARC
  5
A495
330
A483
100
AcDbEntity
  8
SYMBOL
100
AcDbCircle
 10
1.3
 20
0.8
 30
0.0
 40
0.3
100
AcDbArc
 50
179.9999799999999
 51
270.0000299999999
  0
ARC
  5
A496
330
A483
100
AcDbEntity
  8
SYMBOL
100
AcDbCircle
 10
3.2
 20
-0.1
 30
0.0
 40
0.3
100
AcDbArc
 50
270.00002
 51
0.0
  0
ARC
  5
A497
330
A483
100
AcDbEntity
  8
SYMBOL
100
AcDbCircle
 10
3.2
 20
0.8
 30
0.0
 40
0.3
100
AcDbArc
 50
270.00002
 51
0.0
  0
ARC
  5
A498
330
A483
100
AcDbEntity
  8
SYMBOL
100
AcDbCircle
 10
3.2
 20
-0.7
 30
0.0
 40
0.3
100
AcDbArc
 50
270.00002
 51
0.0
  0
LINE
  5
A499
330
A483
100
AcDbEntity
  8
SYMBOL
100
AcDbLine
 10
9.400000999999999
 20
1.9
 30
0.0
 11
13.000001
 21
1.9
 31
0.0
  0
LINE
  5
A49A
330
A483
100
AcDbEntity
  8
SYMBOL
100
AcDbLine
 10
9.400000999999999
 20
-1.9
 30
0.0
 11
10.400001
 21
-1.9
 31
0.0
  0
LINE
  5
A49B
330
A483
100
AcDbEntity
  8
SYMBOL
100
AcDbLine
 10
9.400000999999999
 20
1.9
 30
0.0
 11
9.400000999999999
 21
-1.9
 31
0.0
  0
LINE
  5
A49C
330
A483
100
AcDbEntity
  8
SYMBOL
100
AcDbLine
 10
9.099999999999999
 20
0.7
 30
0.0
 11
9.099999999999999
 21
-1.9
 31
0.0
  0
ARC
  5
A49D
330
A483
100
AcDbEntity
  8
SYMBOL
100
AcDbCircle
 10
6.0
 20
-0.7
 30
0.0
 40
1.199999999999999
100
AcDbArc
 50
89.99998199999998
 51
270.0
  0
LINE
  5
A49E
330
A483
100
AcDbEntity
  8
SYMBOL
100
AcDbLine
 10
6.0
 20
-1.9
 30
0.0
 11
9.099999999999999
 21
-1.9
 31
0.0
  0
LINE
  5
A49F
330
A483
100
AcDbEntity
  8
SYMBOL
100
AcDbLine
 10
6.0
 20
-1.0
 30
0.0
 11
8.099999999999999
 21
-1.0
 31
0.0
  0
LINE
  5
A4A0
330
A483
100
AcDbEntity
  8
SYMBOL
100
AcDbLine
 10
5.4
 20
1.0
 30
0.0
 11
7.799999999999998
 21
1.0
 31
0.0
  0
LINE
  5
A4A1
330
A483
100
AcDbEntity
  8
SYMBOL
100
AcDbLine
 10
5.4
 20
1.9
 30
0.0
 11
7.900000999999998
 21
1.9
 31
0.0
  0
LINE
  5
A4A2
330
A483
100
AcDbEntity
  8
SYMBOL
100
AcDbLine
 10
6.0
 20
-0.4
 30
0.0
 11
8.099999999999999
 21
-0.4
 31
0.0
  0
LINE
  5
A4A3
330
A483
100
AcDbEntity
  8
SYMBOL
100
AcDbLine
 10
6.0
 20
0.5
 30
0.0
 11
8.099999999999999
 21
0.5
 31
0.0
  0
LINE
  5
A4A4
330
A483
100
AcDbEntity
  8
SYMBOL
100
AcDbLine
 10
4.5
 20
1.9
 30
0.0
 11
4.5
 21
-0.8
 31
0.0
  0
LINE
  5
A4A5
330
A483
100
AcDbEntity
  8
SYMBOL
100
AcDbLine
 10
5.4
 20
1.9
 30
0.0
 11
5.4
 21
1.0
 31
0.0
  0
ARC
  5
A4A6
330
A483
100
AcDbEntity
  8
SYMBOL
100
AcDbCircle
 10
6.0
 20
-0.7
 30
0.0
 40
0.3
100
AcDbArc
 50
89.99998199999998
 51
270.0
  0
LINE
  5
A4A7
330
A483
100
AcDbEntity
  8
SYMBOL
100
AcDbLine
 10
8.099999999999999
 20
0.7
 30
0.0
 11
8.099999999999999
 21
0.5
 31
0.0
  0
LINE
  5
A4A8
330
A483
100
AcDbEntity
  8
SYMBOL
100
AcDbLine
 10
8.099999999999999
 20
-0.4
 30
0.0
 11
8.099999999999999
 21
-1.0
 31
0.0
  0
ARC
  5
A4A9
330
A483
100
AcDbEntity
  8
SYMBOL
100
AcDbCircle
 10
7.799999999999998
 20
0.7
 30
0.0
 40
0.3
100
AcDbArc
 50
0.0
 51
89.99998199999998
  0
ARC
  5
A4AA
330
A483
100
AcDbEntity
  8
SYMBOL
100
AcDbCircle
 10
7.900000999999998
 20
0.7
 30
0.0
 40
1.199999999999999
100
AcDbArc
 50
0.0
 51
89.99998199999998
  0
LINE
  5
A4AB
330
A483
100
AcDbEntity
  8
SYMBOL
100
AcDbLine
 10
14.400001
 20
0.5
 30
0.0
 11
14.400001
 21
-1.9
 31
0.0
  0
LINE
  5
A4AC
330
A483
100
AcDbEntity
  8
SYMBOL
100
AcDbLine
 10
10.400001
 20
1.0
 30
0.0
 11
10.400001
 21
-1.9
 31
0.0
  0
LINE
  5
A4AD
330
A483
100
AcDbEntity
  8
SYMBOL
100
AcDbLine
 10
13.400001
 20
0.6
 30
0.0
 11
13.400001
 21
-1.9
 31
0.0
  0
LINE
  5
A4AE
330
A483
100
AcDbEntity
  8
SYMBOL
100
AcDbLine
 10
12.400001
 20
0.7
 30
0.0
 11
12.400001
 21
-1.9
 31
0.0
  0
LINE
  5
A4AF
330
A483
100
AcDbEntity
  8
SYMBOL
100
AcDbLine
 10
11.40000099999999
 20
0.6
 30
0.0
 11
11.40000099999999
 21
-1.9
 31
0.0
  0
LINE
  5
A4B0
330
A483
100
AcDbEntity
  8
SYMBOL
100
AcDbLine
 10
11.40000099999999
 20
-1.9
 30
0.0
 11
12.400001
 21
-1.9
 31
0.0
  0
LINE
  5
A4B1
330
A483
100
AcDbEntity
  8
SYMBOL
100
AcDbLine
 10
13.400001
 20
-1.9
 30
0.0
 11
14.400001
 21
-1.9
 31
0.0
  0
LINE
  5
A4B2
330
A483
100
AcDbEntity
  8
SYMBOL
100
AcDbLine
 10
12.09999999999999
 20
1.0
 30
0.0
 11
13.000001
 21
1.0
 31
0.0
  0
LINE
  5
A4B3
330
A483
100
AcDbEntity
  8
SYMBOL
100
AcDbLine
 10
10.400001
 20
1.0
 30
0.0
 11
11.00000099999999
 21
1.0
 31
0.0
  0
ARC
  5
A4B4
330
A483
100
AcDbEntity
  8
SYMBOL
100
AcDbCircle
 10
11.00000099999999
 20
0.6
 30
0.0
 40
0.4
100
AcDbArc
 50
0.0
 51
89.99998199999998
  0
ARC
  5
A4B5
330
A483
100
AcDbEntity
  8
SYMBOL
100
AcDbCircle
 10
12.09999999999999
 20
0.7
 30
0.0
 40
0.3
100
AcDbArc
 50
0.0
 51
89.99998199999998
  0
LINE
  5
A4B6
330
A483
100
AcDbEntity
  8
SYMBOL
100
AcDbLine
 10
15.300001
 20
1.9
 30
0.0
 11
15.300001
 21
1.0
 31
0.0
  0
ARC
  5
A4B7
330
A483
100
AcDbEntity
  8
SYMBOL
100
AcDbCircle
 10
13.000001
 20
0.6
 30
0.0
 40
0.4
100
AcDbArc
 50
0.0
 51
89.99998199999998
  0
ARC
  5
A4B8
330
A483
100
AcDbEntity
  8
SYMBOL
100
AcDbCircle
 10
13.000001
 20
0.5
 30
0.0
 40
1.399999999999999
100
AcDbArc
 50
0.0
 51
89.99998199999998
  0
ARC
  5
A4B9
330
A483
100
AcDbEntity
  8
SYMBOL
100
AcDbCircle
 10
26.89999999999999
 20
0.7
 30
0.0
 40
1.199999999999999
100
AcDbArc
 50
0.0
 51
89.99998199999998
  0
LINE
  5
A4BA
330
A483
100
AcDbEntity
  8
SYMBOL
100
AcDbLine
 10
24.999998
 20
-1.0
 30
0.0
 11
27.099998
 21
-1.0
 31
0.0
  0
LINE
  5
A4BB
330
A483
100
AcDbEntity
  8
SYMBOL
100
AcDbLine
 10
25.0
 20
-1.9
 30
0.0
 11
28.09999799999999
 21
-1.9
 31
0.0
  0
LINE
  5
A4BC
330
A483
100
AcDbEntity
  8
SYMBOL
100
AcDbLine
 10
24.999998
 20
-0.4
 30
0.0
 11
27.099998
 21
-0.4
 31
0.0
  0
LINE
  5
A4BD
330
A483
100
AcDbEntity
  8
SYMBOL
100
AcDbLine
 10
25.0
 20
0.5
 30
0.0
 11
27.099998
 21
0.5
 31
0.0
  0
ARC
  5
A4BE
330
A483
100
AcDbEntity
  8
SYMBOL
100
AcDbCircle
 10
26.799999
 20
0.7
 30
0.0
 40
0.3
100
AcDbArc
 50
0.0
 51
89.99998199999998
  0
LINE
  5
A4BF
330
A483
100
AcDbEntity
  8
SYMBOL
100
AcDbLine
 10
19.300001
 20
-1.9
 30
0.0
 11
21.6
 21
-1.9
 31
0.0
  0
LINE
  5
A4C0
330
A483
100
AcDbEntity
  8
SYMBOL
100
AcDbLine
 10
19.300001
 20
1.9
 30
0.0
 11
21.6
 21
1.9
 31
0.0
  0
LINE
  5
A4C1
330
A483
100
AcDbEntity
  8
SYMBOL
100
AcDbLine
 10
20.300001
 20
0.9
 30
0.0
 11
21.6
 21
0.9
 31
0.0
  0
LINE
  5
A4C2
330
A483
100
AcDbEntity
  8
SYMBOL
100
AcDbLine
 10
20.300001
 20
-0.9
 30
0.0
 11
21.6
 21
-0.9
 31
0.0
  0
LINE
  5
A4C3
330
A483
100
AcDbEntity
  8
SYMBOL
100
AcDbLine
 10
19.300001
 20
1.9
 30
0.0
 11
19.300001
 21
-1.9
 31
0.0
  0
LINE
  5
A4C4
330
A483
100
AcDbEntity
  8
SYMBOL
100
AcDbLine
 10
19.0
 20
0.7
 30
0.0
 11
19.0
 21
-1.9
 31
0.0
  0
LINE
  5
A4C5
330
A483
100
AcDbEntity
  8
SYMBOL
100
AcDbLine
 10
15.900001
 20
-1.9
 30
0.0
 11
19.0
 21
-1.9
 31
0.0
  0
ARC
  5
A4C6
330
A483
100
AcDbEntity
  8
SYMBOL
100
AcDbCircle
 10
17.800001
 20
0.7
 30
0.0
 40
1.199999999999999
100
AcDbArc
 50
0.0
 51
89.99998199999998
  0
LINE
  5
A4C7
330
A483
100
AcDbEntity
  8
SYMBOL
100
AcDbLine
 10
15.900001
 20
-1.0
 30
0.0
 11
18.0
 21
-1.0
 31
0.0
  0
LINE
  5
A4C8
330
A483
100
AcDbEntity
  8
SYMBOL
100
AcDbLine
 10
15.900001
 20
-0.4
 30
0.0
 11
18.0
 21
-0.4
 31
0.0
  0
LINE
  5
A4C9
330
A483
100
AcDbEntity
  8
SYMBOL
100
AcDbLine
 10
15.900001
 20
0.5
 30
0.0
 11
18.0
 21
0.5
 31
0.0
  0
LINE
  5
A4CA
330
A483
100
AcDbEntity
  8
SYMBOL
100
AcDbLine
 10
18.0
 20
0.7
 30
0.0
 11
18.0
 21
0.5
 31
0.0
  0
LINE
  5
A4CB
330
A483
100
AcDbEntity
  8
SYMBOL
100
AcDbLine
 10
18.0
 20
-0.4
 30
0.0
 11
18.0
 21
-1.0
 31
0.0
  0
ARC
  5
A4CC
330
A483
100
AcDbEntity
  8
SYMBOL
100
AcDbCircle
 10
17.700001
 20
0.7
 30
0.0
 40
0.3
100
AcDbArc
 50
0.0
 51
89.99998199999998
  0
ARC
  5
A4CD
330
A483
100
AcDbEntity
  8
SYMBOL
100
AcDbCircle
 10
15.900001
 20
-0.7
 30
0.0
 40
0.3
100
AcDbArc
 50
89.99998199999998
 51
270.0
  0
LINE
  5
A4CE
330
A483
100
AcDbEntity
  8
SYMBOL
100
AcDbLine
 10
20.300001
 20
0.9
 30
0.0
 11
20.300001
 21
-0.9
 31
0.0
  0
ARC
  5
A4CF
330
A483
100
AcDbEntity
  8
SYMBOL
100
AcDbCircle
 10
25.0
 20
-0.7
 30
0.0
 40
1.199999999999999
100
AcDbArc
 50
89.99998199999998
 51
270.0
  0
ARC
  5
A4D0
330
A483
100
AcDbEntity
  8
SYMBOL
100
AcDbCircle
 10
21.6
 20
0.0
 30
0.0
 40
1.9
100
AcDbArc
 50
270.00002
 51
89.99998199999998
  0
ARC
  5
A4D1
330
A483
100
AcDbEntity
  8
SYMBOL
100
AcDbCircle
 10
21.6
 20
0.0
 30
0.0
 40
0.9
100
AcDbArc
 50
270.00002
 51
89.99998199999998
  0
LINE
  5
A4D2
330
A483
100
AcDbEntity
  8
SYMBOL
100
AcDbLine
 10
24.39999999999999
 20
1.0
 30
0.0
 11
26.799999
 21
1.0
 31
0.0
  0
LINE
  5
A4D3
330
A483
100
AcDbEntity
  8
SYMBOL
100
AcDbLine
 10
24.39999999999999
 20
1.9
 30
0.0
 11
24.39999999999999
 21
1.0
 31
0.0
  0
ARC
  5
A4D4
330
A483
100
AcDbEntity
  8
SYMBOL
100
AcDbCircle
 10
24.999998
 20
-0.7
 30
0.0
 40
0.3
100
AcDbArc
 50
89.99998199999998
 51
270.0
  0
LINE
  5
A4D5
330
A483
100
AcDbEntity
  8
SYMBOL
100
AcDbLine
 10
24.39999999999999
 20
1.9
 30
0.0
 11
26.89999999999999
 21
1.9
 31
0.0
  0
LINE
  5
A4D6
330
A483
100
AcDbEntity
  8
SYMBOL
100
AcDbLine
 10
28.09999799999999
 20
0.7
 30
0.0
 11
28.09999799999999
 21
-1.9
 31
0.0
  0
LINE
  5
A4D7
330
A483
100
AcDbEntity
  8
SYMBOL
100
AcDbLine
 10
27.099998
 20
0.7
 30
0.0
 11
27.099998
 21
0.5
 31
0.0
  0
LINE
  5
A4D8
330
A483
100
AcDbEntity
  8
SYMBOL
100
AcDbLine
 10
27.099998
 20
-0.4
 30
0.0
 11
27.099998
 21
-1.0
 31
0.0
  0
ENDBLK
  5
A4DA
330
A483
100
AcDbEntity
  8
0
100
AcDbBlockEnd
  0
BLOCK
  5
A4DD
330
A4DB
100
AcDbEntity
  8
0
100
AcDbBlockBegin
  2
A$C9270
 70
     0
 10
0.0
 20
0.0
 30
0.0
  3
A$C9270
  1

  0
INSERT
  5
A4DC
330
A4DB
100
AcDbEntity
  8
DIM1-1
100
AcDbBlockReference
  2
6-05
 10
0.079317
 20
7.069188999999998
 30
0.0
 41
3.558719
 42
3.558719
 43
0.711744
  0
ENDBLK
  5
A4DE
330
A4DB
100
AcDbEntity
  8
0
100
AcDbBlockEnd
  0
BLOCK
  5
A56C
330
A4DF
100
AcDbEntity
  8
0
100
AcDbBlockBegin
  2
6-12
 70
     0
 10
0.0
 20
0.0
 30
0.0
  3
6-12
  1

  0
LWPOLYLINE
  5
A4E0
330
A4DF
100
AcDbEntity
  8
SYMBOL
100
AcDbPolyline
 90
        3
 70
     0
 43
1.0
 10
25.199999
 20
-1.45
 42
0.4142140000000002
 10
26.599999
 20
-0.05
 42
0.4142140000000002
 10
25.199999
 20
1.35
 42
1.0
  0
SOLID
  5
A4E1
330
A4DF
100
AcDbEntity
  8
SYMBOL
100
AcDbTrace
 10
4.5
 20
-0.75
 30
0.0
 11
4.5
 21
-0.85
 31
0.0
 12
4.190216999999998
 22
-0.7237520000000001
 32
0.0
 13
4.162817999999998
 23
-0.8825799999999999
 33
0.0
  0
SOLID
  5
A4E2
330
A4DF
100
AcDbEntity
  8
SYMBOL
100
AcDbTrace
 10
3.5
 20
1.85
 30
0.0
 11
4.5
 21
1.85
 31
0.0
 12
3.5
 22
-0.75
 32
0.0
 13
4.5
 23
-0.75
 33
0.0
  0
LWPOLYLINE
  5
A4E3
330
A4DF
100
AcDbEntity
  8
SYMBOL
100
AcDbPolyline
 90
        2
 70
     0
 43
0.7
 10
3.2
 20
-1.399999999999999
 42
0.4142140000000002
 10
3.85
 20
-0.75
 42
1.0
  0
LWPOLYLINE
  5
A4E4
330
A4DF
100
AcDbEntity
  8
SYMBOL
100
AcDbPolyline
 90
        2
 70
     0
 43
0.5086000000000001
 10
3.399999999999999
 20
-1.695699999999999
 42
0.4142140000000002
 10
4.2457
 20
-0.85
 42
1.0
  0
LWPOLYLINE
  5
A4E5
330
A4DF
100
AcDbEntity
  8
SYMBOL
100
AcDbPolyline
 90
        2
 70
     0
 43
0.6488000000000002
 10
3.2
 20
0.1256
 42
0.4142140000000002
 10
3.824399999999998
 20
0.75
 42
1.0
  0
LINE
  5
A4E6
330
A4DF
100
AcDbEntity
  8
SYMBOL
100
AcDbLine
 10
3.5
 20
1.85
 30
0.0
 11
4.5
 21
1.85
 31
0.0
  0
ARC
  5
A4E7
330
A4DF
100
AcDbEntity
  8
SYMBOL
100
AcDbCircle
 10
3.399999999999999
 20
-0.85
 30
0.0
 40
1.1
100
AcDbArc
 50
270.00002
 51
0.0
  0
SOLID
  5
A4E8
330
A4DF
100
AcDbEntity
  8
SYMBOL
100
AcDbTrace
 10
1.199999999999999
 20
-0.45
 30
0.0
 11
1.3
 21
-0.45
 31
0.0
 12
1.167232
 22
0.087474
 32
0.0
 13
1.456407
 23
0.126724
 33
0.0
  0
LINE
  5
A4E9
330
A4DF
100
AcDbEntity
  8
SYMBOL
100
AcDbLine
 10
1.199999999999999
 20
-0.45
 30
0.0
 11
3.2
 21
-0.45
 31
0.0
  0
SOLID
  5
A4EA
330
A4DF
100
AcDbEntity
  8
SYMBOL
100
AcDbTrace
 10
0.6
 20
-1.05
 30
0.0
 11
0.6
 21
-1.95
 31
0.0
 12
3.2
 22
-1.05
 32
0.0
 13
3.2
 23
-1.95
 33
0.0
  0
LWPOLYLINE
  5
A4EB
330
A4DF
100
AcDbEntity
  8
SYMBOL
100
AcDbPolyline
 90
        2
 70
     0
 43
0.5
 10
0.25
 20
0.75
 42
0.4142140000000002
 10
1.199999999999999
 20
-0.2
 42
1.0
  0
LWPOLYLINE
  5
A4EC
330
A4DF
100
AcDbEntity
  8
SYMBOL
100
AcDbPolyline
 90
        2
 70
     0
 43
0.5
 10
0.75
 20
0.75
 42
0.4142140000000002
 10
1.3
 20
0.2
 42
1.0
  0
LINE
  5
A4ED
330
A4DF
100
AcDbEntity
  8
SYMBOL
100
AcDbLine
 10
0.6
 20
-1.05
 30
0.0
 11
3.2
 21
-1.05
 31
0.0
  0
LINE
  5
A4EE
330
A4DF
100
AcDbEntity
  8
SYMBOL
100
AcDbLine
 10
0.6
 20
-1.95
 30
0.0
 11
3.399999999999999
 21
-1.95
 31
0.0
  0
ARC
  5
A4EF
330
A4DF
100
AcDbEntity
  8
SYMBOL
100
AcDbCircle
 10
1.3
 20
0.75
 30
0.0
 40
0.3
100
AcDbArc
 50
179.9999799999999
 51
270.0000299999999
  0
LWPOLYLINE
  5
A4F0
330
A4DF
100
AcDbEntity
  8
SYMBOL
100
AcDbPolyline
 90
        2
 70
     0
 43
1.0
 10
0.5
 20
0.75
 10
0.5
 20
1.85
  0
LINE
  5
A4F1
330
A4DF
100
AcDbEntity
  8
SYMBOL
100
AcDbLine
 10
0.0
 20
1.85
 30
0.0
 11
0.0
 21
0.75
 31
0.0
  0
LINE
  5
A4F2
330
A4DF
100
AcDbEntity
  8
SYMBOL
100
AcDbLine
 10
0.0
 20
1.85
 30
0.0
 11
1.0
 21
1.85
 31
0.0
  0
LINE
  5
A4F3
330
A4DF
100
AcDbEntity
  8
SYMBOL
100
AcDbLine
 10
1.0
 20
1.85
 30
0.0
 11
1.0
 21
0.75
 31
0.0
  0
LINE
  5
A4F4
330
A4DF
100
AcDbEntity
  8
SYMBOL
100
AcDbLine
 10
0.6
 20
-1.05
 30
0.0
 11
0.6
 21
-1.95
 31
0.0
  0
ARC
  5
A4F5
330
A4DF
100
AcDbEntity
  8
SYMBOL
100
AcDbCircle
 10
1.199999999999999
 20
0.75
 30
0.0
 40
1.199999999999999
100
AcDbArc
 50
179.9999799999999
 51
270.0000299999999
  0
SOLID
  5
A4F6
330
A4DF
100
AcDbEntity
  8
SYMBOL
100
AcDbTrace
 10
3.2
 20
-1.95
 30
0.0
 11
3.399999999999999
 21
-1.95
 31
0.0
 12
3.187267999999998
 22
-1.753931
 32
0.0
 13
3.415296
 23
-1.697888999999999
 33
0.0
  0
SOLID
  5
A4F7
330
A4DF
100
AcDbEntity
  8
SYMBOL
100
AcDbTrace
 10
3.2
 20
-1.05
 30
0.0
 11
3.2
 21
-1.95
 31
0.0
 12
3.2
 22
-1.95
 32
0.0
 13
3.399999999999999
 23
-1.95
 33
0.0
  0
SOLID
  5
A4F8
330
A4DF
100
AcDbEntity
  8
SYMBOL
100
AcDbTrace
 10
1.3
 20
-0.45
 30
0.0
 11
1.3
 21
0.45
 31
0.0
 12
3.2
 22
-0.45
 32
0.0
 13
3.2
 23
0.45
 33
0.0
  0
LWPOLYLINE
  5
A4F9
330
A4DF
100
AcDbEntity
  8
SYMBOL
100
AcDbPolyline
 90
        2
 70
     0
 43
0.3
 10
3.2
 20
-0.3
 42
0.4142140000000002
 10
3.35
 20
-0.15
 42
0.4142140000000002
  0
LINE
  5
A4FA
330
A4DF
100
AcDbEntity
  8
SYMBOL
100
AcDbLine
 10
1.3
 20
0.45
 30
0.0
 11
3.2
 21
0.45
 31
0.0
  0
LINE
  5
A4FB
330
A4DF
100
AcDbEntity
  8
SYMBOL
100
AcDbLine
 10
3.5
 20
1.85
 30
0.0
 11
3.5
 21
0.75
 31
0.0
  0
LINE
  5
A4FC
330
A4DF
100
AcDbEntity
  8
SYMBOL
100
AcDbLine
 10
3.5
 20
-0.15
 30
0.0
 11
3.5
 21
-0.75
 31
0.0
  0
ARC
  5
A4FD
330
A4DF
100
AcDbEntity
  8
SYMBOL
100
AcDbCircle
 10
3.2
 20
-0.15
 30
0.0
 40
0.3
100
AcDbArc
 50
270.00002
 51
0.0
  0
ARC
  5
A4FE
330
A4DF
100
AcDbEntity
  8
SYMBOL
100
AcDbCircle
 10
3.2
 20
0.75
 30
0.0
 40
0.3
100
AcDbArc
 50
270.00002
 51
0.0
  0
ARC
  5
A4FF
330
A4DF
100
AcDbEntity
  8
SYMBOL
100
AcDbCircle
 10
3.2
 20
-0.75
 30
0.0
 40
0.3
100
AcDbArc
 50
270.00002
 51
0.0
  0
LWPOLYLINE
  5
A500
330
A4DF
100
AcDbEntity
  8
SYMBOL
100
AcDbPolyline
 90
        2
 70
     0
 43
0.7705
 10
13.585251
 20
0.55
 42
0.4142140000000002
 10
12.800001
 20
1.33525
 42
1.0
  0
ARC
  5
A501
330
A4DF
100
AcDbEntity
  8
SYMBOL
100
AcDbCircle
 10
20.50000199999999
 20
0.65
 30
0.0
 40
1.199999999999999
100
AcDbArc
 50
0.0
 51
89.99998199999998
  0
LWPOLYLINE
  5
A502
330
A4DF
100
AcDbEntity
  8
SYMBOL
100
AcDbPolyline
 90
        2
 70
     0
 43
0.9
 10
21.250002
 20
0.65
 42
0.4142140000000002
 10
20.50000199999999
 20
1.399999999999999
 42
1.0
  0
LWPOLYLINE
  5
A503
330
A4DF
100
AcDbEntity
  8
SYMBOL
100
AcDbPolyline
 90
        2
 70
     0
 43
0.9
 10
15.750001
 20
0.45
 42
0.4142140000000002
 10
14.800001
 20
1.399999999999999
 42
1.0
  0
LWPOLYLINE
  5
A504
330
A4DF
100
AcDbEntity
  8
SYMBOL
100
AcDbPolyline
 90
        2
 70
     0
 43
0.9
 10
9.55
 20
0.65
 42
0.4142140000000002
 10
8.8
 20
1.399999999999999
 42
1.0
  0
ARC
  5
A505
330
A4DF
100
AcDbEntity
  8
SYMBOL
100
AcDbCircle
 10
14.800001
 20
0.45
 30
0.0
 40
1.399999999999999
100
AcDbArc
 50
0.0
 51
89.99998199999998
  0
ARC
  5
A506
330
A4DF
100
AcDbEntity
  8
SYMBOL
100
AcDbCircle
 10
8.8
 20
0.65
 30
0.0
 40
1.199999999999999
100
AcDbArc
 50
0.0
 51
89.99998199999998
  0
SOLID
  5
A507
330
A4DF
100
AcDbEntity
  8
SYMBOL
100
AcDbTrace
 10
16.200001
 20
0.45
 30
0.0
 11
15.200001
 21
0.45
 31
0.0
 12
15.200001
 22
0.55
 32
0.0
 13
15.200001
 23
0.55
 33
0.0
  0
SOLID
  5
A508
330
A4DF
100
AcDbEntity
  8
SYMBOL
100
AcDbTrace
 10
16.200001
 20
-1.95
 30
0.0
 11
15.200001
 21
-1.95
 31
0.0
 12
16.200001
 22
0.45
 32
0.0
 13
15.200001
 23
0.45
 33
0.0
  0
LWPOLYLINE
  5
A509
330
A4DF
100
AcDbEntity
  8
SYMBOL
100
AcDbPolyline
 90
        2
 70
     0
 43
0.5
 10
15.450001
 20
0.55
 42
0.4142140000000002
 10
14.800001
 20
1.199999999999999
 42
1.0
  0
LINE
  5
A50A
330
A4DF
100
AcDbEntity
  8
SYMBOL
100
AcDbLine
 10
15.200001
 20
-1.95
 30
0.0
 11
16.200001
 21
-1.95
 31
0.0
  0
SOLID
  5
A50B
330
A4DF
100
AcDbEntity
  8
SYMBOL
100
AcDbTrace
 10
9.0
 20
0.65
 30
0.0
 11
10.0
 21
0.65
 31
0.0
 12
9.0
 22
-1.05
 32
0.0
 13
10.0
 23
-1.95
 33
0.0
  0
SOLID
  5
A50C
330
A4DF
100
AcDbEntity
  8
SYMBOL
100
AcDbTrace
 10
6.900000999999998
 20
-1.05
 30
0.0
 11
6.9
 21
-1.95
 31
0.0
 12
9.0
 22
-1.05
 32
0.0
 13
10.0
 23
-1.95
 33
0.0
  0
LINE
  5
A50D
330
A4DF
100
AcDbEntity
  8
SYMBOL
100
AcDbLine
 10
6.9
 20
-1.95
 30
0.0
 11
10.0
 21
-1.95
 31
0.0
  0
SOLID
  5
A50E
330
A4DF
100
AcDbEntity
  8
SYMBOL
100
AcDbTrace
 10
6.9
 20
0.45
 30
0.0
 11
6.900000999999998
 21
-0.45
 31
0.0
 12
9.0
 22
0.45
 32
0.0
 13
9.0
 23
-0.45
 33
0.0
  0
SOLID
  5
A50F
330
A4DF
100
AcDbEntity
  8
SYMBOL
100
AcDbTrace
 10
6.299999999999998
 20
1.85
 30
0.0
 11
6.299999999999998
 21
0.95
 31
0.0
 12
8.699999999999999
 22
1.85
 32
0.0
 13
8.699999999999999
 23
0.95
 33
0.0
  0
LWPOLYLINE
  5
A510
330
A4DF
100
AcDbEntity
  8
SYMBOL
100
AcDbPolyline
 90
        2
 70
     0
 43
0.9
 10
6.9
 20
0.0
 42
0.4142140000000002
 10
6.15
 20
-0.75
 42
1.0
  0
LINE
  5
A511
330
A4DF
100
AcDbEntity
  8
SYMBOL
100
AcDbLine
 10
6.900000999999998
 20
-1.05
 30
0.0
 11
9.0
 21
-1.05
 31
0.0
  0
LINE
  5
A512
330
A4DF
100
AcDbEntity
  8
SYMBOL
100
AcDbLine
 10
6.299999999999998
 20
0.95
 30
0.0
 11
8.699999999999999
 21
0.95
 31
0.0
  0
LINE
  5
A513
330
A4DF
100
AcDbEntity
  8
SYMBOL
100
AcDbLine
 10
6.299999999999998
 20
1.85
 30
0.0
 11
8.8
 21
1.85
 31
0.0
  0
LINE
  5
A514
330
A4DF
100
AcDbEntity
  8
SYMBOL
100
AcDbLine
 10
6.900000999999998
 20
-0.45
 30
0.0
 11
9.0
 21
-0.45
 31
0.0
  0
LINE
  5
A515
330
A4DF
100
AcDbEntity
  8
SYMBOL
100
AcDbLine
 10
6.9
 20
0.45
 30
0.0
 11
9.0
 21
0.45
 31
0.0
  0
ARC
  5
A516
330
A4DF
100
AcDbEntity
  8
SYMBOL
100
AcDbCircle
 10
6.9
 20
-0.75
 30
0.0
 40
1.199999999999999
100
AcDbArc
 50
89.99998199999998
 51
270.0
  0
ARC
  5
A517
330
A4DF
100
AcDbEntity
  8
SYMBOL
100
AcDbCircle
 10
6.900000999999998
 20
-0.75
 30
0.0
 40
0.3
100
AcDbArc
 50
89.99998199999998
 51
270.0
  0
LWPOLYLINE
  5
A518
330
A4DF
100
AcDbEntity
  8
SYMBOL
100
AcDbPolyline
 90
        2
 70
     0
 43
0.9
 10
6.15
 20
-0.75
 42
0.4142140000000002
 10
6.900000999999998
 20
-1.5
 42
1.0
  0
LINE
  5
A519
330
A4DF
100
AcDbEntity
  8
SYMBOL
100
AcDbLine
 10
4.5
 20
1.85
 30
0.0
 11
4.5
 21
-0.85
 31
0.0
  0
LINE
  5
A51A
330
A4DF
100
AcDbEntity
  8
SYMBOL
100
AcDbLine
 10
6.299999999999998
 20
1.85
 30
0.0
 11
6.299999999999998
 21
0.95
 31
0.0
  0
SOLID
  5
A51B
330
A4DF
100
AcDbEntity
  8
SYMBOL
100
AcDbTrace
 10
8.699999999999999
 20
1.85
 30
0.0
 11
8.8
 21
1.85
 31
0.0
 12
8.699999999999999
 22
1.274999999999999
 32
0.0
 13
8.906953999999997
 23
1.519086
 33
0.0
  0
LINE
  5
A51C
330
A4DF
100
AcDbEntity
  8
SYMBOL
100
AcDbLine
 10
9.0
 20
0.65
 30
0.0
 11
9.0
 21
0.45
 31
0.0
  0
LINE
  5
A51D
330
A4DF
100
AcDbEntity
  8
SYMBOL
100
AcDbLine
 10
9.0
 20
-0.45
 30
0.0
 11
9.0
 21
-1.05
 31
0.0
  0
ARC
  5
A51E
330
A4DF
100
AcDbEntity
  8
SYMBOL
100
AcDbCircle
 10
8.699999999999999
 20
0.65
 30
0.0
 40
0.3
100
AcDbArc
 50
0.0
 51
89.99998199999998
  0
LWPOLYLINE
  5
A51F
330
A4DF
100
AcDbEntity
  8
SYMBOL
100
AcDbPolyline
 90
        2
 70
     0
 43
0.65
 10
9.324999999999999
 20
0.65
 42
0.4142140000000002
 10
8.699999999999999
 20
1.274999999999999
 42
1.0
  0
ARC
  5
A520
330
A4DF
100
AcDbEntity
  8
SYMBOL
100
AcDbCircle
 10
12.800001
 20
0.55
 30
0.0
 40
0.4
100
AcDbArc
 50
0.0
 51
89.99998199999998
  0
SOLID
  5
A521
330
A4DF
100
AcDbEntity
  8
SYMBOL
100
AcDbTrace
 10
12.200001
 20
0.95
 30
0.0
 11
11.200001
 21
1.85
 31
0.0
 12
14.800001
 22
0.95
 32
0.0
 13
14.800001
 23
1.85
 33
0.0
  0
LINE
  5
A522
330
A4DF
100
AcDbEntity
  8
SYMBOL
100
AcDbLine
 10
11.200001
 20
1.85
 30
0.0
 11
14.800001
 21
1.85
 31
0.0
  0
SOLID
  5
A523
330
A4DF
100
AcDbEntity
  8
SYMBOL
100
AcDbTrace
 10
12.200001
 20
-1.95
 30
0.0
 11
11.200001
 21
-1.95
 31
0.0
 12
12.200001
 22
0.95
 32
0.0
 13
11.200001
 23
1.85
 33
0.0
  0
LINE
  5
A524
330
A4DF
100
AcDbEntity
  8
SYMBOL
100
AcDbLine
 10
11.200001
 20
1.85
 30
0.0
 11
11.200001
 21
-1.95
 31
0.0
  0
LINE
  5
A525
330
A4DF
100
AcDbEntity
  8
SYMBOL
100
AcDbLine
 10
11.200001
 20
-1.95
 30
0.0
 11
12.200001
 21
-1.95
 31
0.0
  0
LINE
  5
A526
330
A4DF
100
AcDbEntity
  8
SYMBOL
100
AcDbLine
 10
12.200001
 20
0.95
 30
0.0
 11
12.200001
 21
-1.95
 31
0.0
  0
LINE
  5
A527
330
A4DF
100
AcDbEntity
  8
SYMBOL
100
AcDbLine
 10
10.0
 20
0.65
 30
0.0
 11
10.0
 21
-1.95
 31
0.0
  0
LINE
  5
A528
330
A4DF
100
AcDbEntity
  8
SYMBOL
100
AcDbLine
 10
12.200001
 20
0.95
 30
0.0
 11
12.800001
 21
0.95
 31
0.0
  0
SOLID
  5
A529
330
A4DF
100
AcDbEntity
  8
SYMBOL
100
AcDbTrace
 10
14.200001
 20
0.55
 30
0.0
 11
14.200001
 21
0.65
 31
0.0
 12
13.886849
 22
0.378096
 32
0.0
 13
13.900001
 23
0.8
 33
0.0
  0
SOLID
  5
A52A
330
A4DF
100
AcDbEntity
  8
SYMBOL
100
AcDbTrace
 10
14.200001
 20
0.55
 30
0.0
 11
14.200001
 21
0.65
 31
0.0
 12
13.900001
 22
0.8
 32
0.0
 13
13.585251
 23
0.55
 33
0.0
  0
SOLID
  5
A52B
330
A4DF
100
AcDbEntity
  8
SYMBOL
100
AcDbTrace
 10
14.200001
 20
-1.95
 30
0.0
 11
13.200001
 21
-1.95
 31
0.0
 12
14.200001
 22
0.55
 32
0.0
 13
13.200001
 23
0.55
 33
0.0
  0
LWPOLYLINE
  5
A52C
330
A4DF
100
AcDbEntity
  8
SYMBOL
100
AcDbPolyline
 90
        2
 70
     0
 43
0.3
 10
14.050001
 20
0.65
 42
0.4142140000000002
 10
13.900001
 20
0.8
 42
1.0
  0
LINE
  5
A52D
330
A4DF
100
AcDbEntity
  8
SYMBOL
100
AcDbLine
 10
15.200001
 20
0.55
 30
0.0
 11
15.200001
 21
-1.95
 31
0.0
  0
LINE
  5
A52E
330
A4DF
100
AcDbEntity
  8
SYMBOL
100
AcDbLine
 10
14.200001
 20
0.65
 30
0.0
 11
14.200001
 21
-1.95
 31
0.0
  0
LINE
  5
A52F
330
A4DF
100
AcDbEntity
  8
SYMBOL
100
AcDbLine
 10
13.200001
 20
0.55
 30
0.0
 11
13.200001
 21
-1.95
 31
0.0
  0
LINE
  5
A530
330
A4DF
100
AcDbEntity
  8
SYMBOL
100
AcDbLine
 10
13.200001
 20
-1.95
 30
0.0
 11
14.200001
 21
-1.95
 31
0.0
  0
LINE
  5
A531
330
A4DF
100
AcDbEntity
  8
SYMBOL
100
AcDbLine
 10
13.900001
 20
0.95
 30
0.0
 11
14.800001
 21
0.95
 31
0.0
  0
ARC
  5
A532
330
A4DF
100
AcDbEntity
  8
SYMBOL
100
AcDbCircle
 10
14.800001
 20
0.55
 30
0.0
 40
0.4
100
AcDbArc
 50
0.0
 51
89.99998199999998
  0
ARC
  5
A533
330
A4DF
100
AcDbEntity
  8
SYMBOL
100
AcDbCircle
 10
13.900001
 20
0.65
 30
0.0
 40
0.3
100
AcDbArc
 50
0.0
 51
89.99998199999998
  0
LINE
  5
A534
330
A4DF
100
AcDbEntity
  8
SYMBOL
100
AcDbLine
 10
18.60000199999999
 20
-1.95
 30
0.0
 11
21.700002
 21
-1.95
 31
0.0
  0
SOLID
  5
A535
330
A4DF
100
AcDbEntity
  8
SYMBOL
100
AcDbTrace
 10
18.60000199999999
 20
-1.05
 30
0.0
 11
18.60000199999999
 21
-1.95
 31
0.0
 12
20.70000199999998
 22
-1.05
 32
0.0
 13
21.700002
 23
-1.95
 33
0.0
  0
SOLID
  5
A536
330
A4DF
100
AcDbEntity
  8
SYMBOL
100
AcDbTrace
 10
20.70000199999998
 20
0.65
 30
0.0
 11
21.700002
 21
0.65
 31
0.0
 12
20.70000199999998
 22
-1.05
 32
0.0
 13
21.700002
 23
-1.95
 33
0.0
  0
LINE
  5
A537
330
A4DF
100
AcDbEntity
  8
SYMBOL
100
AcDbLine
 10
18.60000199999999
 20
0.45
 30
0.0
 11
20.70000199999998
 21
0.45
 31
0.0
  0
LINE
  5
A538
330
A4DF
100
AcDbEntity
  8
SYMBOL
100
AcDbLine
 10
18.60000199999999
 20
-0.45
 30
0.0
 11
20.70000199999998
 21
-0.45
 31
0.0
  0
LINE
  5
A539
330
A4DF
100
AcDbEntity
  8
SYMBOL
100
AcDbLine
 10
18.60000199999999
 20
-1.05
 30
0.0
 11
20.70000199999998
 21
-1.05
 31
0.0
  0
SOLID
  5
A53A
330
A4DF
100
AcDbEntity
  8
SYMBOL
100
AcDbTrace
 10
18.60000199999999
 20
0.45
 30
0.0
 11
18.60000199999999
 21
-0.45
 31
0.0
 12
20.70000199999998
 22
0.45
 32
0.0
 13
20.70000199999998
 23
-0.45
 33
0.0
  0
ARC
  5
A53B
330
A4DF
100
AcDbEntity
  8
SYMBOL
100
AcDbCircle
 10
18.60000199999999
 20
-0.75
 30
0.0
 40
0.3
100
AcDbArc
 50
89.99998199999998
 51
270.0
  0
ARC
  5
A53C
330
A4DF
100
AcDbEntity
  8
SYMBOL
100
AcDbCircle
 10
18.60000199999999
 20
-0.75
 30
0.0
 40
1.199999999999999
100
AcDbArc
 50
89.99998199999998
 51
270.0
  0
LINE
  5
A53D
330
A4DF
100
AcDbEntity
  8
SYMBOL
100
AcDbLine
 10
18.00000199999998
 20
1.85
 30
0.0
 11
20.50000199999999
 21
1.85
 31
0.0
  0
LINE
  5
A53E
330
A4DF
100
AcDbEntity
  8
SYMBOL
100
AcDbLine
 10
18.00000199999998
 20
0.95
 30
0.0
 11
20.400002
 21
0.95
 31
0.0
  0
LWPOLYLINE
  5
A53F
330
A4DF
100
AcDbEntity
  8
SYMBOL
100
AcDbPolyline
 90
        2
 70
     0
 43
0.9
 10
18.60000199999999
 20
0.0
 42
0.4142140000000002
 10
17.85000199999998
 20
-0.75
 42
1.0
  0
SOLID
  5
A540
330
A4DF
100
AcDbEntity
  8
SYMBOL
100
AcDbTrace
 10
18.00000199999998
 20
1.85
 30
0.0
 11
18.00000199999998
 21
0.95
 31
0.0
 12
20.400002
 22
1.85
 32
0.0
 13
20.400002
 23
0.95
 33
0.0
  0
LWPOLYLINE
  5
A541
330
A4DF
100
AcDbEntity
  8
SYMBOL
100
AcDbPolyline
 90
        2
 70
     0
 43
0.9
 10
17.85000199999998
 20
-0.75
 42
0.4142140000000002
 10
18.60000199999999
 20
-1.5
 42
1.0
  0
LINE
  5
A542
330
A4DF
100
AcDbEntity
  8
SYMBOL
100
AcDbLine
 10
18.00000199999998
 20
1.85
 30
0.0
 11
18.00000199999998
 21
0.95
 31
0.0
  0
LINE
  5
A543
330
A4DF
100
AcDbEntity
  8
SYMBOL
100
AcDbLine
 10
16.200001
 20
0.45
 30
0.0
 11
16.200001
 21
-1.95
 31
0.0
  0
ARC
  5
A544
330
A4DF
100
AcDbEntity
  8
SYMBOL
100
AcDbCircle
 10
20.400002
 20
0.65
 30
0.0
 40
0.3
100
AcDbArc
 50
0.0
 51
89.99998199999998
  0
LINE
  5
A545
330
A4DF
100
AcDbEntity
  8
SYMBOL
100
AcDbLine
 10
20.70000199999998
 20
-0.45
 30
0.0
 11
20.70000199999998
 21
-1.05
 31
0.0
  0
LINE
  5
A546
330
A4DF
100
AcDbEntity
  8
SYMBOL
100
AcDbLine
 10
20.70000199999998
 20
0.65
 30
0.0
 11
20.70000199999998
 21
0.45
 31
0.0
  0
SOLID
  5
A547
330
A4DF
100
AcDbEntity
  8
SYMBOL
100
AcDbTrace
 10
20.400002
 20
1.85
 30
0.0
 11
20.50000199999999
 21
1.85
 31
0.0
 12
20.400002
 22
1.274999999999999
 32
0.0
 13
20.606956
 23
1.519086
 33
0.0
  0
LWPOLYLINE
  5
A548
330
A4DF
100
AcDbEntity
  8
SYMBOL
100
AcDbPolyline
 90
        2
 70
     0
 43
0.65
 10
21.025002
 20
0.65
 42
0.4142140000000002
 10
20.400002
 20
1.274999999999999
 42
1.0
  0
LINE
  5
A549
330
A4DF
100
AcDbEntity
  8
SYMBOL
100
AcDbLine
 10
23.9
 20
-0.95
 30
0.0
 11
25.199999
 21
-0.95
 31
0.0
  0
LINE
  5
A54A
330
A4DF
100
AcDbEntity
  8
SYMBOL
100
AcDbLine
 10
23.9
 20
0.85
 30
0.0
 11
25.199999
 21
0.85
 31
0.0
  0
LINE
  5
A54B
330
A4DF
100
AcDbEntity
  8
SYMBOL
100
AcDbLine
 10
22.9
 20
1.85
 30
0.0
 11
25.199999
 21
1.85
 31
0.0
  0
LINE
  5
A54C
330
A4DF
100
AcDbEntity
  8
SYMBOL
100
AcDbLine
 10
22.9
 20
-1.95
 30
0.0
 11
25.199999
 21
-1.95
 31
0.0
  0
SOLID
  5
A54D
330
A4DF
100
AcDbEntity
  8
SYMBOL
100
AcDbTrace
 10
25.199999
 20
1.85
 30
0.0
 11
25.199999
 21
0.85
 31
0.0
 12
22.9
 22
1.85
 32
0.0
 13
23.9
 23
0.85
 33
0.0
  0
SOLID
  5
A54E
330
A4DF
100
AcDbEntity
  8
SYMBOL
100
AcDbTrace
 10
22.9
 20
-1.95
 30
0.0
 11
23.9
 21
-0.95
 31
0.0
 12
25.199999
 22
-1.95
 32
0.0
 13
25.199999
 23
-0.95
 33
0.0
  0
LINE
  5
A54F
330
A4DF
100
AcDbEntity
  8
SYMBOL
100
AcDbLine
 10
21.700002
 20
0.65
 30
0.0
 11
21.700002
 21
-1.95
 31
0.0
  0
LINE
  5
A550
330
A4DF
100
AcDbEntity
  8
SYMBOL
100
AcDbLine
 10
23.9
 20
0.85
 30
0.0
 11
23.9
 21
-0.95
 31
0.0
  0
LINE
  5
A551
330
A4DF
100
AcDbEntity
  8
SYMBOL
100
AcDbLine
 10
22.9
 20
1.85
 30
0.0
 11
22.9
 21
-1.95
 31
0.0
  0
SOLID
  5
A552
330
A4DF
100
AcDbEntity
  8
SYMBOL
100
AcDbTrace
 10
22.9
 20
1.85
 30
0.0
 11
23.9
 21
0.85
 31
0.0
 12
22.9
 22
-1.95
 32
0.0
 13
23.9
 23
-0.95
 33
0.0
  0
ARC
  5
A553
330
A4DF
100
AcDbEntity
  8
SYMBOL
100
AcDbCircle
 10
25.199999
 20
-0.05
 30
0.0
 40
1.9
100
AcDbArc
 50
270.00002
 51
89.99998199999998
  0
ARC
  5
A554
330
A4DF
100
AcDbEntity
  8
SYMBOL
100
AcDbCircle
 10
25.199999
 20
-0.05
 30
0.0
 40
0.9
100
AcDbArc
 50
270.00002
 51
89.99998199999998
  0
ARC
  5
A555
330
A4DF
100
AcDbEntity
  8
SYMBOL
100
AcDbCircle
 10
31.4
 20
0.65
 30
0.0
 40
1.199999999999999
100
AcDbArc
 50
0.0
 51
89.99998199999998
  0
LWPOLYLINE
  5
A556
330
A4DF
100
AcDbEntity
  8
SYMBOL
100
AcDbPolyline
 90
        2
 70
     0
 43
0.9
 10
32.14999999999999
 20
0.65
 42
0.4142140000000002
 10
31.4
 20
1.399999999999999
 42
1.0
  0
ARC
  5
A557
330
A4DF
100
AcDbEntity
  8
SYMBOL
100
AcDbCircle
 10
29.5
 20
-0.75
 30
0.0
 40
1.199999999999999
100
AcDbArc
 50
89.99998199999998
 51
270.0
  0
LINE
  5
A558
330
A4DF
100
AcDbEntity
  8
SYMBOL
100
AcDbLine
 10
29.5
 20
0.45
 30
0.0
 11
31.6
 21
0.45
 31
0.0
  0
LINE
  5
A559
330
A4DF
100
AcDbEntity
  8
SYMBOL
100
AcDbLine
 10
29.5
 20
-0.45
 30
0.0
 11
31.6
 21
-0.45
 31
0.0
  0
LINE
  5
A55A
330
A4DF
100
AcDbEntity
  8
SYMBOL
100
AcDbLine
 10
28.9
 20
1.85
 30
0.0
 11
31.4
 21
1.85
 31
0.0
  0
LINE
  5
A55B
330
A4DF
100
AcDbEntity
  8
SYMBOL
100
AcDbLine
 10
28.9
 20
0.95
 30
0.0
 11
31.3
 21
0.95
 31
0.0
  0
LINE
  5
A55C
330
A4DF
100
AcDbEntity
  8
SYMBOL
100
AcDbLine
 10
29.5
 20
-1.05
 30
0.0
 11
31.6
 21
-1.05
 31
0.0
  0
SOLID
  5
A55D
330
A4DF
100
AcDbEntity
  8
SYMBOL
100
AcDbTrace
 10
28.9
 20
1.85
 30
0.0
 11
28.9
 21
0.95
 31
0.0
 12
31.3
 22
1.85
 32
0.0
 13
31.3
 23
0.95
 33
0.0
  0
SOLID
  5
A55E
330
A4DF
100
AcDbEntity
  8
SYMBOL
100
AcDbTrace
 10
29.5
 20
0.45
 30
0.0
 11
29.5
 21
-0.45
 31
0.0
 12
31.6
 22
0.45
 32
0.0
 13
31.6
 23
-0.45
 33
0.0
  0
LINE
  5
A55F
330
A4DF
100
AcDbEntity
  8
SYMBOL
100
AcDbLine
 10
29.5
 20
-1.95
 30
0.0
 11
32.6
 21
-1.95
 31
0.0
  0
SOLID
  5
A560
330
A4DF
100
AcDbEntity
  8
SYMBOL
100
AcDbTrace
 10
29.5
 20
-1.05
 30
0.0
 11
29.5
 21
-1.95
 31
0.0
 12
31.6
 22
-1.05
 32
0.0
 13
32.6
 23
-1.95
 33
0.0
  0
LINE
  5
A561
330
A4DF
100
AcDbEntity
  8
SYMBOL
100
AcDbLine
 10
28.9
 20
1.85
 30
0.0
 11
28.9
 21
0.95
 31
0.0
  0
ARC
  5
A562
330
A4DF
100
AcDbEntity
  8
SYMBOL
100
AcDbCircle
 10
29.5
 20
-0.75
 30
0.0
 40
0.3
100
AcDbArc
 50
89.99998199999998
 51
270.0
  0
LWPOLYLINE
  5
A563
330
A4DF
100
AcDbEntity
  8
SYMBOL
100
AcDbPolyline
 90
        2
 70
     0
 43
0.9
 10
29.5
 20
0.0
 42
0.4142140000000002
 10
28.75
 20
-0.75
 42
1.0
  0
LWPOLYLINE
  5
A564
330
A4DF
100
AcDbEntity
  8
SYMBOL
100
AcDbPolyline
 90
        2
 70
     0
 43
0.9
 10
28.75
 20
-0.75
 42
0.4142140000000002
 10
29.5
 20
-1.5
 42
1.0
  0
LINE
  5
A565
330
A4DF
100
AcDbEntity
  8
SYMBOL
100
AcDbLine
 10
32.6
 20
0.65
 30
0.0
 11
32.6
 21
-1.95
 31
0.0
  0
ARC
  5
A566
330
A4DF
100
AcDbEntity
  8
SYMBOL
100
AcDbCircle
 10
31.3
 20
0.65
 30
0.0
 40
0.3
100
AcDbArc
 50
0.0
 51
89.99998199999998
  0
LINE
  5
A567
330
A4DF
100
AcDbEntity
  8
SYMBOL
100
AcDbLine
 10
31.6
 20
-0.45
 30
0.0
 11
31.6
 21
-1.05
 31
0.0
  0
LINE
  5
A568
330
A4DF
100
AcDbEntity
  8
SYMBOL
100
AcDbLine
 10
31.6
 20
0.65
 30
0.0
 11
31.6
 21
0.45
 31
0.0
  0
SOLID
  5
A569
330
A4DF
100
AcDbEntity
  8
SYMBOL
100
AcDbTrace
 10
31.3
 20
1.85
 30
0.0
 11
31.4
 21
1.85
 31
0.0
 12
31.3
 22
1.274999999999999
 32
0.0
 13
31.506954
 23
1.519086
 33
0.0
  0
SOLID
  5
A56A
330
A4DF
100
AcDbEntity
  8
SYMBOL
100
AcDbTrace
 10
31.6
 20
0.65
 30
0.0
 11
32.6
 21
0.65
 31
0.0
 12
31.6
 22
-1.05
 32
0.0
 13
32.6
 23
-1.95
 33
0.0
  0
LWPOLYLINE
  5
A56B
330
A4DF
100
AcDbEntity
  8
SYMBOL
100
AcDbPolyline
 90
        2
 70
     0
 43
0.65
 10
31.925
 20
0.65
 42
0.4142140000000002
 10
31.3
 20
1.274999999999999
 42
1.0
  0
ENDBLK
  5
A56D
330
A4DF
100
AcDbEntity
  8
0
100
AcDbBlockEnd
  0
BLOCK
  5
A581
330
A56E
100
AcDbEntity
  8
0
100
AcDbBlockBegin
  2
A$CA052
 70
     0
 10
0.0
 20
0.0
 30
0.0
  3
A$CA052
  1

  0
TEXT
  5
A56F
330
A56E
100
AcDbEntity
  8
NOTE
100
AcDbText
 10
5.02116
 20
5.252692999999998
 30
0.0
 40
4.0
  1
Serial No, H
  7
RCEXFONT
100
AcDbText
  0
LINE
  5
A570
330
A56E
100
AcDbEntity
  8
DRAW1
100
AcDbLine
 10
2.02116
 20
20.252693
 30
0.0
 11
78.02115999999998
 21
20.252693
 31
0.0
  0
LINE
  5
A571
330
A56E
100
AcDbEntity
  8
DRAW1
100
AcDbLine
 10
78.02115999999998
 20
0.252693
 30
0.0
 11
2.02116
 21
0.252693
 31
0.0
  0
LINE
  5
A572
330
A56E
100
AcDbEntity
  8
DRAW1
100
AcDbLine
 10
4.02116
 20
18.252693
 30
0.0
 11
76.02115999999998
 21
18.252693
 31
0.0
  0
LINE
  5
A573
330
A56E
100
AcDbEntity
  8
DRAW1
100
AcDbLine
 10
76.02115999999998
 20
2.252692999999998
 30
0.0
 11
4.02116
 21
2.252692999999998
 31
0.0
  0
LINE
  5
A574
330
A56E
100
AcDbEntity
  8
DRAW1
100
AcDbLine
 10
0.02116
 20
2.252692999999998
 30
0.0
 11
0.02116
 21
18.252693
 31
0.0
  0
ARC
  5
A575
330
A56E
100
AcDbEntity
  8
DRAW1
100
AcDbCircle
 10
4.02116
 20
16.252693
 30
0.0
 40
2.0
100
AcDbArc
 50
90.0
 51
180.0
  0
INSERT
  5
A576
330
A56E
100
AcDbEntity
  8
DRAW1
100
AcDbBlockReference
  2
6-12
 10
5.02116
 20
14.50269299999999
 30
0.0
  0
LINE
  5
A577
330
A56E
100
AcDbEntity
  8
DRAW1
100
AcDbLine
 10
2.02116
 20
4.252692999999998
 30
0.0
 11
2.02116
 21
16.252693
 31
0.0
  0
ARC
  5
A578
330
A56E
100
AcDbEntity
  8
DRAW1
100
AcDbCircle
 10
2.02116
 20
2.252692999999998
 30
0.0
 40
2.0
100
AcDbArc
 50
180.0
 51
270.0
  0
ARC
  5
A579
330
A56E
100
AcDbEntity
  8
DRAW1
100
AcDbCircle
 10
4.02116
 20
4.252692999999998
 30
0.0
 40
2.0
100
AcDbArc
 50
180.0
 51
270.0
  0
ARC
  5
A57A
330
A56E
100
AcDbEntity
  8
DRAW1
100
AcDbCircle
 10
2.02116
 20
18.252693
 30
0.0
 40
2.0
100
AcDbArc
 50
90.0
 51
180.0
  0
LINE
  5
A57B
330
A56E
100
AcDbEntity
  8
DRAW1
100
AcDbLine
 10
80.02115999999999
 20
18.252693
 30
0.0
 11
80.02115999999999
 21
2.252692999999998
 31
0.0
  0
ARC
  5
A57C
330
A56E
100
AcDbEntity
  8
DRAW1
100
AcDbCircle
 10
76.02115999999998
 20
16.252693
 30
0.0
 40
2.0
100
AcDbArc
 50
0.0
 51
90.0
  0
LINE
  5
A57D
330
A56E
100
AcDbEntity
  8
DRAW1
100
AcDbLine
 10
78.02115999999998
 20
16.252693
 30
0.0
 11
78.02115999999998
 21
4.252692999999998
 31
0.0
  0
ARC
  5
A57E
330
A56E
100
AcDbEntity
  8
DRAW1
100
AcDbCircle
 10
78.02115999999998
 20
2.252692999999998
 30
0.0
 40
2.0
100
AcDbArc
 50
270.0
 51
0.0
  0
ARC
  5
A57F
330
A56E
100
AcDbEntity
  8
DRAW1
100
AcDbCircle
 10
76.02115999999998
 20
4.252692999999998
 30
0.0
 40
2.0
100
AcDbArc
 50
270.0
 51
0.0
  0
ARC
  5
A580
330
A56E
100
AcDbEntity
  8
DRAW1
100
AcDbCircle
 10
78.02115999999998
 20
18.252693
 30
0.0
 40
2.0
100
AcDbArc
 50
0.0
 51
90.0
  0
ENDBLK
  5
A582
330
A56E
100
AcDbEntity
  8
0
100
AcDbBlockEnd
  0
BLOCK
  5
A58B
330
A583
100
AcDbEntity
  8
0
100
AcDbBlockBegin
  2
A$CA1A3
 70
     0
 10
0.0
 20
0.0
 30
0.0
  3
A$CA1A3
  1

  0
LINE
  5
A584
330
A583
100
AcDbEntity
  8
DRAW1
  6
ByBlock
100
AcDbLine
 10
90.672033
 20
8.048690999999998
 30
0.0
 11
0.672033
 21
8.048690999999998
 31
0.0
  0
LINE
  5
A585
330
A583
100
AcDbEntity
  8
DRAW1
  6
ByBlock
100
AcDbLine
 10
0.672033
 20
18.048691
 30
0.0
 11
90.672033
 21
18.048691
 31
0.0
  0
LINE
  5
A586
330
A583
100
AcDbEntity
  8
DRAW1
  6
ByBlock
100
AcDbLine
 10
0.672033
 20
8.048690999999998
 30
0.0
 11
0.672033
 21
18.048691
 31
0.0
  0
LINE
  5
A587
330
A583
100
AcDbEntity
  8
DRAW1
  6
ByBlock
100
AcDbLine
 10
120.672033
 20
13.048691
 30
0.0
 11
90.672033
 21
0.548691
 31
0.0
  0
LINE
  5
A588
330
A583
100
AcDbEntity
  8
DRAW1
  6
ByBlock
100
AcDbLine
 10
90.672033
 20
25.548691
 30
0.0
 11
120.672033
 21
13.048691
 31
0.0
  0
LINE
  5
A589
330
A583
100
AcDbEntity
  8
DRAW1
  6
ByBlock
100
AcDbLine
 10
90.672033
 20
25.548691
 30
0.0
 11
90.672033
 21
18.048691
 31
0.0
  0
LINE
  5
A58A
330
A583
100
AcDbEntity
  8
DRAW1
  6
ByBlock
100
AcDbLine
 10
90.672033
 20
8.048690999999998
 30
0.0
 11
90.672033
 21
0.548691
 31
0.0
  0
ENDBLK
  5
A58C
330
A583
100
AcDbEntity
  8
0
100
AcDbBlockEnd
  0
BLOCK
  5
104B6
330
104AC
100
AcDbEntity
  8
0
100
AcDbBlockBegin
  2
*D13
 70
     1
 10
0.0
 20
0.0
 30
0.0
  3
*D13
  1

  0
LINE
  5
10718
330
104AC
100
AcDbEntity
  8
DIM1-1
 62
     0
370
    -2
100
AcDbLine
 10
364.380077
 20
-760.568761
 30
0.0
 11
364.380077
 21
-1024.068761
 31
0.0
  0
LINE
  5
10719
330
104AC
100
AcDbEntity
  8
DIM1-1
 62
     0
370
    -2
100
AcDbLine
 10
314.380077
 20
-979.068761
 30
0.0
 11
314.380077
 21
-1024.068761
 31
0.0
  0
LINE
  5
1071A
330
104AC
100
AcDbEntity
  8
DIM1-1
 62
     0
370
    -2
100
AcDbLine
 10
349.380077
 20
-1019.068760999999
 30
0.0
 11
329.380077
 21
-1019.068760999999
 31
0.0
  0
INSERT
  5
1071B
330
104AC
100
AcDbEntity
  8
DIM1-1
 62
     0
370
    -2
100
AcDbBlockReference
  2
_OPEN
 10
364.380077
 20
-1019.068760999999
 30
0.0
 41
15.0
 42
15.0
 43
15.0
  0
INSERT
  5
1071C
330
104AC
100
AcDbEntity
  8
DIM1-1
 62
     0
370
    -2
100
AcDbBlockReference
  2
_OPEN
 10
314.380077
 20
-1019.068760999999
 30
0.0
 41
15.0
 42
15.0
 43
15.0
 50
180.0
  0
MTEXT
  5
1071D
330
104AC
100
AcDbEntity
  8
DIM1-1
 62
     0
100
AcDbMText
 10
339.380077
 20
-1001.878284
 30
0.0
 40
16.0
 41
0.0
 71
     5
 72
     1
  1
\A1;(50)
  7
DIMFONT
 73
     1
 44
1.0
  0
POINT
  5
1071E
330
104AC
100
AcDbEntity
  8
DEFPOINTS
 62
     0
100
AcDbPoint
 10
364.380077
 20
-760.568761
 30
0.0
  0
POINT
  5
1071F
330
104AC
100
AcDbEntity
  8
DEFPOINTS
 62
     0
100
AcDbPoint
 10
314.380077
 20
-979.068761
 30
0.0
  0
POINT
  5
10720
330
104AC
100
AcDbEntity
  8
DEFPOINTS
 62
     0
100
AcDbPoint
 10
314.380077
 20
-1019.068760999999
 30
0.0
  0
ENDBLK
  5
104B7
330
104AC
100
AcDbEntity
  8
0
100
AcDbBlockEnd
  0
BLOCK
  5
104E5
330
104D9
100
AcDbEntity
  8
0
100
AcDbBlockBegin
  2
*D14
 70
     1
 10
0.0
 20
0.0
 30
0.0
  3
*D14
  1

  0
LINE
  5
1072D
330
104D9
100
AcDbEntity
  8
DIM1-1
 62
     0
370
    -2
100
AcDbLine
 10
914.3800769999996
 20
-979.068761
 30
0.0
 11
959.3800769999999
 21
-979.068761
 31
0.0
  0
LINE
  5
1072E
330
104D9
100
AcDbEntity
  8
DIM1-1
 62
     0
370
    -2
100
AcDbLine
 10
872.3800769999996
 20
-939.068761
 30
0.0
 11
959.3800769999999
 21
-939.068761
 31
0.0
  0
LINE
  5
1072F
330
104D9
100
AcDbEntity
  8
DIM1-1
 62
     0
370
    -2
100
AcDbLine
 10
954.3800769999997
 20
-924.068761
 30
0.0
 11
954.3800769999997
 21
-909.0687609999999
 31
0.0
  0
LINE
  5
10730
330
104D9
100
AcDbEntity
  8
DIM1-1
 62
     0
370
    -2
100
AcDbLine
 10
954.3800769999997
 20
-994.0687609999999
 30
0.0
 11
954.3800769999997
 21
-1093.446255
 31
0.0
  0
LINE
  5
10731
330
104D9
100
AcDbEntity
  8
DIM1-1
 62
     0
370
    -2
100
AcDbLine
 10
954.3800769999997
 20
-939.068761
 30
0.0
 11
954.3800769999997
 21
-979.068761
 31
0.0
  0
INSERT
  5
10732
330
104D9
100
AcDbEntity
  8
DIM1-1
 62
     0
370
    -2
100
AcDbBlockReference
  2
_OPEN
 10
954.3800769999997
 20
-939.068761
 30
0.0
 41
15.0
 42
15.0
 43
15.0
 50
270.0
  0
INSERT
  5
10733
330
104D9
100
AcDbEntity
  8
DIM1-1
 62
     0
370
    -2
100
AcDbBlockReference
  2
_OPEN
 10
954.3800769999997
 20
-979.068761
 30
0.0
 41
15.0
 42
15.0
 43
15.0
 50
90.0
  0
MTEXT
  5
10734
330
104D9
100
AcDbEntity
  8
DIM1-1
 62
     0
100
AcDbMText
 10
937.1896009999996
 20
-1065.320424
 30
0.0
 40
16.0
 41
0.0
 71
     5
 72
     1
  1
\A1;(40)
  7
DIMFONT
 11
0.0
 21
1.0
 31
0.0
 73
     1
 44
1.0
  0
POINT
  5
10735
330
104D9
100
AcDbEntity
  8
DEFPOINTS
 62
     0
100
AcDbPoint
 10
914.3800769999996
 20
-979.068761
 30
0.0
  0
POINT
  5
10736
330
104D9
100
AcDbEntity
  8
DEFPOINTS
 62
     0
100
AcDbPoint
 10
872.3800769999996
 20
-939.068761
 30
0.0
  0
POINT
  5
10737
330
104D9
100
AcDbEntity
  8
DEFPOINTS
 62
     0
100
AcDbPoint
 10
954.3800769999997
 20
-939.068761
 30
0.0
  0
ENDBLK
  5
104E6
330
104D9
100
AcDbEntity
  8
0
100
AcDbBlockEnd
  0
BLOCK
  5
104F1
330
104E7
100
AcDbEntity
  8
0
100
AcDbBlockBegin
  2
*D15
 70
     1
 10
0.0
 20
0.0
 30
0.0
  3
*D15
  1

  0
LINE
  5
1070F
330
104E7
100
AcDbEntity
  8
DIM1-1
 62
     0
370
    -2
100
AcDbLine
 10
874.3800769999998
 20
-909.0687609999999
 30
0.0
 11
999.3800769999999
 21
-909.0687609999999
 31
0.0
  0
LINE
  5
10710
330
104E7
100
AcDbEntity
  8
DIM1-1
 62
     0
370
    -2
100
AcDbLine
 10
914.3800769999996
 20
-979.068761
 30
0.0
 11
999.3800769999999
 21
-979.068761
 31
0.0
  0
LINE
  5
10711
330
104E7
100
AcDbEntity
  8
DIM1-1
 62
     0
370
    -2
100
AcDbLine
 10
994.3800770000001
 20
-924.068761
 30
0.0
 11
994.3800770000001
 21
-964.068761
 31
0.0
  0
INSERT
  5
10712
330
104E7
100
AcDbEntity
  8
DIM1-1
 62
     0
370
    -2
100
AcDbBlockReference
  2
_OPEN
 10
994.3800770000001
 20
-909.0687609999999
 30
0.0
 41
15.0
 42
15.0
 43
15.0
 50
90.0
  0
INSERT
  5
10713
330
104E7
100
AcDbEntity
  8
DIM1-1
 62
     0
370
    -2
100
AcDbBlockReference
  2
_OPEN
 10
994.3800770000001
 20
-979.068761
 30
0.0
 41
15.0
 42
15.0
 43
15.0
 50
270.0
  0
MTEXT
  5
10714
330
104E7
100
AcDbEntity
  8
DIM1-1
 62
     0
100
AcDbMText
 10
977.1896009999997
 20
-944.0687609999999
 30
0.0
 40
16.0
 41
0.0
 71
     5
 72
     1
  1
\A1;(70)
  7
DIMFONT
 11
0.0
 21
1.0
 31
0.0
 73
     1
 44
1.0
  0
POINT
  5
10715
330
104E7
100
AcDbEntity
  8
DEFPOINTS
 62
     0
100
AcDbPoint
 10
874.3800769999998
 20
-909.0687609999999
 30
0.0
  0
POINT
  5
10716
330
104E7
100
AcDbEntity
  8
DEFPOINTS
 62
     0
100
AcDbPoint
 10
914.3800769999996
 20
-979.068761
 30
0.0
  0
POINT
  5
10717
330
104E7
100
AcDbEntity
  8
DEFPOINTS
 62
     0
100
AcDbPoint
 10
994.3800770000001
 20
-979.068761
 30
0.0
  0
ENDBLK
  5
104F2
330
104E7
100
AcDbEntity
  8
0
100
AcDbBlockEnd
  0
BLOCK
  5
104FF
330
104F3
100
AcDbEntity
  8
0
100
AcDbBlockBegin
  2
*D16
 70
     1
 10
0.0
 20
0.0
 30
0.0
  3
*D16
  1

  0
LINE
  5
10704
330
104F3
100
AcDbEntity
  8
DIM1-1
 62
     0
370
    -2
100
AcDbLine
 10
914.3800769999996
 20
-979.068761
 30
0.0
 11
914.3800769999996
 21
-1024.068761
 31
0.0
  0
LINE
  5
10705
330
104F3
100
AcDbEntity
  8
DIM1-1
 62
     0
370
    -2
100
AcDbLine
 10
874.3800769999998
 20
-937.068761
 30
0.0
 11
874.3800769999998
 21
-1024.068761
 31
0.0
  0
LINE
  5
10706
330
104F3
100
AcDbEntity
  8
DIM1-1
 62
     0
370
    -2
100
AcDbLine
 10
929.3800769999997
 20
-1019.068760999999
 30
0.0
 11
944.3800770000001
 21
-1019.068760999999
 31
0.0
  0
LINE
  5
10707
330
104F3
100
AcDbEntity
  8
DIM1-1
 62
     0
370
    -2
100
AcDbLine
 10
859.3800769999997
 20
-1019.068760999999
 30
0.0
 11
788.1284139999998
 21
-1019.068760999999
 31
0.0
  0
LINE
  5
10708
330
104F3
100
AcDbEntity
  8
DIM1-1
 62
     0
370
    -2
100
AcDbLine
 10
914.3800769999996
 20
-1019.068760999999
 30
0.0
 11
874.3800769999998
 21
-1019.068760999999
 31
0.0
  0
INSERT
  5
10709
330
104F3
100
AcDbEntity
  8
DIM1-1
 62
     0
370
    -2
100
AcDbBlockReference
  2
_OPEN
 10
914.3800769999996
 20
-1019.068760999999
 30
0.0
 41
15.0
 42
15.0
 43
15.0
 50
180.0
  0
INSERT
  5
1070A
330
104F3
100
AcDbEntity
  8
DIM1-1
 62
     0
370
    -2
100
AcDbBlockReference
  2
_OPEN
 10
874.3800769999998
 20
-1019.068760999999
 30
0.0
 41
15.0
 42
15.0
 43
15.0
  0
MTEXT
  5
1070B
330
104F3
100
AcDbEntity
  8
DIM1-1
 62
     0
100
AcDbMText
 10
816.254245
 20
-1001.878284
 30
0.0
 40
16.0
 41
0.0
 71
     5
 72
     1
  1
\A1;(40)
  7
DIMFONT
 73
     1
 44
1.0
  0
POINT
  5
1070C
330
104F3
100
AcDbEntity
  8
DEFPOINTS
 62
     0
100
AcDbPoint
 10
914.3800769999996
 20
-979.068761
 30
0.0
  0
POINT
  5
1070D
330
104F3
100
AcDbEntity
  8
DEFPOINTS
 62
     0
100
AcDbPoint
 10
874.3800769999998
 20
-937.068761
 30
0.0
  0
POINT
  5
1070E
330
104F3
100
AcDbEntity
  8
DEFPOINTS
 62
     0
100
AcDbPoint
 10
874.3800769999998
 20
-1019.068760999999
 30
0.0
  0
ENDBLK
  5
10500
330
104F3
100
AcDbEntity
  8
0
100
AcDbBlockEnd
  0
BLOCK
  5
106A9
330
1069F
100
AcDbEntity
  8
0
100
AcDbBlockBegin
  2
*D17
 70
     1
 10
0.0
 20
0.0
 30
0.0
  3
*D17
  1

  0
LINE
  5
106F0
330
1069F
100
AcDbEntity
  8
DIM1-1
 62
     0
370
    -2
100
AcDbLine
 10
914.3800769999996
 20
-979.068761
 30
0.0
 11
914.3800769999996
 21
-1063.398866999998
 31
0.0
  0
LINE
  5
106F1
330
1069F
100
AcDbEntity
  8
DIM1-1
 62
     0
370
    -2
100
AcDbLine
 10
314.380077
 20
-979.068761
 30
0.0
 11
314.380077
 21
-1063.398866999998
 31
0.0
  0
LINE
  5
106F2
330
1069F
100
AcDbEntity
  8
DIM1-1
 62
     0
370
    -2
100
AcDbLine
 10
899.3800769999998
 20
-1058.398866999999
 30
0.0
 11
329.380077
 21
-1058.398866999999
 31
0.0
  0
INSERT
  5
106F3
330
1069F
100
AcDbEntity
  8
DIM1-1
 62
     0
370
    -2
100
AcDbBlockReference
  2
_OPEN
 10
914.3800769999996
 20
-1058.398866999999
 30
0.0
 41
15.0
 42
15.0
 43
15.0
  0
INSERT
  5
106F4
330
1069F
100
AcDbEntity
  8
DIM1-1
 62
     0
370
    -2
100
AcDbBlockReference
  2
_OPEN
 10
314.380077
 20
-1058.398866999999
 30
0.0
 41
15.0
 42
15.0
 43
15.0
 50
180.0
  0
MTEXT
  5
106F5
330
1069F
100
AcDbEntity
  8
DIM1-1
 62
     0
100
AcDbMText
 10
614.3800769999998
 20
-1041.208391
 30
0.0
 40
16.0
 41
0.0
 71
     5
 72
     1
  1
\A1;(600)
  7
DIMFONT
 73
     1
 44
1.0
  0
POINT
  5
106F6
330
1069F
100
AcDbEntity
  8
DEFPOINTS
 62
     0
100
AcDbPoint
 10
914.3800769999996
 20
-979.068761
 30
0.0
  0
POINT
  5
106F7
330
1069F
100
AcDbEntity
  8
DEFPOINTS
 62
     0
100
AcDbPoint
 10
314.380077
 20
-979.068761
 30
0.0
  0
POINT
  5
106F8
330
1069F
100
AcDbEntity
  8
DEFPOINTS
 62
     0
100
AcDbPoint
 10
314.380077
 20
-1058.398866999999
 30
0.0
  0
ENDBLK
  5
106AA
330
1069F
100
AcDbEntity
  8
0
100
AcDbBlockEnd
  0
BLOCK
  5
10743
330
10739
100
AcDbEntity
  8
0
100
AcDbBlockBegin
  2
*D18
 70
     1
 10
0.0
 20
0.0
 30
0.0
  3
*D18
  1

  0
LINE
  5
10745
330
10739
100
AcDbEntity
  8
DIM1-1
 62
     0
370
    -2
100
AcDbLine
 10
214.880077
 20
-681.568761
 30
0.0
 11
149.880077
 21
-681.568761
 31
0.0
  0
LINE
  5
10746
330
10739
100
AcDbEntity
  8
DIM1-1
 62
     0
370
    -2
100
AcDbLine
 10
214.880077
 20
-829.5687609999998
 30
0.0
 11
149.880077
 21
-829.5687609999998
 31
0.0
  0
LINE
  5
10747
330
10739
100
AcDbEntity
  8
DIM1-1
 62
     0
370
    -2
100
AcDbLine
 10
154.8800769999999
 20
-696.5687609999998
 30
0.0
 11
154.8800769999999
 21
-814.5687609999999
 31
0.0
  0
INSERT
  5
10748
330
10739
100
AcDbEntity
  8
DIM1-1
 62
     0
370
    -2
100
AcDbBlockReference
  2
_OPEN
 10
154.8800769999999
 20
-681.568761
 30
0.0
 41
15.0
 42
15.0
 43
15.0
 50
90.0
  0
INSERT
  5
10749
330
10739
100
AcDbEntity
  8
DIM1-1
 62
     0
370
    -2
100
AcDbBlockReference
  2
_OPEN
 10
154.8800769999999
 20
-829.5687609999998
 30
0.0
 41
15.0
 42
15.0
 43
15.0
 50
270.0
  0
MTEXT
  5
1074A
330
10739
100
AcDbEntity
  8
DIM1-1
 62
     0
100
AcDbMText
 10
137.689601
 20
-755.5687609999998
 30
0.0
 40
16.0
 41
0.0
 71
     5
 72
     1
  1
\A1;(%%c148)
  7
DIMFONT
 11
0.0
 21
1.0
 31
0.0
 73
     1
 44
1.0
  0
POINT
  5
1074B
330
10739
100
AcDbEntity
  8
DEFPOINTS
 62
     0
100
AcDbPoint
 10
214.880077
 20
-681.568761
 30
0.0
  0
POINT
  5
1074C
330
10739
100
AcDbEntity
  8
DEFPOINTS
 62
     0
100
AcDbPoint
 10
214.880077
 20
-829.5687609999998
 30
0.0
  0
POINT
  5
1074D
330
10739
100
AcDbEntity
  8
DEFPOINTS
 62
     0
100
AcDbPoint
 10
154.8800769999999
 20
-829.5687609999998
 30
0.0
  0
ENDBLK
  5
10744
330
10739
100
AcDbEntity
  8
0
100
AcDbBlockEnd
  0
BLOCK
  5
10788
330
1077E
100
AcDbEntity
  8
0
100
AcDbBlockBegin
  2
*D19
 70
     1
 10
0.0
 20
0.0
 30
0.0
  3
*D19
  1

  0
LINE
  5
107F2
330
1077E
100
AcDbEntity
  8
DIM1-1
 62
     0
370
    -2
100
AcDbLine
 10
964.3800769999996
 20
201.854068
 30
0.0
 11
964.3800769999996
 21
326.854068
 31
0.0
  0
LINE
  5
107F3
330
1077E
100
AcDbEntity
  8
DIM1-1
 62
     0
370
    -2
100
AcDbLine
 10
264.380077
 20
201.854068
 30
0.0
 11
264.380077
 21
326.854068
 31
0.0
  0
LINE
  5
107F4
330
1077E
100
AcDbEntity
  8
DIM1-1
 62
     0
370
    -2
100
AcDbLine
 10
949.3800769999999
 20
321.854068
 30
0.0
 11
279.380077
 21
321.854068
 31
0.0
  0
INSERT
  5
107F5
330
1077E
100
AcDbEntity
  8
DIM1-1
 62
     0
370
    -2
100
AcDbBlockReference
  2
_OPEN
 10
964.3800769999996
 20
321.854068
 30
0.0
 41
15.0
 42
15.0
 43
15.0
  0
INSERT
  5
107F6
330
1077E
100
AcDbEntity
  8
DIM1-1
 62
     0
370
    -2
100
AcDbBlockReference
  2
_OPEN
 10
264.380077
 20
321.854068
 30
0.0
 41
15.0
 42
15.0
 43
15.0
 50
180.0
  0
MTEXT
  5
107F7
330
1077E
100
AcDbEntity
  8
DIM1-1
 62
     0
100
AcDbMText
 10
614.3800769999998
 20
339.044545
 30
0.0
 40
16.0
 41
0.0
 71
     5
 72
     1
  1
\A1;(700)
  7
DIMFONT
 73
     1
 44
1.0
  0
POINT
  5
107F8
330
1077E
100
AcDbEntity
  8
DEFPOINTS
 62
     0
100
AcDbPoint
 10
964.3800769999996
 20
201.854068
 30
0.0
  0
POINT
  5
107F9
330
1077E
100
AcDbEntity
  8
DEFPOINTS
 62
     0
100
AcDbPoint
 10
264.380077
 20
201.854068
 30
0.0
  0
POINT
  5
107FA
330
1077E
100
AcDbEntity
  8
DEFPOINTS
 62
     0
100
AcDbPoint
 10
264.380077
 20
321.854068
 30
0.0
  0
ENDBLK
  5
10789
330
1077E
100
AcDbEntity
  8
0
100
AcDbBlockEnd
  0
BLOCK
  5
10858
330
1084E
100
AcDbEntity
  8
0
100
AcDbBlockBegin
  2
*D20
 70
     1
 10
0.0
 20
0.0
 30
0.0
  3
*D20
  1

  0
LINE
  5
10863
330
1084E
100
AcDbEntity
  8
DIM1-1
 62
     0
370
    -2
100
AcDbLine
 10
1682.731219
 20
-978.2687609999999
 30
0.0
 11
1682.731219
 21
-1104.068761
 31
0.0
  0
LINE
  5
10864
330
1084E
100
AcDbEntity
  8
DIM1-1
 62
     0
370
    -2
100
AcDbLine
 10
1191.287348999999
 20
-964.818756
 30
0.0
 11
1191.287348999999
 21
-1104.068761
 31
0.0
  0
LINE
  5
10865
330
1084E
100
AcDbEntity
  8
DIM1-1
 62
     0
370
    -2
100
AcDbLine
 10
1667.731219
 20
-1099.068761
 30
0.0
 11
1206.287349
 21
-1099.068761
 31
0.0
  0
INSERT
  5
10866
330
1084E
100
AcDbEntity
  8
DIM1-1
 62
     0
370
    -2
100
AcDbBlockReference
  2
_OPEN
 10
1682.731219
 20
-1099.068761
 30
0.0
 41
15.0
 42
15.0
 43
15.0
  0
INSERT
  5
10867
330
1084E
100
AcDbEntity
  8
DIM1-1
 62
     0
370
    -2
100
AcDbBlockReference
  2
_OPEN
 10
1191.287348999999
 20
-1099.068761
 30
0.0
 41
15.0
 42
15.0
 43
15.0
 50
180.0
  0
MTEXT
  5
10868
330
1084E
100
AcDbEntity
  8
DIM1-1
 62
     0
100
AcDbMText
 10
1437.009284
 20
-1081.878283999998
 30
0.0
 40
16.0
 41
0.0
 71
     5
 72
     1
  1
\A1;(491)
  7
DIMFONT
 73
     1
 44
1.0
  0
POINT
  5
10869
330
1084E
100
AcDbEntity
  8
DEFPOINTS
 62
     0
100
AcDbPoint
 10
1682.731219
 20
-978.2687609999999
 30
0.0
  0
POINT
  5
1086A
330
1084E
100
AcDbEntity
  8
DEFPOINTS
 62
     0
100
AcDbPoint
 10
1191.287348999999
 20
-964.818756
 30
0.0
  0
POINT
  5
1086B
330
1084E
100
AcDbEntity
  8
DEFPOINTS
 62
     0
100
AcDbPoint
 10
1191.287348999999
 20
-1099.068761
 30
0.0
  0
ENDBLK
  5
10859
330
1084E
100
AcDbEntity
  8
0
100
AcDbBlockEnd
  0
BLOCK
  5
10877
330
1086D
100
AcDbEntity
  8
0
100
AcDbBlockBegin
  2
*D21
 70
     1
 10
0.0
 20
0.0
 30
0.0
  3
*D21
  1

  0
LINE
  5
10882
330
1086D
100
AcDbEntity
  8
DIM1-1
 62
     0
370
    -2
100
AcDbLine
 10
-803.971066
 20
-978.2687609999999
 30
0.0
 11
-803.971066
 21
-1104.068761
 31
0.0
  0
LINE
  5
10883
330
1086D
100
AcDbEntity
  8
DIM1-1
 62
     0
370
    -2
100
AcDbLine
 10
110.272804
 20
-964.818756
 30
0.0
 11
110.272804
 21
-1104.068761
 31
0.0
  0
LINE
  5
10884
330
1086D
100
AcDbEntity
  8
DIM1-1
 62
     0
370
    -2
100
AcDbLine
 10
-788.971066
 20
-1099.068761
 30
0.0
 11
95.272804
 21
-1099.068761
 31
0.0
  0
INSERT
  5
10885
330
1086D
100
AcDbEntity
  8
DIM1-1
 62
     0
370
    -2
100
AcDbBlockReference
  2
_OPEN
 10
-803.971066
 20
-1099.068761
 30
0.0
 41
15.0
 42
15.0
 43
15.0
 50
180.0
  0
INSERT
  5
10886
330
1086D
100
AcDbEntity
  8
DIM1-1
 62
     0
370
    -2
100
AcDbBlockReference
  2
_OPEN
 10
110.272804
 20
-1099.068761
 30
0.0
 41
15.0
 42
15.0
 43
15.0
  0
MTEXT
  5
10887
330
1086D
100
AcDbEntity
  8
DIM1-1
 62
     0
100
AcDbMText
 10
-346.849131
 20
-1081.878283999998
 30
0.0
 40
16.0
 41
0.0
 71
     5
 72
     1
  1
\A1;(914)
  7
DIMFONT
 73
     1
 44
1.0
  0
POINT
  5
10888
330
1086D
100
AcDbEntity
  8
DEFPOINTS
 62
     0
100
AcDbPoint
 10
-803.971066
 20
-978.2687609999999
 30
0.0
  0
POINT
  5
10889
330
1086D
100
AcDbEntity
  8
DEFPOINTS
 62
     0
100
AcDbPoint
 10
110.272804
 20
-964.818756
 30
0.0
  0
POINT
  5
1088A
330
1086D
100
AcDbEntity
  8
DEFPOINTS
 62
     0
100
AcDbPoint
 10
110.272804
 20
-1099.068761
 30
0.0
  0
ENDBLK
  5
10878
330
1086D
100
AcDbEntity
  8
0
100
AcDbBlockEnd
  0
BLOCK
  5
108CC
330
108C2
100
AcDbEntity
  8
0
100
AcDbBlockBegin
  2
*D22
 70
     1
 10
0.0
 20
0.0
 30
0.0
  3
*D22
  1

  0
LINE
  5
108D7
330
108C2
100
AcDbEntity
  8
DIM1-1
 62
     0
370
    -2
100
AcDbLine
 10
964.3800769999996
 20
-245.145932
 30
0.0
 11
1138.880077
 21
-245.145932
 31
0.0
  0
LINE
  5
108D8
330
108C2
100
AcDbEntity
  8
DIM1-1
 62
     0
370
    -2
100
AcDbLine
 10
964.3800769999996
 20
201.854068
 30
0.0
 11
1138.880077
 21
201.854068
 31
0.0
  0
LINE
  5
108D9
330
108C2
100
AcDbEntity
  8
DIM1-1
 62
     0
370
    -2
100
AcDbLine
 10
1133.880077
 20
-230.1459319999999
 30
0.0
 11
1133.880077
 21
186.8540679999999
 31
0.0
  0
INSERT
  5
108DA
330
108C2
100
AcDbEntity
  8
DIM1-1
 62
     0
370
    -2
100
AcDbBlockReference
  2
_OPEN
 10
1133.880077
 20
-245.145932
 30
0.0
 41
15.0
 42
15.0
 43
15.0
 50
270.0
  0
INSERT
  5
108DB
330
108C2
100
AcDbEntity
  8
DIM1-1
 62
     0
370
    -2
100
AcDbBlockReference
  2
_OPEN
 10
1133.880077
 20
201.854068
 30
0.0
 41
15.0
 42
15.0
 43
15.0
 50
90.0
  0
MTEXT
  5
108DC
330
108C2
100
AcDbEntity
  8
DIM1-1
 62
     0
100
AcDbMText
 10
1116.689601
 20
-21.645932
 30
0.0
 40
16.0
 41
0.0
 71
     5
 72
     1
  1
\A1;(447)
  7
DIMFONT
 11
0.0
 21
1.0
 31
0.0
 73
     1
 44
1.0
  0
POINT
  5
108DD
330
108C2
100
AcDbEntity
  8
DEFPOINTS
 62
     0
100
AcDbPoint
 10
964.3800769999996
 20
-245.145932
 30
0.0
  0
POINT
  5
108DE
330
108C2
100
AcDbEntity
  8
DEFPOINTS
 62
     0
100
AcDbPoint
 10
964.3800769999996
 20
201.854068
 30
0.0
  0
POINT
  5
108DF
330
108C2
100
AcDbEntity
  8
DEFPOINTS
 62
     0
100
AcDbPoint
 10
1133.880077
 20
201.854068
 30
0.0
  0
ENDBLK
  5
108CD
330
108C2
100
AcDbEntity
  8
0
100
AcDbBlockEnd
  0
ENDSEC
  0
SECTION
  2
ENTITIES
  0
LINE
  5
88BE
330
18
100
AcDbEntity
  8
0
100
AcDbLine
 10
314.380077
 20
201.854068
 30
0.0
 11
314.380077
 21
-245.145932
 31
0.0
  0
LINE
  5
88BF
330
18
100
AcDbEntity
  8
0
100
AcDbLine
 10
914.3800769999996
 20
201.854068
 30
0.0
 11
914.3800769999996
 21
-245.145932
 31
0.0
  0
LINE
  5
88C0
330
18
100
AcDbEntity
  8
0
100
AcDbLine
 10
914.3800769999996
 20
-245.145932
 30
0.0
 11
912.8800769999999
 21
-245.145932
 31
0.0
  0
LINE
  5
88C2
330
18
100
AcDbEntity
  8
0
100
AcDbLine
 10
315.880077
 20
-245.145932
 30
0.0
 11
314.380077
 21
-245.145932
 31
0.0
  0
LINE
  5
88C4
330
18
100
AcDbEntity
  8
0
100
AcDbLine
 10
912.8800769999999
 20
-245.145932
 30
0.0
 11
914.3800769999996
 21
-245.145932
 31
0.0
  0
LINE
  5
88C5
330
18
100
AcDbEntity
  8
0
100
AcDbLine
 10
914.3800769999996
 20
201.854068
 30
0.0
 11
912.8800769999999
 21
201.854068
 31
0.0
  0
LINE
  5
88C7
330
18
100
AcDbEntity
  8
0
100
AcDbLine
 10
315.880077
 20
201.854068
 30
0.0
 11
314.380077
 21
201.854068
 31
0.0
  0
LINE
  5
88C8
330
18
100
AcDbEntity
  8
0
100
AcDbLine
 10
912.8800769999999
 20
201.854068
 30
0.0
 11
914.3800769999996
 21
201.854068
 31
0.0
  0
LINE
  5
88CA
330
18
100
AcDbEntity
  8
0
100
AcDbLine
 10
1234.431219
 20
-979.068761
 30
0.0
 11
1234.431219
 21
-532.068761
 31
0.0
  0
LINE
  5
88CB
330
18
100
AcDbEntity
  8
0
100
AcDbLine
 10
1681.431219
 20
-979.068761
 30
0.0
 11
1681.431219
 21
-532.068761
 31
0.0
  0
CIRCLE
  5
88CC
330
18
100
AcDbEntity
  8
0
100
AcDbCircle
 10
1457.931219
 20
-755.5687609999998
 30
0.0
 40
75.0
  0
LINE
  5
88CE
330
18
100
AcDbEntity
  8
0
100
AcDbLine
 10
1234.431219
 20
-532.068761
 30
0.0
 11
1681.431219
 21
-532.068761
 31
0.0
  0
LINE
  5
88CF
330
18
100
AcDbEntity
  8
0
100
AcDbLine
 10
1234.431219
 20
-979.068761
 30
0.0
 11
1681.431219
 21
-979.068761
 31
0.0
  0
LINE
  5
88D4
330
18
100
AcDbEntity
  8
0
100
AcDbLine
 10
914.3800769999996
 20
-979.068761
 30
0.0
 11
914.3800769999996
 21
-532.068761
 31
0.0
  0
LINE
  5
88D5
330
18
100
AcDbEntity
  8
0
100
AcDbLine
 10
314.380077
 20
-532.068761
 30
0.0
 11
314.380077
 21
-979.068761
 31
0.0
  0
LINE
  5
88D8
330
18
100
AcDbEntity
  8
0
100
AcDbLine
 10
314.380077
 20
-532.068761
 30
0.0
 11
315.880077
 21
-532.068761
 31
0.0
  0
LINE
  5
88D9
330
18
100
AcDbEntity
  8
0
100
AcDbLine
 10
315.880077
 20
-534.5687609999998
 30
0.0
 11
315.880077
 21
-533.5687609999999
 31
0.0
  0
LINE
  5
88DA
330
18
100
AcDbEntity
  8
0
100
AcDbLine
 10
914.3800769999996
 20
-532.068761
 30
0.0
 11
912.8800769999999
 21
-532.068761
 31
0.0
  0
LINE
  5
88DB
330
18
100
AcDbEntity
  8
0
100
AcDbLine
 10
912.8800769999999
 20
-534.5687609999998
 30
0.0
 11
912.8800769999999
 21
-533.5687609999999
 31
0.0
  0
LINE
  5
88DD
330
18
100
AcDbEntity
  8
0
100
AcDbLine
 10
914.3800769999996
 20
-979.068761
 30
0.0
 11
619.0638249999998
 21
-979.068761
 31
0.0
  0
CIRCLE
  5
88E1
330
18
100
AcDbEntity
  8
0
100
AcDbCircle
 10
1457.931219
 20
-755.5687609999998
 30
0.0
 40
100.0
  0
CIRCLE
  5
88E2
330
18
100
AcDbEntity
  8
0
100
AcDbCircle
 10
1457.931219
 20
-755.5687609999998
 30
0.0
 40
72.5
  0
CIRCLE
  5
88E3
330
18
100
AcDbEntity
  8
0
100
AcDbCircle
 10
1457.931219
 20
-755.5687609999998
 30
0.0
 40
73.0
  0
CIRCLE
  5
88E4
330
18
100
AcDbEntity
  8
0
100
AcDbCircle
 10
1457.931219
 20
-755.5687609999998
 30
0.0
 40
73.5
  0
CIRCLE
  5
88E5
330
18
100
AcDbEntity
  8
0
100
AcDbCircle
 10
1457.931219
 20
-755.5687609999998
 30
0.0
 40
74.0
  0
LINE
  5
88E6
330
18
100
AcDbEntity
  8
0
100
AcDbLine
 10
914.3800769999996
 20
78.354068
 30
0.0
 11
914.3800769999996
 21
52.35406799999999
 31
0.0
  0
LINE
  5
88E7
330
18
100
AcDbEntity
  8
0
100
AcDbLine
 10
914.8800770000001
 20
78.354068
 30
0.0
 11
914.8800770000001
 21
52.35406799999999
 31
0.0
  0
LINE
  5
88E8
330
18
100
AcDbEntity
  8
0
100
AcDbLine
 10
914.3800769999996
 20
78.354068
 30
0.0
 11
914.3800769999996
 21
-121.645932
 31
0.0
  0
LINE
  5
88E9
330
18
100
AcDbEntity
  8
0
100
AcDbLine
 10
914.8800770000001
 20
78.354068
 30
0.0
 11
914.8800770000001
 21
-121.645932
 31
0.0
  0
LINE
  5
88EA
330
18
100
AcDbEntity
  8
0
100
AcDbLine
 10
914.8800770000001
 20
-95.645932
 30
0.0
 11
914.8800770000001
 21
-121.645932
 31
0.0
  0
LINE
  5
88EB
330
18
100
AcDbEntity
  8
0
100
AcDbLine
 10
914.3800769999996
 20
-95.645932
 30
0.0
 11
914.3800769999996
 21
-121.645932
 31
0.0
  0
LINE
  5
88EC
330
18
100
AcDbEntity
  8
0
100
AcDbLine
 10
914.3800769999996
 20
-121.645932
 30
0.0
 11
914.8800770000001
 21
-121.645932
 31
0.0
  0
LINE
  5
88ED
330
18
100
AcDbEntity
  8
0
100
AcDbLine
 10
914.3800769999996
 20
78.354068
 30
0.0
 11
914.8800770000001
 21
78.354068
 31
0.0
  0
LINE
  5
88EE
330
18
100
AcDbEntity
  8
0
100
AcDbLine
 10
1013.880077
 20
52.35406799999999
 30
0.0
 11
1013.880077
 21
-95.645932
 31
0.0
  0
LINE
  5
88EF
330
18
100
AcDbEntity
  8
0
100
AcDbLine
 10
914.8800770000001
 20
52.35406799999999
 30
0.0
 11
914.8800770000001
 21
-95.645932
 31
0.0
  0
LINE
  5
88F0
330
18
100
AcDbEntity
  8
0
100
AcDbLine
 10
914.8800770000001
 20
-95.645932
 30
0.0
 11
1013.880077
 21
-95.645932
 31
0.0
  0
LINE
  5
88F1
330
18
100
AcDbEntity
  8
0
100
AcDbLine
 10
914.8800770000001
 20
52.35406799999999
 30
0.0
 11
1013.880077
 21
52.35406799999999
 31
0.0
  0
LINE
  5
88F7
330
18
100
AcDbEntity
  8
0
100
AcDbLine
 10
214.880077
 20
52.35406799999999
 30
0.0
 11
214.880077
 21
-95.645932
 31
0.0
  0
LINE
  5
88F8
330
18
100
AcDbEntity
  8
0
100
AcDbLine
 10
313.880077
 20
52.35406799999999
 30
0.0
 11
313.880077
 21
-95.645932
 31
0.0
  0
LINE
  5
88F9
330
18
100
AcDbEntity
  8
0
100
AcDbLine
 10
314.380077
 20
78.354068
 30
0.0
 11
314.380077
 21
-121.645932
 31
0.0
  0
LINE
  5
88FA
330
18
100
AcDbEntity
  8
0
100
AcDbLine
 10
313.880077
 20
78.354068
 30
0.0
 11
313.880077
 21
-121.645932
 31
0.0
  0
LINE
  5
88FC
330
18
100
AcDbEntity
  8
0
100
AcDbLine
 10
313.880077
 20
-95.645932
 30
0.0
 11
214.880077
 21
-95.645932
 31
0.0
  0
LINE
  5
88FD
330
18
100
AcDbEntity
  8
0
100
AcDbLine
 10
313.880077
 20
-95.645932
 30
0.0
 11
313.880077
 21
-121.645932
 31
0.0
  0
LINE
  5
88FE
330
18
100
AcDbEntity
  8
0
100
AcDbLine
 10
314.380077
 20
-95.645932
 30
0.0
 11
314.380077
 21
-121.645932
 31
0.0
  0
LINE
  5
88FF
330
18
100
AcDbEntity
  8
0
100
AcDbLine
 10
314.380077
 20
-121.645932
 30
0.0
 11
313.880077
 21
-121.645932
 31
0.0
  0
LINE
  5
8900
330
18
100
AcDbEntity
  8
0
100
AcDbLine
 10
313.880077
 20
52.35406799999999
 30
0.0
 11
214.880077
 21
52.35406799999999
 31
0.0
  0
LINE
  5
8901
330
18
100
AcDbEntity
  8
0
100
AcDbLine
 10
314.380077
 20
78.354068
 30
0.0
 11
314.380077
 21
52.35406799999999
 31
0.0
  0
LINE
  5
8902
330
18
100
AcDbEntity
  8
0
100
AcDbLine
 10
313.880077
 20
78.354068
 30
0.0
 11
313.880077
 21
52.35406799999999
 31
0.0
  0
LINE
  5
8903
330
18
100
AcDbEntity
  8
0
100
AcDbLine
 10
314.380077
 20
78.354068
 30
0.0
 11
313.880077
 21
78.354068
 31
0.0
  0
LINE
  5
8904
330
18
100
AcDbEntity
  8
0
100
AcDbLine
 10
1013.880077
 20
-681.568761
 30
0.0
 11
1013.880077
 21
-829.5687609999998
 31
0.0
  0
LINE
  5
8905
330
18
100
AcDbEntity
  8
0
100
AcDbLine
 10
914.8800770000001
 20
-681.568761
 30
0.0
 11
914.8800770000001
 21
-829.5687609999998
 31
0.0
  0
LINE
  5
8906
330
18
100
AcDbEntity
  8
0
100
AcDbLine
 10
914.3800769999996
 20
-655.5687609999998
 30
0.0
 11
914.3800769999996
 21
-855.5687609999999
 31
0.0
  0
LINE
  5
8907
330
18
100
AcDbEntity
  8
0
100
AcDbLine
 10
914.8800770000001
 20
-655.5687609999998
 30
0.0
 11
914.8800770000001
 21
-855.5687609999999
 31
0.0
  0
LINE
  5
8909
330
18
100
AcDbEntity
  8
0
100
AcDbLine
 10
914.8800770000001
 20
-829.5687609999998
 30
0.0
 11
1013.880077
 21
-829.5687609999998
 31
0.0
  0
LINE
  5
890A
330
18
100
AcDbEntity
  8
0
100
AcDbLine
 10
914.8800770000001
 20
-829.5687609999998
 30
0.0
 11
914.8800770000001
 21
-855.5687609999999
 31
0.0
  0
LINE
  5
890B
330
18
100
AcDbEntity
  8
0
100
AcDbLine
 10
914.3800769999996
 20
-829.5687609999998
 30
0.0
 11
914.3800769999996
 21
-855.5687609999999
 31
0.0
  0
LINE
  5
890C
330
18
100
AcDbEntity
  8
0
100
AcDbLine
 10
914.3800769999996
 20
-855.5687609999999
 30
0.0
 11
914.8800770000001
 21
-855.5687609999999
 31
0.0
  0
LINE
  5
890D
330
18
100
AcDbEntity
  8
0
100
AcDbLine
 10
914.8800770000001
 20
-681.568761
 30
0.0
 11
1013.880077
 21
-681.568761
 31
0.0
  0
LINE
  5
890E
330
18
100
AcDbEntity
  8
0
100
AcDbLine
 10
914.3800769999996
 20
-655.5687609999998
 30
0.0
 11
914.3800769999996
 21
-681.568761
 31
0.0
  0
LINE
  5
890F
330
18
100
AcDbEntity
  8
0
100
AcDbLine
 10
914.8800770000001
 20
-655.5687609999998
 30
0.0
 11
914.8800770000001
 21
-681.568761
 31
0.0
  0
LINE
  5
8910
330
18
100
AcDbEntity
  8
0
100
AcDbLine
 10
914.3800769999996
 20
-655.5687609999998
 30
0.0
 11
914.8800770000001
 21
-655.5687609999998
 31
0.0
  0
LINE
  5
8911
330
18
100
AcDbEntity
  8
0
100
AcDbLine
 10
313.880077
 20
-655.5687609999998
 30
0.0
 11
313.880077
 21
-855.5687609999999
 31
0.0
  0
LINE
  5
8912
330
18
100
AcDbEntity
  8
0
100
AcDbLine
 10
314.380077
 20
-655.5687609999998
 30
0.0
 11
314.380077
 21
-855.5687609999999
 31
0.0
  0
LINE
  5
8913
330
18
100
AcDbEntity
  8
0
100
AcDbLine
 10
313.880077
 20
-681.568761
 30
0.0
 11
313.880077
 21
-829.5687609999998
 31
0.0
  0
LINE
  5
8914
330
18
100
AcDbEntity
  8
0
100
AcDbLine
 10
214.880077
 20
-681.568761
 30
0.0
 11
214.880077
 21
-829.5687609999998
 31
0.0
  0
LINE
  5
8915
330
18
100
AcDbEntity
  8
0
100
AcDbLine
 10
313.880077
 20
-829.5687609999998
 30
0.0
 11
214.880077
 21
-829.5687609999998
 31
0.0
  0
LINE
  5
8916
330
18
100
AcDbEntity
  8
0
100
AcDbLine
 10
314.380077
 20
-829.5687609999998
 30
0.0
 11
314.380077
 21
-855.5687609999999
 31
0.0
  0
LINE
  5
8917
330
18
100
AcDbEntity
  8
0
100
AcDbLine
 10
313.880077
 20
-829.5687609999998
 30
0.0
 11
313.880077
 21
-855.5687609999999
 31
0.0
  0
LINE
  5
8918
330
18
100
AcDbEntity
  8
0
100
AcDbLine
 10
314.380077
 20
-855.5687609999999
 30
0.0
 11
313.880077
 21
-855.5687609999999
 31
0.0
  0
LINE
  5
891A
330
18
100
AcDbEntity
  8
0
100
AcDbLine
 10
313.880077
 20
-681.568761
 30
0.0
 11
214.880077
 21
-681.568761
 31
0.0
  0
LINE
  5
891B
330
18
100
AcDbEntity
  8
0
100
AcDbLine
 10
313.880077
 20
-655.5687609999998
 30
0.0
 11
313.880077
 21
-681.568761
 31
0.0
  0
LINE
  5
891C
330
18
100
AcDbEntity
  8
0
100
AcDbLine
 10
314.380077
 20
-655.5687609999998
 30
0.0
 11
314.380077
 21
-681.568761
 31
0.0
  0
LINE
  5
891D
330
18
100
AcDbEntity
  8
0
100
AcDbLine
 10
314.380077
 20
-655.5687609999998
 30
0.0
 11
313.880077
 21
-655.5687609999998
 31
0.0
  0
LINE
  5
8920
330
18
100
AcDbEntity
  8
0
100
AcDbLine
 10
1682.731219
 20
-531.268761
 30
0.0
 11
1682.731219
 21
-978.2687609999999
 31
0.0
  0
LINE
  5
8921
330
18
100
AcDbEntity
  8
0
100
AcDbLine
 10
1681.931219
 20
-532.068761
 30
0.0
 11
1681.931219
 21
-978.2687609999999
 31
0.0
  0
LINE
  5
8922
330
18
100
AcDbEntity
  8
0
100
AcDbLine
 10
1233.131218999999
 20
-531.268761
 30
0.0
 11
1233.131218999999
 21
-978.2687609999999
 31
0.0
  0
LINE
  5
8923
330
18
100
AcDbEntity
  8
0
100
AcDbLine
 10
1233.931219
 20
-532.068761
 30
0.0
 11
1233.931219
 21
-978.2687609999999
 31
0.0
  0
LINE
  5
8924
330
18
100
AcDbEntity
  8
0
100
AcDbLine
 10
1233.931219
 20
-978.2687609999999
 30
0.0
 11
1233.131218999999
 21
-978.2687609999999
 31
0.0
  0
LINE
  5
8925
330
18
100
AcDbEntity
  8
0
100
AcDbLine
 10
1682.731219
 20
-978.2687609999999
 30
0.0
 11
1681.931219
 21
-978.2687609999999
 31
0.0
  0
LINE
  5
8926
330
18
100
AcDbEntity
  8
0
100
AcDbLine
 10
1682.731219
 20
-531.268761
 30
0.0
 11
1233.131218999999
 21
-531.268761
 31
0.0
  0
LINE
  5
8927
330
18
100
AcDbEntity
  8
0
100
AcDbLine
 10
1681.931219
 20
-532.068761
 30
0.0
 11
1233.931219
 21
-532.068761
 31
0.0
  0
LINE
  5
8928
330
18
100
AcDbEntity
  8
0
100
AcDbLine
 10
912.8800769999999
 20
-531.268761
 30
0.0
 11
912.8800769999999
 21
-978.2687609999999
 31
0.0
  0
LINE
  5
892B
330
18
100
AcDbEntity
  8
0
100
AcDbLine
 10
315.880077
 20
-531.268761
 30
0.0
 11
315.880077
 21
-978.2687609999999
 31
0.0
  0
LINE
  5
892C
330
18
100
AcDbEntity
  8
0
100
AcDbLine
 10
315.880077
 20
-978.2687609999999
 30
0.0
 11
607.7394820000002
 21
-978.2687609999999
 31
0.0
  0
LINE
  5
8934
330
18
100
AcDbEntity
  8
0
100
AcDbLine
 10
315.880077
 20
-531.268761
 30
0.0
 11
912.8800769999999
 21
-531.268761
 31
0.0
  0
LINE
  5
893D
330
18
100
AcDbEntity
  8
0
100
AcDbLine
 10
315.880077
 20
203.1540679999999
 30
0.0
 11
912.8800769999999
 21
203.1540679999999
 31
0.0
  0
LINE
  5
893E
330
18
100
AcDbEntity
  8
0
100
AcDbLine
 10
315.880077
 20
202.3540679999999
 30
0.0
 11
912.8800769999999
 21
202.3540679999999
 31
0.0
  0
LINE
  5
893F
330
18
100
AcDbEntity
  8
0
100
AcDbLine
 10
315.880077
 20
-246.4459319999999
 30
0.0
 11
912.8800769999999
 21
-246.4459319999999
 31
0.0
  0
LINE
  5
8940
330
18
100
AcDbEntity
  8
0
100
AcDbLine
 10
912.8800769999999
 20
-245.645932
 30
0.0
 11
315.880077
 21
-245.645932
 31
0.0
  0
LINE
  5
8941
330
18
100
AcDbEntity
  8
0
100
AcDbLine
 10
315.880077
 20
-246.4459319999999
 30
0.0
 11
315.880077
 21
203.1540679999999
 31
0.0
  0
LINE
  5
8942
330
18
100
AcDbEntity
  8
0
100
AcDbLine
 10
912.8800769999999
 20
-246.4459319999999
 30
0.0
 11
912.8800769999999
 21
203.1540679999999
 31
0.0
  0
LINE
  5
8943
330
18
100
AcDbEntity
  8
0
100
AcDbLine
 10
315.880077
 20
-245.145932
 30
0.0
 11
314.380077
 21
-245.145932
 31
0.0
  0
LINE
  5
8944
330
18
100
AcDbEntity
  8
0
100
AcDbLine
 10
315.880077
 20
201.854068
 30
0.0
 11
314.380077
 21
201.854068
 31
0.0
  0
LINE
  5
8948
330
18
100
AcDbEntity
  8
0
100
AcDbLine
 10
964.3800769999996
 20
151.8540679999999
 30
0.0
 11
914.3800769999996
 21
151.8540679999999
 31
0.0
  0
LINE
  5
8949
330
18
100
AcDbEntity
  8
0
100
AcDbLine
 10
937.380077
 20
182.8540679999999
 30
0.0
 11
941.3800769999999
 21
182.8540679999999
 31
0.0
  0
LINE
  5
894A
330
18
100
AcDbEntity
  8
0
100
AcDbLine
 10
964.3800769999996
 20
201.854068
 30
0.0
 11
914.3800769999996
 21
201.854068
 31
0.0
  0
LINE
  5
894B
330
18
100
AcDbEntity
  8
0
100
AcDbLine
 10
941.3800769999999
 20
170.8540679999998
 30
0.0
 11
937.380077
 21
170.8540679999998
 31
0.0
  0
ARC
  5
894D
330
18
100
AcDbEntity
  8
0
100
AcDbCircle
 10
941.3800769999999
 20
176.8540679999999
 30
0.0
 40
6.0
100
AcDbArc
 50
270.0
 51
90.0
  0
ARC
  5
894F
330
18
100
AcDbEntity
  8
0
100
AcDbCircle
 10
937.380077
 20
176.8540679999999
 30
0.0
 40
6.0
100
AcDbArc
 50
90.0
 51
270.0
  0
LINE
  5
8950
330
18
100
AcDbEntity
  8
0
100
AcDbLine
 10
964.3800769999996
 20
151.8540679999999
 30
0.0
 11
964.3800769999996
 21
201.854068
 31
0.0
  0
LINE
  5
8952
330
18
100
AcDbEntity
  8
0
100
AcDbLine
 10
264.380077
 20
201.854068
 30
0.0
 11
314.380077
 21
201.854068
 31
0.0
  0
LINE
  5
8953
330
18
100
AcDbEntity
  8
0
100
AcDbLine
 10
264.380077
 20
151.8540679999999
 30
0.0
 11
314.380077
 21
151.8540679999999
 31
0.0
  0
LINE
  5
8954
330
18
100
AcDbEntity
  8
0
100
AcDbLine
 10
264.380077
 20
151.8540679999999
 30
0.0
 11
264.380077
 21
201.854068
 31
0.0
  0
ARC
  5
8955
330
18
100
AcDbEntity
  8
0
100
AcDbCircle
 10
291.380077
 20
176.8540679999999
 30
0.0
 40
6.0
100
AcDbArc
 50
270.0
 51
90.0
  0
ARC
  5
8957
330
18
100
AcDbEntity
  8
0
100
AcDbCircle
 10
287.380077
 20
176.8540679999999
 30
0.0
 40
6.0
100
AcDbArc
 50
90.0
 51
270.0
  0
LINE
  5
8958
330
18
100
AcDbEntity
  8
0
100
AcDbLine
 10
287.380077
 20
170.8540679999998
 30
0.0
 11
291.380077
 21
170.8540679999998
 31
0.0
  0
LINE
  5
8959
330
18
100
AcDbEntity
  8
0
100
AcDbLine
 10
291.380077
 20
182.8540679999999
 30
0.0
 11
287.380077
 21
182.8540679999999
 31
0.0
  0
LINE
  5
895B
330
18
100
AcDbEntity
  8
0
100
AcDbLine
 10
964.3800769999996
 20
-245.145932
 30
0.0
 11
914.3800769999996
 21
-245.145932
 31
0.0
  0
LINE
  5
895C
330
18
100
AcDbEntity
  8
0
100
AcDbLine
 10
964.3800769999996
 20
-195.145932
 30
0.0
 11
914.3800769999996
 21
-195.145932
 31
0.0
  0
LINE
  5
895D
330
18
100
AcDbEntity
  8
0
100
AcDbLine
 10
964.3800769999996
 20
-195.145932
 30
0.0
 11
964.3800769999996
 21
-245.145932
 31
0.0
  0
ARC
  5
895E
330
18
100
AcDbEntity
  8
0
100
AcDbCircle
 10
937.380077
 20
-220.145932
 30
0.0
 40
6.0
100
AcDbArc
 50
90.0
 51
270.0
  0
ARC
  5
8960
330
18
100
AcDbEntity
  8
0
100
AcDbCircle
 10
941.3800769999999
 20
-220.145932
 30
0.0
 40
6.0
100
AcDbArc
 50
270.0
 51
90.0
  0
LINE
  5
8961
330
18
100
AcDbEntity
  8
0
100
AcDbLine
 10
941.3800769999999
 20
-214.145932
 30
0.0
 11
937.380077
 21
-214.145932
 31
0.0
  0
LINE
  5
8962
330
18
100
AcDbEntity
  8
0
100
AcDbLine
 10
937.380077
 20
-226.1459319999999
 30
0.0
 11
941.3800769999999
 21
-226.1459319999999
 31
0.0
  0
LINE
  5
8963
330
18
100
AcDbEntity
  8
0
100
AcDbLine
 10
264.380077
 20
-195.145932
 30
0.0
 11
314.380077
 21
-195.145932
 31
0.0
  0
LINE
  5
8964
330
18
100
AcDbEntity
  8
0
100
AcDbLine
 10
264.380077
 20
-245.145932
 30
0.0
 11
314.380077
 21
-245.145932
 31
0.0
  0
LINE
  5
8966
330
18
100
AcDbEntity
  8
0
100
AcDbLine
 10
264.380077
 20
-195.145932
 30
0.0
 11
264.380077
 21
-245.145932
 31
0.0
  0
ARC
  5
8967
330
18
100
AcDbEntity
  8
0
100
AcDbCircle
 10
287.380077
 20
-220.145932
 30
0.0
 40
6.0
100
AcDbArc
 50
90.0
 51
270.0
  0
ARC
  5
8969
330
18
100
AcDbEntity
  8
0
100
AcDbCircle
 10
291.380077
 20
-220.145932
 30
0.0
 40
6.0
100
AcDbArc
 50
270.0
 51
90.0
  0
LINE
  5
896A
330
18
100
AcDbEntity
  8
0
100
AcDbLine
 10
287.380077
 20
-214.145932
 30
0.0
 11
291.380077
 21
-214.145932
 31
0.0
  0
LINE
  5
896B
330
18
100
AcDbEntity
  8
0
100
AcDbLine
 10
291.380077
 20
-226.1459319999999
 30
0.0
 11
287.380077
 21
-226.1459319999999
 31
0.0
  0
CIRCLE
  5
896D
330
18
100
AcDbEntity
  8
0
100
AcDbCircle
 10
904.3800769999997
 20
-557.068761
 30
0.0
 40
4.75
  0
CIRCLE
  5
896F
330
18
100
AcDbEntity
  8
0
100
AcDbCircle
 10
904.3800769999997
 20
-557.068761
 30
0.0
 40
1.5
  0
LINE
  5
8970
330
18
100
AcDbEntity
  8
0
100
AcDbLine
 10
916.3800769999999
 20
-539.8187609999999
 30
0.0
 11
917.3800769999999
 21
-539.8187609999999
 31
0.0
  0
LINE
  5
8971
330
18
100
AcDbEntity
  8
0
100
AcDbLine
 10
964.3800769999996
 20
-534.0687609999998
 30
0.0
 11
964.3800769999996
 21
-532.068761
 31
0.0
  0
LINE
  5
8972
330
18
100
AcDbEntity
  8
0
100
AcDbLine
 10
914.3800769999996
 20
-532.068761
 30
0.0
 11
914.3800769999996
 21
-582.068761
 31
0.0
  0
LINE
  5
8973
330
18
100
AcDbEntity
  8
0
100
AcDbLine
 10
916.3800769999999
 20
-534.0687609999998
 30
0.0
 11
916.3800769999999
 21
-582.068761
 31
0.0
  0
LINE
  5
8974
330
18
100
AcDbEntity
  8
0
100
AcDbLine
 10
916.3800769999999
 20
-582.068761
 30
0.0
 11
914.3800769999996
 21
-582.068761
 31
0.0
  0
LINE
  5
8975
330
18
100
AcDbEntity
  8
0
100
AcDbLine
 10
914.3800769999996
 20
-532.068761
 30
0.0
 11
914.3800769999996
 21
-582.068761
 31
0.0
  0
LINE
  5
8976
330
18
100
AcDbEntity
  8
0
100
AcDbLine
 10
964.3800769999996
 20
-532.068761
 30
0.0
 11
914.3800769999996
 21
-532.068761
 31
0.0
  0
LINE
  5
8977
330
18
100
AcDbEntity
  8
0
100
AcDbLine
 10
964.3800769999996
 20
-534.0687609999998
 30
0.0
 11
916.3800769999999
 21
-534.0687609999998
 31
0.0
  0
ARC
  5
8978
330
18
100
AcDbEntity
  8
0
100
AcDbCircle
 10
895.067577
 20
-569.568761
 30
0.0
 40
22.8125
100
AcDbArc
 50
347.9819879999998
 51
12.018012
  0
LINE
  5
8979
330
18
100
AcDbEntity
  8
0
100
AcDbLine
 10
917.3800769999999
 20
-564.8187609999999
 30
0.0
 11
917.3800769999999
 21
-574.3187609999998
 31
0.0
  0
LINE
  5
897A
330
18
100
AcDbEntity
  8
0
100
AcDbLine
 10
916.3800769999999
 20
-564.8187609999999
 30
0.0
 11
916.3800769999999
 21
-574.3187609999998
 31
0.0
  0
LINE
  5
897B
330
18
100
AcDbEntity
  8
0
100
AcDbLine
 10
916.3800769999999
 20
-574.3187609999998
 30
0.0
 11
917.3800769999999
 21
-574.3187609999998
 31
0.0
  0
LINE
  5
897C
330
18
100
AcDbEntity
  8
0
100
AcDbLine
 10
916.3800769999999
 20
-564.8187609999999
 30
0.0
 11
917.3800769999999
 21
-564.8187609999999
 31
0.0
  0
LINE
  5
897E
330
18
100
AcDbEntity
  8
0
100
AcDbLine
 10
916.3800769999999
 20
-549.3187609999998
 30
0.0
 11
917.3800769999999
 21
-549.3187609999998
 31
0.0
  0
LINE
  5
897F
330
18
100
AcDbEntity
  8
0
100
AcDbLine
 10
916.3800769999999
 20
-539.8187609999999
 30
0.0
 11
916.3800769999999
 21
-549.3187609999998
 31
0.0
  0
LINE
  5
8980
330
18
100
AcDbEntity
  8
0
100
AcDbLine
 10
917.3800769999999
 20
-539.8187609999999
 30
0.0
 11
917.3800769999999
 21
-549.3187609999998
 31
0.0
  0
ARC
  5
8981
330
18
100
AcDbEntity
  8
0
100
AcDbCircle
 10
895.067577
 20
-544.568761
 30
0.0
 40
22.8125
100
AcDbArc
 50
347.9819879999998
 51
12.018012
  0
CIRCLE
  5
8984
330
18
100
AcDbEntity
  8
0
100
AcDbCircle
 10
324.380077
 20
-557.068761
 30
0.0
 40
4.75
  0
CIRCLE
  5
8986
330
18
100
AcDbEntity
  8
0
100
AcDbCircle
 10
324.380077
 20
-557.068761
 30
0.0
 40
1.5
  0
LINE
  5
8987
330
18
100
AcDbEntity
  8
0
100
AcDbLine
 10
312.380077
 20
-539.8187609999999
 30
0.0
 11
311.380077
 21
-539.8187609999999
 31
0.0
  0
LINE
  5
8988
330
18
100
AcDbEntity
  8
0
100
AcDbLine
 10
264.380077
 20
-534.0687609999998
 30
0.0
 11
264.380077
 21
-532.068761
 31
0.0
  0
LINE
  5
8989
330
18
100
AcDbEntity
  8
0
100
AcDbLine
 10
314.380077
 20
-532.068761
 30
0.0
 11
314.380077
 21
-582.068761
 31
0.0
  0
LINE
  5
898A
330
18
100
AcDbEntity
  8
0
100
AcDbLine
 10
312.380077
 20
-534.0687609999998
 30
0.0
 11
312.380077
 21
-582.068761
 31
0.0
  0
LINE
  5
898B
330
18
100
AcDbEntity
  8
0
100
AcDbLine
 10
312.380077
 20
-582.068761
 30
0.0
 11
314.380077
 21
-582.068761
 31
0.0
  0
LINE
  5
898C
330
18
100
AcDbEntity
  8
0
100
AcDbLine
 10
314.380077
 20
-532.068761
 30
0.0
 11
314.380077
 21
-582.068761
 31
0.0
  0
LINE
  5
898D
330
18
100
AcDbEntity
  8
0
100
AcDbLine
 10
264.380077
 20
-532.068761
 30
0.0
 11
314.380077
 21
-532.068761
 31
0.0
  0
LINE
  5
898E
330
18
100
AcDbEntity
  8
0
100
AcDbLine
 10
264.380077
 20
-534.0687609999998
 30
0.0
 11
312.380077
 21
-534.0687609999998
 31
0.0
  0
ARC
  5
898F
330
18
100
AcDbEntity
  8
0
100
AcDbCircle
 10
333.692577
 20
-569.568761
 30
0.0
 40
22.8125
100
AcDbArc
 50
167.981988
 51
192.0180119999999
  0
LINE
  5
8990
330
18
100
AcDbEntity
  8
0
100
AcDbLine
 10
311.380077
 20
-564.8187609999999
 30
0.0
 11
311.380077
 21
-574.3187609999998
 31
0.0
  0
LINE
  5
8991
330
18
100
AcDbEntity
  8
0
100
AcDbLine
 10
312.380077
 20
-564.8187609999999
 30
0.0
 11
312.380077
 21
-574.3187609999998
 31
0.0
  0
LINE
  5
8992
330
18
100
AcDbEntity
  8
0
100
AcDbLine
 10
312.380077
 20
-574.3187609999998
 30
0.0
 11
311.380077
 21
-574.3187609999998
 31
0.0
  0
LINE
  5
8993
330
18
100
AcDbEntity
  8
0
100
AcDbLine
 10
312.380077
 20
-564.8187609999999
 30
0.0
 11
311.380077
 21
-564.8187609999999
 31
0.0
  0
LINE
  5
8995
330
18
100
AcDbEntity
  8
0
100
AcDbLine
 10
312.380077
 20
-549.3187609999998
 30
0.0
 11
311.380077
 21
-549.3187609999998
 31
0.0
  0
LINE
  5
8996
330
18
100
AcDbEntity
  8
0
100
AcDbLine
 10
312.380077
 20
-539.8187609999999
 30
0.0
 11
312.380077
 21
-549.3187609999998
 31
0.0
  0
LINE
  5
8997
330
18
100
AcDbEntity
  8
0
100
AcDbLine
 10
311.380077
 20
-539.8187609999999
 30
0.0
 11
311.380077
 21
-549.3187609999998
 31
0.0
  0
ARC
  5
8998
330
18
100
AcDbEntity
  8
0
100
AcDbCircle
 10
333.692577
 20
-544.568761
 30
0.0
 40
22.8125
100
AcDbArc
 50
167.981988
 51
192.0180119999999
  0
LINE
  5
899A
330
18
100
AcDbEntity
  8
0
100
AcDbLine
 10
1234.431219
 20
-582.068761
 30
0.0
 11
1284.431219
 21
-582.068761
 31
0.0
  0
CIRCLE
  5
899D
330
18
100
AcDbEntity
  8
0
100
AcDbCircle
 10
1246.931219
 20
-544.568761
 30
0.0
 40
4.75
  0
CIRCLE
  5
899E
330
18
100
AcDbEntity
  8
0
100
AcDbCircle
 10
1246.931219
 20
-544.568761
 30
0.0
 40
1.5
  0
CIRCLE
  5
89A1
330
18
100
AcDbEntity
  8
0
100
AcDbCircle
 10
1259.431219
 20
-569.568761
 30
0.0
 40
4.75
  0
CIRCLE
  5
89A2
330
18
100
AcDbEntity
  8
0
100
AcDbCircle
 10
1259.431219
 20
-569.568761
 30
0.0
 40
1.5
  0
CIRCLE
  5
89A5
330
18
100
AcDbEntity
  8
0
100
AcDbCircle
 10
1271.931219
 20
-544.568761
 30
0.0
 40
4.75
  0
CIRCLE
  5
89A6
330
18
100
AcDbEntity
  8
0
100
AcDbCircle
 10
1271.931219
 20
-544.568761
 30
0.0
 40
1.5
  0
LINE
  5
89A7
330
18
100
AcDbEntity
  8
0
100
AcDbLine
 10
1284.431219
 20
-582.068761
 30
0.0
 11
1284.431219
 21
-532.068761
 31
0.0
  0
LINE
  5
89A8
330
18
100
AcDbEntity
  8
0
100
AcDbLine
 10
1284.431219
 20
-534.0687609999998
 30
0.0
 11
1234.431219
 21
-534.0687609999998
 31
0.0
  0
LINE
  5
89A9
330
18
100
AcDbEntity
  8
0
100
AcDbLine
 10
1284.431219
 20
-532.068761
 30
0.0
 11
1234.431219
 21
-532.068761
 31
0.0
  0
LINE
  5
89AA
330
18
100
AcDbEntity
  8
0
100
AcDbLine
 10
1234.431219
 20
-582.068761
 30
0.0
 11
1234.431219
 21
-532.068761
 31
0.0
  0
LINE
  5
89AB
330
18
100
AcDbEntity
  8
0
100
AcDbLine
 10
1681.431219
 20
-582.068761
 30
0.0
 11
1681.431219
 21
-532.068761
 31
0.0
  0
LINE
  5
89AC
330
18
100
AcDbEntity
  8
0
100
AcDbLine
 10
1631.431219
 20
-582.068761
 30
0.0
 11
1631.431219
 21
-532.068761
 31
0.0
  0
LINE
  5
89AD
330
18
100
AcDbEntity
  8
0
100
AcDbLine
 10
1681.431219
 20
-582.068761
 30
0.0
 11
1631.431219
 21
-582.068761
 31
0.0
  0
LINE
  5
89AE
330
18
100
AcDbEntity
  8
0
100
AcDbLine
 10
1631.431219
 20
-532.068761
 30
0.0
 11
1681.431219
 21
-532.068761
 31
0.0
  0
LINE
  5
89AF
330
18
100
AcDbEntity
  8
0
100
AcDbLine
 10
1631.431219
 20
-534.0687609999998
 30
0.0
 11
1681.431219
 21
-534.0687609999998
 31
0.0
  0
CIRCLE
  5
89B2
330
18
100
AcDbEntity
  8
0
100
AcDbCircle
 10
1656.431219
 20
-569.568761
 30
0.0
 40
1.5
  0
CIRCLE
  5
89B3
330
18
100
AcDbEntity
  8
0
100
AcDbCircle
 10
1656.431219
 20
-569.568761
 30
0.0
 40
4.75
  0
CIRCLE
  5
89B6
330
18
100
AcDbEntity
  8
0
100
AcDbCircle
 10
1668.931219
 20
-544.568761
 30
0.0
 40
1.5
  0
CIRCLE
  5
89B7
330
18
100
AcDbEntity
  8
0
100
AcDbCircle
 10
1668.931219
 20
-544.568761
 30
0.0
 40
4.75
  0
CIRCLE
  5
89B9
330
18
100
AcDbEntity
  8
0
100
AcDbCircle
 10
1643.931219
 20
-544.568761
 30
0.0
 40
1.5
  0
CIRCLE
  5
89BA
330
18
100
AcDbEntity
  8
0
100
AcDbCircle
 10
1643.931219
 20
-544.568761
 30
0.0
 40
4.75
  0
CIRCLE
  5
89BD
330
18
100
AcDbEntity
  8
0
100
AcDbCircle
 10
324.380077
 20
-755.5687609999998
 30
0.0
 40
4.75
  0
CIRCLE
  5
89BF
330
18
100
AcDbEntity
  8
0
100
AcDbCircle
 10
324.380077
 20
-755.5687609999998
 30
0.0
 40
1.5
  0
CIRCLE
  5
89C1
330
18
100
AcDbEntity
  8
0
100
AcDbCircle
 10
324.380077
 20
-954.068761
 30
0.0
 40
4.75
  0
CIRCLE
  5
89C3
330
18
100
AcDbEntity
  8
0
100
AcDbCircle
 10
324.380077
 20
-954.068761
 30
0.0
 40
1.5
  0
CIRCLE
  5
89C5
330
18
100
AcDbEntity
  8
0
100
AcDbCircle
 10
339.380077
 20
-969.0687609999999
 30
0.0
 40
4.75
  0
CIRCLE
  5
89C7
330
18
100
AcDbEntity
  8
0
100
AcDbCircle
 10
339.380077
 20
-969.0687609999999
 30
0.0
 40
1.5
  0
CIRCLE
  5
89C9
330
18
100
AcDbEntity
  8
0
100
AcDbCircle
 10
469.380077
 20
-969.0687609999999
 30
0.0
 40
4.75
  0
CIRCLE
  5
89CB
330
18
100
AcDbEntity
  8
0
100
AcDbCircle
 10
469.380077
 20
-969.0687609999999
 30
0.0
 40
1.5
  0
CIRCLE
  5
89DD
330
18
100
AcDbEntity
  8
0
100
AcDbCircle
 10
759.3800769999997
 20
-969.0687609999999
 30
0.0
 40
4.75
  0
CIRCLE
  5
89DF
330
18
100
AcDbEntity
  8
0
100
AcDbCircle
 10
759.3800769999997
 20
-969.0687609999999
 30
0.0
 40
1.5
  0
CIRCLE
  5
89E1
330
18
100
AcDbEntity
  8
0
100
AcDbCircle
 10
889.3800769999996
 20
-969.0687609999999
 30
0.0
 40
4.75
  0
CIRCLE
  5
89E3
330
18
100
AcDbEntity
  8
0
100
AcDbCircle
 10
889.3800769999996
 20
-969.0687609999999
 30
0.0
 40
1.5
  0
CIRCLE
  5
89E5
330
18
100
AcDbEntity
  8
0
100
AcDbCircle
 10
904.3800769999997
 20
-954.068761
 30
0.0
 40
4.75
  0
CIRCLE
  5
89E7
330
18
100
AcDbEntity
  8
0
100
AcDbCircle
 10
904.3800769999997
 20
-954.068761
 30
0.0
 40
1.5
  0
CIRCLE
  5
89E9
330
18
100
AcDbEntity
  8
0
100
AcDbCircle
 10
904.3800769999997
 20
-755.5687609999998
 30
0.0
 40
4.75
  0
CIRCLE
  5
89EB
330
18
100
AcDbEntity
  8
0
100
AcDbCircle
 10
904.3800769999997
 20
-755.5687609999998
 30
0.0
 40
1.5
  0
CIRCLE
  5
89FD
330
18
100
AcDbEntity
  8
0
100
AcDbCircle
 10
329.380077
 20
-220.145932
 30
0.0
 40
1.5
  0
CIRCLE
  5
89FF
330
18
100
AcDbEntity
  8
0
100
AcDbCircle
 10
329.380077
 20
-220.145932
 30
0.0
 40
4.75
  0
CIRCLE
  5
8A01
330
18
100
AcDbEntity
  8
0
100
AcDbCircle
 10
329.380077
 20
-87.84593199999997
 30
0.0
 40
1.5
  0
CIRCLE
  5
8A03
330
18
100
AcDbEntity
  8
0
100
AcDbCircle
 10
329.380077
 20
-87.84593199999997
 30
0.0
 40
4.75
  0
CIRCLE
  5
8A05
330
18
100
AcDbEntity
  8
0
100
AcDbCircle
 10
329.380077
 20
44.554068
 30
0.0
 40
1.5
  0
CIRCLE
  5
8A07
330
18
100
AcDbEntity
  8
0
100
AcDbCircle
 10
329.380077
 20
44.554068
 30
0.0
 40
4.75
  0
CIRCLE
  5
8A09
330
18
100
AcDbEntity
  8
0
100
AcDbCircle
 10
329.380077
 20
176.8540679999999
 30
0.0
 40
1.5
  0
CIRCLE
  5
8A0B
330
18
100
AcDbEntity
  8
0
100
AcDbCircle
 10
329.380077
 20
176.8540679999999
 30
0.0
 40
4.75
  0
CIRCLE
  5
8A0D
330
18
100
AcDbEntity
  8
0
100
AcDbCircle
 10
588.8800769999997
 20
176.8540679999999
 30
0.0
 40
1.5
  0
CIRCLE
  5
8A0F
330
18
100
AcDbEntity
  8
0
100
AcDbCircle
 10
588.8800769999997
 20
176.8540679999999
 30
0.0
 40
4.75
  0
CIRCLE
  5
8A11
330
18
100
AcDbEntity
  8
0
100
AcDbCircle
 10
639.8800769999998
 20
176.8540679999999
 30
0.0
 40
1.5
  0
CIRCLE
  5
8A13
330
18
100
AcDbEntity
  8
0
100
AcDbCircle
 10
639.8800769999998
 20
176.8540679999999
 30
0.0
 40
4.75
  0
CIRCLE
  5
8A15
330
18
100
AcDbEntity
  8
0
100
AcDbCircle
 10
639.8800769999998
 20
-21.645932
 30
0.0
 40
1.5
  0
CIRCLE
  5
8A17
330
18
100
AcDbEntity
  8
0
100
AcDbCircle
 10
639.8800769999998
 20
-21.645932
 30
0.0
 40
4.75
  0
CIRCLE
  5
8A19
330
18
100
AcDbEntity
  8
0
100
AcDbCircle
 10
588.8800769999997
 20
-21.645932
 30
0.0
 40
1.5
  0
CIRCLE
  5
8A1B
330
18
100
AcDbEntity
  8
0
100
AcDbCircle
 10
588.8800769999997
 20
-21.645932
 30
0.0
 40
4.75
  0
CIRCLE
  5
8A1D
330
18
100
AcDbEntity
  8
0
100
AcDbCircle
 10
588.8800769999997
 20
-220.145932
 30
0.0
 40
1.5
  0
CIRCLE
  5
8A1F
330
18
100
AcDbEntity
  8
0
100
AcDbCircle
 10
588.8800769999997
 20
-220.145932
 30
0.0
 40
4.75
  0
CIRCLE
  5
8A21
330
18
100
AcDbEntity
  8
0
100
AcDbCircle
 10
639.8800769999998
 20
-220.145932
 30
0.0
 40
1.5
  0
CIRCLE
  5
8A23
330
18
100
AcDbEntity
  8
0
100
AcDbCircle
 10
639.8800769999998
 20
-220.145932
 30
0.0
 40
4.75
  0
CIRCLE
  5
8A25
330
18
100
AcDbEntity
  8
0
100
AcDbCircle
 10
899.3800769999998
 20
-220.145932
 30
0.0
 40
1.5
  0
CIRCLE
  5
8A27
330
18
100
AcDbEntity
  8
0
100
AcDbCircle
 10
899.3800769999998
 20
-220.145932
 30
0.0
 40
4.75
  0
CIRCLE
  5
8A29
330
18
100
AcDbEntity
  8
0
100
AcDbCircle
 10
899.3800769999998
 20
-87.84593199999997
 30
0.0
 40
1.5
  0
CIRCLE
  5
8A2B
330
18
100
AcDbEntity
  8
0
100
AcDbCircle
 10
899.3800769999998
 20
-87.84593199999997
 30
0.0
 40
4.75
  0
CIRCLE
  5
8A2D
330
18
100
AcDbEntity
  8
0
100
AcDbCircle
 10
899.3800769999998
 20
44.554068
 30
0.0
 40
1.5
  0
CIRCLE
  5
8A2F
330
18
100
AcDbEntity
  8
0
100
AcDbCircle
 10
899.3800769999998
 20
44.554068
 30
0.0
 40
4.75
  0
CIRCLE
  5
8A31
330
18
100
AcDbEntity
  8
0
100
AcDbCircle
 10
899.3800769999998
 20
176.8540679999999
 30
0.0
 40
1.5
  0
CIRCLE
  5
8A33
330
18
100
AcDbEntity
  8
0
100
AcDbCircle
 10
899.3800769999998
 20
176.8540679999999
 30
0.0
 40
4.75
  0
LINE
  5
8B9F
330
18
100
AcDbEntity
  8
0
100
AcDbLine
 10
-803.971066
 20
-531.268761
 30
0.0
 11
-354.371066
 21
-531.268761
 31
0.0
  0
LINE
  5
8BA0
330
18
100
AcDbEntity
  8
0
100
AcDbLine
 10
-803.1710659999998
 20
-532.068761
 30
0.0
 11
-355.1710659999998
 21
-532.068761
 31
0.0
  0
LINE
  5
8BA1
330
18
100
AcDbEntity
  8
0
100
AcDbLine
 10
-355.671066
 20
-532.068761
 30
0.0
 11
-802.671066
 21
-532.068761
 31
0.0
  0
LINE
  5
8BA3
330
18
100
AcDbEntity
  8
0
100
AcDbLine
 10
-355.671066
 20
-979.068761
 30
0.0
 11
-802.671066
 21
-979.068761
 31
0.0
  0
LINE
  5
8BA4
330
18
100
AcDbEntity
  8
0
100
AcDbLine
 10
-354.371066
 20
-531.268761
 30
0.0
 11
-354.371066
 21
-978.2687609999999
 31
0.0
  0
LINE
  5
8BA5
330
18
100
AcDbEntity
  8
0
100
AcDbLine
 10
-355.1710659999998
 20
-532.068761
 30
0.0
 11
-355.1710659999998
 21
-978.2687609999999
 31
0.0
  0
LINE
  5
8BA6
330
18
100
AcDbEntity
  8
0
100
AcDbLine
 10
-355.671066
 20
-979.068761
 30
0.0
 11
-355.671066
 21
-532.068761
 31
0.0
  0
LINE
  5
8BA7
330
18
100
AcDbEntity
  8
0
100
AcDbLine
 10
-355.1710659999998
 20
-978.2687609999999
 30
0.0
 11
-354.371066
 21
-978.2687609999999
 31
0.0
  0
LINE
  5
8BA9
330
18
100
AcDbEntity
  8
0
100
AcDbLine
 10
-405.671066
 20
-582.068761
 30
0.0
 11
-405.671066
 21
-532.068761
 31
0.0
  0
LINE
  5
8BAA
330
18
100
AcDbEntity
  8
0
100
AcDbLine
 10
-355.671066
 20
-582.068761
 30
0.0
 11
-355.671066
 21
-532.068761
 31
0.0
  0
LINE
  5
8BAB
330
18
100
AcDbEntity
  8
0
100
AcDbLine
 10
-355.671066
 20
-582.068761
 30
0.0
 11
-405.671066
 21
-582.068761
 31
0.0
  0
CIRCLE
  5
8BAC
330
18
100
AcDbEntity
  8
0
100
AcDbCircle
 10
-368.171066
 20
-544.568761
 30
0.0
 40
4.75
  0
CIRCLE
  5
8BAD
330
18
100
AcDbEntity
  8
0
100
AcDbCircle
 10
-368.171066
 20
-544.568761
 30
0.0
 40
1.5
  0
LINE
  5
8BAF
330
18
100
AcDbEntity
  8
0
100
AcDbLine
 10
-405.671066
 20
-534.0687609999998
 30
0.0
 11
-355.671066
 21
-534.0687609999998
 31
0.0
  0
LINE
  5
8BB0
330
18
100
AcDbEntity
  8
0
100
AcDbLine
 10
-405.671066
 20
-532.068761
 30
0.0
 11
-355.671066
 21
-532.068761
 31
0.0
  0
CIRCLE
  5
8BB3
330
18
100
AcDbEntity
  8
0
100
AcDbCircle
 10
-393.171066
 20
-544.568761
 30
0.0
 40
4.75
  0
CIRCLE
  5
8BB4
330
18
100
AcDbEntity
  8
0
100
AcDbCircle
 10
-393.171066
 20
-544.568761
 30
0.0
 40
1.5
  0
CIRCLE
  5
8BB5
330
18
100
AcDbEntity
  8
0
100
AcDbCircle
 10
-380.671066
 20
-569.568761
 30
0.0
 40
4.75
  0
CIRCLE
  5
8BB6
330
18
100
AcDbEntity
  8
0
100
AcDbCircle
 10
-380.671066
 20
-569.568761
 30
0.0
 40
1.5
  0
LINE
  5
8BB9
330
18
100
AcDbEntity
  8
0
100
AcDbLine
 10
-803.971066
 20
-531.268761
 30
0.0
 11
-803.971066
 21
-978.2687609999999
 31
0.0
  0
LINE
  5
8BBA
330
18
100
AcDbEntity
  8
0
100
AcDbLine
 10
-803.1710659999998
 20
-532.068761
 30
0.0
 11
-803.1710659999998
 21
-978.2687609999999
 31
0.0
  0
CIRCLE
  5
8BBB
330
18
100
AcDbEntity
  8
0
100
AcDbCircle
 10
-579.1710659999998
 20
-755.5687609999998
 30
0.0
 40
100.0
  0
CIRCLE
  5
8BBC
330
18
100
AcDbEntity
  8
0
100
AcDbCircle
 10
-579.1710659999998
 20
-755.5687609999998
 30
0.0
 40
74.0
  0
CIRCLE
  5
8BBD
330
18
100
AcDbEntity
  8
0
100
AcDbCircle
 10
-579.1710659999998
 20
-755.5687609999998
 30
0.0
 40
73.5
  0
CIRCLE
  5
8BBE
330
18
100
AcDbEntity
  8
0
100
AcDbCircle
 10
-579.1710659999998
 20
-755.5687609999998
 30
0.0
 40
73.0
  0
CIRCLE
  5
8BBF
330
18
100
AcDbEntity
  8
0
100
AcDbCircle
 10
-579.1710659999998
 20
-755.5687609999998
 30
0.0
 40
72.5
  0
CIRCLE
  5
8BC0
330
18
100
AcDbEntity
  8
0
100
AcDbCircle
 10
-579.1710659999998
 20
-755.5687609999998
 30
0.0
 40
75.0
  0
LINE
  5
8BC2
330
18
100
AcDbEntity
  8
0
100
AcDbLine
 10
-802.671066
 20
-979.068761
 30
0.0
 11
-802.671066
 21
-532.068761
 31
0.0
  0
LINE
  5
8BC4
330
18
100
AcDbEntity
  8
0
100
AcDbLine
 10
-803.971066
 20
-978.2687609999999
 30
0.0
 11
-803.1710659999998
 21
-978.2687609999999
 31
0.0
  0
LINE
  5
8BC7
330
18
100
AcDbEntity
  8
0
100
AcDbLine
 10
-752.6710659999999
 20
-534.0687609999998
 30
0.0
 11
-802.671066
 21
-534.0687609999998
 31
0.0
  0
LINE
  5
8BC8
330
18
100
AcDbEntity
  8
0
100
AcDbLine
 10
-752.6710659999999
 20
-532.068761
 30
0.0
 11
-802.671066
 21
-532.068761
 31
0.0
  0
LINE
  5
8BC9
330
18
100
AcDbEntity
  8
0
100
AcDbLine
 10
-802.671066
 20
-582.068761
 30
0.0
 11
-752.6710659999999
 21
-582.068761
 31
0.0
  0
LINE
  5
8BCA
330
18
100
AcDbEntity
  8
0
100
AcDbLine
 10
-752.6710659999999
 20
-582.068761
 30
0.0
 11
-752.6710659999999
 21
-532.068761
 31
0.0
  0
CIRCLE
  5
8BCF
330
18
100
AcDbEntity
  8
0
100
AcDbCircle
 10
-765.1710659999999
 20
-544.568761
 30
0.0
 40
4.75
  0
CIRCLE
  5
8BD0
330
18
100
AcDbEntity
  8
0
100
AcDbCircle
 10
-765.1710659999999
 20
-544.568761
 30
0.0
 40
1.5
  0
LINE
  5
8BD2
330
18
100
AcDbEntity
  8
0
100
AcDbLine
 10
-802.671066
 20
-582.068761
 30
0.0
 11
-802.671066
 21
-532.068761
 31
0.0
  0
CIRCLE
  5
8BD4
330
18
100
AcDbEntity
  8
0
100
AcDbCircle
 10
-790.1710659999999
 20
-544.568761
 30
0.0
 40
4.75
  0
CIRCLE
  5
8BD5
330
18
100
AcDbEntity
  8
0
100
AcDbCircle
 10
-790.1710659999999
 20
-544.568761
 30
0.0
 40
1.5
  0
CIRCLE
  5
8BD7
330
18
100
AcDbEntity
  8
0
100
AcDbCircle
 10
-777.6710659999999
 20
-569.568761
 30
0.0
 40
4.75
  0
CIRCLE
  5
8BD8
330
18
100
AcDbEntity
  8
0
100
AcDbCircle
 10
-777.6710659999999
 20
-569.568761
 30
0.0
 40
1.5
  0
ELLIPSE
  5
8BE1
330
18
100
AcDbEntity
  8
0
100
AcDbEllipse
 10
-208.6210659999999
 20
-952.018756
 30
0.0
 11
-0.75
 21
0.000000000000034
 31
0.0
210
0.0
220
0.0
230
1.0
 40
0.666667
 41
1.570796326794925
 42
3.141592653589875
  0
ELLIPSE
  5
8BE2
330
18
100
AcDbEntity
  8
0
100
AcDbEllipse
 10
-208.6210659999999
 20
-952.018756
 30
0.0
 11
-0.75
 21
0.000000000000034
 31
0.0
210
0.0
220
0.0
230
1.0
 40
0.666667
 41
1.570796326794925
 42
3.141592653589875
  0
ELLIPSE
  5
8BE3
330
18
100
AcDbEntity
  8
0
100
AcDbEllipse
 10
-342.121066
 20
-944.518756
 30
0.0
 11
-0.75
 21
0.000000000000034
 31
0.0
210
0.0
220
0.0
230
1.0
 40
0.666667
 41
0.0000000000000679
 42
1.570796326794925
  0
ELLIPSE
  5
8BE4
330
18
100
AcDbEntity
  8
0
100
AcDbEllipse
 10
-342.121066
 20
-944.518756
 30
0.0
 11
-0.75
 21
0.000000000000034
 31
0.0
210
0.0
220
0.0
230
1.0
 40
0.666667
 41
0.0000000000000679
 42
1.570796326794925
  0
ELLIPSE
  5
8BE5
330
18
100
AcDbEntity
  8
0
100
AcDbEllipse
 10
-342.121066
 20
-936.968756
 30
0.0
 11
-0.75
 21
0.000000000000034
 31
0.0
210
0.0
220
0.0
230
1.0
 40
0.666667
 41
-1.570796326794865
 42
0.0000000000000679
  0
ELLIPSE
  5
8BE6
330
18
100
AcDbEntity
  8
0
100
AcDbEllipse
 10
-342.121066
 20
-936.968756
 30
0.0
 11
-0.75
 21
0.000000000000034
 31
0.0
210
0.0
220
0.0
230
1.0
 40
0.666667
 41
-1.570796326794865
 42
0.0000000000000679
  0
ELLIPSE
  5
8BEF
330
18
100
AcDbEntity
  8
0
100
AcDbEllipse
 10
-208.6210659999999
 20
-560.6187559999998
 30
0.0
 11
-0.75
 21
-0.000000000000034
 31
0.0
210
0.0
220
0.0
230
-1.0
 40
0.666667
 41
1.570796326794925
 42
3.141592653589875
  0
ELLIPSE
  5
8BF0
330
18
100
AcDbEntity
  8
0
100
AcDbEllipse
 10
-208.6210659999999
 20
-560.6187559999998
 30
0.0
 11
-0.75
 21
-0.000000000000034
 31
0.0
210
0.0
220
0.0
230
-1.0
 40
0.666667
 41
1.570796326794925
 42
3.141592653589875
  0
ELLIPSE
  5
8BF1
330
18
100
AcDbEntity
  8
0
100
AcDbEllipse
 10
-342.121066
 20
-568.1187559999998
 30
0.0
 11
-0.75
 21
-0.000000000000034
 31
0.0
210
0.0
220
0.0
230
-1.0
 40
0.666667
 41
0.0000000000000679
 42
1.570796326794925
  0
ELLIPSE
  5
8BF2
330
18
100
AcDbEntity
  8
0
100
AcDbEllipse
 10
-342.121066
 20
-568.1187559999998
 30
0.0
 11
-0.75
 21
-0.000000000000034
 31
0.0
210
0.0
220
0.0
230
-1.0
 40
0.666667
 41
0.0000000000000679
 42
1.570796326794925
  0
ELLIPSE
  5
8BF3
330
18
100
AcDbEntity
  8
0
100
AcDbEllipse
 10
-342.121066
 20
-575.6687559999997
 30
0.0
 11
-0.75
 21
-0.000000000000034
 31
0.0
210
0.0
220
0.0
230
-1.0
 40
0.666667
 41
-1.570796326794865
 42
0.0000000000000679
  0
ELLIPSE
  5
8BF4
330
18
100
AcDbEntity
  8
0
100
AcDbEllipse
 10
-342.121066
 20
-575.6687559999997
 30
0.0
 11
-0.75
 21
-0.000000000000034
 31
0.0
210
0.0
220
0.0
230
-1.0
 40
0.666667
 41
-1.570796326794865
 42
0.0000000000000679
  0
LINE
  5
8C07
330
18
100
AcDbEntity
  8
0
100
AcDbLine
 10
68.428934
 20
-586.4187559999997
 30
0.0
 11
-342.871066
 21
-586.4187559999997
 31
0.0
  0
LINE
  5
8C09
330
18
100
AcDbEntity
  8
0
100
AcDbLine
 10
68.428934
 20
-576.4187559999998
 30
0.0
 11
-352.871066
 21
-576.4187559999998
 31
0.0
  0
LINE
  5
8C0B
330
18
100
AcDbEntity
  8
0
100
AcDbLine
 10
-342.871066
 20
-574.6487559999998
 30
0.0
 11
55.108934
 21
-574.6487559999998
 31
0.0
  0
LINE
  5
8C0C
330
18
100
AcDbEntity
  8
0
100
AcDbLine
 10
-342.121066
 20
-567.6187559999998
 30
0.0
 11
56.62893399999999
 21
-567.6187559999998
 31
0.0
  0
LINE
  5
8C0D
330
18
100
AcDbEntity
  8
0
100
AcDbLine
 10
-342.121066
 20
-576.1687559999997
 30
0.0
 11
55.628934
 21
-576.1687559999997
 31
0.0
  0
LINE
  5
8C10
330
18
100
AcDbEntity
  8
0
100
AcDbLine
 10
68.428934
 20
-926.218756
 30
0.0
 11
-342.871066
 21
-926.218756
 31
0.0
  0
LINE
  5
8C12
330
18
100
AcDbEntity
  8
0
100
AcDbLine
 10
68.428934
 20
-936.218756
 30
0.0
 11
-352.871066
 21
-936.218756
 31
0.0
  0
LINE
  5
8C14
330
18
100
AcDbEntity
  8
0
100
AcDbLine
 10
-342.871066
 20
-937.988756
 30
0.0
 11
55.108934
 21
-937.988756
 31
0.0
  0
LINE
  5
8C15
330
18
100
AcDbEntity
  8
0
100
AcDbLine
 10
-342.121066
 20
-945.0187560000001
 30
0.0
 11
56.62893399999999
 21
-945.0187560000001
 31
0.0
  0
LINE
  5
8C16
330
18
100
AcDbEntity
  8
0
100
AcDbLine
 10
-342.121066
 20
-936.468756
 30
0.0
 11
55.628934
 21
-936.468756
 31
0.0
  0
LINE
  5
8C1A
330
18
100
AcDbEntity
  8
0
100
AcDbLine
 10
-342.871066
 20
-926.218756
 30
0.0
 11
-342.871066
 21
-586.4187559999997
 31
0.0
  0
LINE
  5
8C1C
330
18
100
AcDbEntity
  8
0
100
AcDbLine
 10
-342.871066
 20
-926.218756
 30
0.0
 11
-352.871066
 21
-936.218756
 31
0.0
  0
LINE
  5
8C1E
330
18
100
AcDbEntity
  8
0
100
AcDbLine
 10
-354.371066
 20
-952.518756
 30
0.0
 11
-208.6210659999999
 21
-952.518756
 31
0.0
  0
LINE
  5
8C1F
330
18
100
AcDbEntity
  8
0
100
AcDbLine
 10
-354.371066
 20
-947.0187560000001
 30
0.0
 11
-207.871066
 21
-947.0187560000001
 31
0.0
  0
LINE
  5
8C20
330
18
100
AcDbEntity
  8
0
100
AcDbLine
 10
-354.371066
 20
-946.0187560000001
 30
0.0
 11
-207.871066
 21
-946.0187560000001
 31
0.0
  0
LINE
  5
8C21
330
18
100
AcDbEntity
  8
0
100
AcDbLine
 10
-354.371066
 20
-939.518756
 30
0.0
 11
-342.871066
 21
-939.518756
 31
0.0
  0
LINE
  5
8C22
330
18
100
AcDbEntity
  8
0
100
AcDbLine
 10
-354.371066
 20
-945.0187560000001
 30
0.0
 11
-342.121066
 21
-945.0187560000001
 31
0.0
  0
LINE
  5
8C24
330
18
100
AcDbEntity
  8
0
100
AcDbLine
 10
-342.871066
 20
-936.968756
 30
0.0
 11
-342.871066
 21
-944.518756
 31
0.0
  0
LINE
  5
8C25
330
18
100
AcDbEntity
  8
0
100
AcDbLine
 10
-342.871066
 20
-944.518756
 30
0.0
 11
-342.871066
 21
-936.968756
 31
0.0
  0
LINE
  5
8C26
330
18
100
AcDbEntity
  8
0
100
AcDbLine
 10
-342.871066
 20
-936.968756
 30
0.0
 11
-342.871066
 21
-944.518756
 31
0.0
  0
LINE
  5
8C27
330
18
100
AcDbEntity
  8
0
100
AcDbLine
 10
-342.871066
 20
-944.518756
 30
0.0
 11
-342.871066
 21
-936.968756
 31
0.0
  0
LINE
  5
8C62
330
18
100
AcDbEntity
  8
0
100
AcDbLine
 10
-212.3710659999999
 20
-946.0187560000001
 30
0.0
 11
-212.3710659999999
 21
-945.0187560000001
 31
0.0
  0
LINE
  5
8C63
330
18
100
AcDbEntity
  8
0
100
AcDbLine
 10
-212.3710659999999
 20
-946.0187560000001
 30
0.0
 11
-212.3710659999999
 21
-945.0187560000001
 31
0.0
  0
LINE
  5
8C64
330
18
100
AcDbEntity
  8
0
100
AcDbLine
 10
-207.871066
 20
-952.018756
 30
0.0
 11
-207.871066
 21
-946.0187560000001
 31
0.0
  0
LINE
  5
8C65
330
18
100
AcDbEntity
  8
0
100
AcDbLine
 10
-207.871066
 20
-952.018756
 30
0.0
 11
-207.871066
 21
-946.0187560000001
 31
0.0
  0
LINE
  5
8C6C
330
18
100
AcDbEntity
  8
0
100
AcDbLine
 10
-342.871066
 20
-586.4187559999997
 30
0.0
 11
-352.871066
 21
-576.4187559999998
 31
0.0
  0
LINE
  5
8C6E
330
18
100
AcDbEntity
  8
0
100
AcDbLine
 10
-354.371066
 20
-560.1187559999998
 30
0.0
 11
-208.6210659999999
 21
-560.1187559999998
 31
0.0
  0
LINE
  5
8C6F
330
18
100
AcDbEntity
  8
0
100
AcDbLine
 10
-354.371066
 20
-565.6187559999998
 30
0.0
 11
-207.871066
 21
-565.6187559999998
 31
0.0
  0
LINE
  5
8C70
330
18
100
AcDbEntity
  8
0
100
AcDbLine
 10
-354.371066
 20
-566.618756
 30
0.0
 11
-207.871066
 21
-566.618756
 31
0.0
  0
LINE
  5
8C71
330
18
100
AcDbEntity
  8
0
100
AcDbLine
 10
-354.371066
 20
-573.1187559999998
 30
0.0
 11
-342.871066
 21
-573.1187559999998
 31
0.0
  0
LINE
  5
8C72
330
18
100
AcDbEntity
  8
0
100
AcDbLine
 10
-354.371066
 20
-567.6187559999998
 30
0.0
 11
-342.121066
 21
-567.6187559999998
 31
0.0
  0
LINE
  5
8C9B
330
18
100
AcDbEntity
  8
0
100
AcDbLine
 10
-342.871066
 20
-575.6687559999997
 30
0.0
 11
-342.871066
 21
-568.1187559999998
 31
0.0
  0
LINE
  5
8C9C
330
18
100
AcDbEntity
  8
0
100
AcDbLine
 10
-342.871066
 20
-568.1187559999998
 30
0.0
 11
-342.871066
 21
-575.6687559999997
 31
0.0
  0
LINE
  5
8C9D
330
18
100
AcDbEntity
  8
0
100
AcDbLine
 10
-342.871066
 20
-575.6687559999997
 30
0.0
 11
-342.871066
 21
-568.1187559999998
 31
0.0
  0
LINE
  5
8C9E
330
18
100
AcDbEntity
  8
0
100
AcDbLine
 10
-342.871066
 20
-568.1187559999998
 30
0.0
 11
-342.871066
 21
-575.6687559999997
 31
0.0
  0
LINE
  5
8CAE
330
18
100
AcDbEntity
  8
0
100
AcDbLine
 10
-207.871066
 20
-560.6187559999998
 30
0.0
 11
-207.871066
 21
-566.618756
 31
0.0
  0
LINE
  5
8CAF
330
18
100
AcDbEntity
  8
0
100
AcDbLine
 10
-207.871066
 20
-560.6187559999998
 30
0.0
 11
-207.871066
 21
-566.618756
 31
0.0
  0
LINE
  5
8CC1
330
18
100
AcDbEntity
  8
0
100
AcDbLine
 10
-212.3710659999999
 20
-566.618756
 30
0.0
 11
-212.3710659999999
 21
-567.6187559999998
 31
0.0
  0
LINE
  5
8CC2
330
18
100
AcDbEntity
  8
0
100
AcDbLine
 10
-212.3710659999999
 20
-566.618756
 30
0.0
 11
-212.3710659999999
 21
-567.6187559999998
 31
0.0
  0
ARC
  5
8CCE
330
18
100
AcDbEntity
  8
0
100
AcDbCircle
 10
55.628934
 20
-937.968756
 30
0.0
 40
1.5
100
AcDbArc
 50
0.0
 51
90.0
  0
ARC
  5
8CCF
330
18
100
AcDbEntity
  8
0
100
AcDbCircle
 10
55.108934
 20
-938.4887559999999
 30
0.0
 40
0.5
100
AcDbArc
 50
0.0
 51
90.0
  0
ARC
  5
8CD0
330
18
100
AcDbEntity
  8
0
100
AcDbCircle
 10
55.628934
 20
-937.968756
 30
0.0
 40
1.5
100
AcDbArc
 50
0.0
 51
90.0
  0
ARC
  5
8CD1
330
18
100
AcDbEntity
  8
0
100
AcDbCircle
 10
55.108934
 20
-938.4887559999999
 30
0.0
 40
0.5
100
AcDbArc
 50
0.0
 51
90.0
  0
ARC
  5
8CD2
330
18
100
AcDbEntity
  8
0
100
AcDbCircle
 10
56.12893399999999
 20
-938.5510829999999
 30
0.0
 40
1.0
100
AcDbArc
 50
0.0
 51
58.700399
  0
ARC
  5
8CD3
330
18
100
AcDbEntity
  8
0
100
AcDbCircle
 10
56.12893399999999
 20
-938.5510829999999
 30
0.0
 40
1.0
100
AcDbArc
 50
0.0
 51
58.700399
  0
LINE
  5
8CD4
330
18
100
AcDbEntity
  8
0
100
AcDbLine
 10
55.107676
 20
-936.759832
 30
0.0
 11
56.648448
 21
-937.69662
 31
0.0
  0
LINE
  5
8CD5
330
18
100
AcDbEntity
  8
0
100
AcDbLine
 10
55.107676
 20
-936.759832
 30
0.0
 11
56.648448
 21
-937.69662
 31
0.0
  0
ARC
  5
8CD6
330
18
100
AcDbEntity
  8
0
100
AcDbCircle
 10
54.06864999999999
 20
-938.4687559999999
 30
0.0
 40
2.0
100
AcDbArc
 50
58.700399
 51
90.0
  0
ARC
  5
8CD7
330
18
100
AcDbEntity
  8
0
100
AcDbCircle
 10
54.06864999999999
 20
-938.4687559999999
 30
0.0
 40
2.0
100
AcDbArc
 50
58.700399
 51
90.0
  0
ARC
  5
8CD8
330
18
100
AcDbEntity
  8
0
100
AcDbCircle
 10
56.62893399999999
 20
-944.518756
 30
0.0
 40
0.5
100
AcDbArc
 50
270.0
 51
0.0
  0
ARC
  5
8CD9
330
18
100
AcDbEntity
  8
0
100
AcDbCircle
 10
56.62893399999999
 20
-944.518756
 30
0.0
 40
0.5
100
AcDbArc
 50
270.0
 51
0.0
  0
LINE
  5
8CDA
330
18
100
AcDbEntity
  8
0
100
AcDbLine
 10
57.12893399999999
 20
-944.518756
 30
0.0
 11
57.12893399999999
 21
-937.968756
 31
0.0
  0
LINE
  5
8CDB
330
18
100
AcDbEntity
  8
0
100
AcDbLine
 10
55.608934
 20
-945.0187560000001
 30
0.0
 11
55.608934
 21
-938.4887559999999
 31
0.0
  0
LINE
  5
8CDC
330
18
100
AcDbEntity
  8
0
100
AcDbLine
 10
57.12893399999999
 20
-944.518756
 30
0.0
 11
57.12893399999999
 21
-937.968756
 31
0.0
  0
LINE
  5
8CDD
330
18
100
AcDbEntity
  8
0
100
AcDbLine
 10
55.608934
 20
-945.0187560000001
 30
0.0
 11
55.608934
 21
-938.4887559999999
 31
0.0
  0
ARC
  5
8D25
330
18
100
AcDbEntity
  8
0
100
AcDbCircle
 10
55.628934
 20
-574.6687559999998
 30
0.0
 40
1.5
100
AcDbArc
 50
270.0
 51
0.0
  0
ARC
  5
8D26
330
18
100
AcDbEntity
  8
0
100
AcDbCircle
 10
55.628934
 20
-574.6687559999998
 30
0.0
 40
1.5
100
AcDbArc
 50
270.0
 51
0.0
  0
ARC
  5
8D27
330
18
100
AcDbEntity
  8
0
100
AcDbCircle
 10
56.12893399999999
 20
-574.0864299999998
 30
0.0
 40
1.0
100
AcDbArc
 50
301.299601
 51
0.0
  0
ARC
  5
8D28
330
18
100
AcDbEntity
  8
0
100
AcDbCircle
 10
56.12893399999999
 20
-574.0864299999998
 30
0.0
 40
1.0
100
AcDbArc
 50
301.299601
 51
0.0
  0
LINE
  5
8D2D
330
18
100
AcDbEntity
  8
0
100
AcDbLine
 10
55.107676
 20
-575.8776809999998
 30
0.0
 11
56.648448
 21
-574.9408919999998
 31
0.0
  0
LINE
  5
8D2E
330
18
100
AcDbEntity
  8
0
100
AcDbLine
 10
55.107676
 20
-575.8776809999998
 30
0.0
 11
56.648448
 21
-574.9408919999998
 31
0.0
  0
ARC
  5
8D2F
330
18
100
AcDbEntity
  8
0
100
AcDbCircle
 10
54.06864999999999
 20
-574.1687559999998
 30
0.0
 40
2.0
100
AcDbArc
 50
270.0
 51
301.299601
  0
ARC
  5
8D30
330
18
100
AcDbEntity
  8
0
100
AcDbCircle
 10
54.06864999999999
 20
-574.1687559999998
 30
0.0
 40
2.0
100
AcDbArc
 50
270.0
 51
301.299601
  0
ARC
  5
8D31
330
18
100
AcDbEntity
  8
0
100
AcDbCircle
 10
55.108934
 20
-574.1487559999998
 30
0.0
 40
0.5
100
AcDbArc
 50
270.0
 51
0.0
  0
ARC
  5
8D32
330
18
100
AcDbEntity
  8
0
100
AcDbCircle
 10
55.108934
 20
-574.1487559999998
 30
0.0
 40
0.5
100
AcDbArc
 50
270.0
 51
0.0
  0
ARC
  5
8D33
330
18
100
AcDbEntity
  8
0
100
AcDbCircle
 10
56.62893399999999
 20
-568.1187559999998
 30
0.0
 40
0.5
100
AcDbArc
 50
0.0
 51
90.0
  0
ARC
  5
8D34
330
18
100
AcDbEntity
  8
0
100
AcDbCircle
 10
56.62893399999999
 20
-568.1187559999998
 30
0.0
 40
0.5
100
AcDbArc
 50
0.0
 51
90.0
  0
LINE
  5
8D35
330
18
100
AcDbEntity
  8
0
100
AcDbLine
 10
57.12893399999999
 20
-568.1187559999998
 30
0.0
 11
57.12893399999999
 21
-574.6687559999998
 31
0.0
  0
LINE
  5
8D36
330
18
100
AcDbEntity
  8
0
100
AcDbLine
 10
55.608934
 20
-567.6187559999998
 30
0.0
 11
55.608934
 21
-574.1487559999998
 31
0.0
  0
LINE
  5
8D37
330
18
100
AcDbEntity
  8
0
100
AcDbLine
 10
57.12893399999999
 20
-568.1187559999998
 30
0.0
 11
57.12893399999999
 21
-574.6687559999998
 31
0.0
  0
LINE
  5
8D38
330
18
100
AcDbEntity
  8
0
100
AcDbLine
 10
55.608934
 20
-567.6187559999998
 30
0.0
 11
55.608934
 21
-574.1487559999998
 31
0.0
  0
LINE
  5
8D49
330
18
100
AcDbEntity
  8
0
100
AcDbLine
 10
-352.871066
 20
-936.218756
 30
0.0
 11
-352.871066
 21
-576.4187559999998
 31
0.0
  0
LINE
  5
8E27
330
18
100
AcDbEntity
  8
0
100
AcDbLine
 10
648.3800769999998
 20
-246.4459319999999
 30
0.0
 11
580.3800769999997
 21
-246.4459319999999
 31
0.0
  0
LINE
  5
8E28
330
18
100
AcDbEntity
  8
0
100
AcDbLine
 10
649.3800769999998
 20
-255.4459319999998
 30
0.0
 11
579.3800769999998
 21
-255.4459319999998
 31
0.0
  0
LINE
  5
8E29
330
18
100
AcDbEntity
  8
0
100
AcDbLine
 10
649.3800769999998
 20
-267.4459319999999
 30
0.0
 11
579.3800769999998
 21
-267.4459319999999
 31
0.0
  0
LINE
  5
8E2A
330
18
100
AcDbEntity
  8
0
100
AcDbLine
 10
580.3800769999997
 20
-246.4459319999999
 30
0.0
 11
580.3800769999997
 21
-255.4459319999998
 31
0.0
  0
LINE
  5
8E2B
330
18
100
AcDbEntity
  8
0
100
AcDbLine
 10
579.3800769999998
 20
-255.4459319999998
 30
0.0
 11
579.3800769999998
 21
-267.4459319999999
 31
0.0
  0
LINE
  5
8E2D
330
18
100
AcDbEntity
  8
0
100
AcDbLine
 10
648.3800769999998
 20
-246.4459319999999
 30
0.0
 11
648.3800769999998
 21
-255.4459319999998
 31
0.0
  0
LINE
  5
8E2E
330
18
100
AcDbEntity
  8
0
100
AcDbLine
 10
649.3800769999998
 20
-255.4459319999998
 30
0.0
 11
649.3800769999998
 21
-267.4459319999999
 31
0.0
  0
LINE
  5
8E59
330
18
100
AcDbEntity
  8
0
100
AcDbLine
 10
1233.131218999999
 20
-535.818756
 30
0.0
 11
1233.131218999999
 21
-978.818756
 31
0.0
  0
LINE
  5
8E5B
330
18
100
AcDbEntity
  8
0
100
AcDbLine
 10
1212.131218999999
 20
-534.818756
 30
0.0
 11
1212.131218999999
 21
-979.818756
 31
0.0
  0
LINE
  5
8E5C
330
18
100
AcDbEntity
  8
0
100
AcDbLine
 10
1224.131218999999
 20
-534.818756
 30
0.0
 11
1224.131218999999
 21
-979.818756
 31
0.0
  0
LINE
  5
8E5D
330
18
100
AcDbEntity
  8
0
100
AcDbLine
 10
1224.131218999999
 20
-978.818756
 30
0.0
 11
1233.131218999999
 21
-978.818756
 31
0.0
  0
LINE
  5
8E5E
330
18
100
AcDbEntity
  8
0
100
AcDbLine
 10
1212.131218999999
 20
-979.818756
 30
0.0
 11
1224.131218999999
 21
-979.818756
 31
0.0
  0
LINE
  5
8E61
330
18
100
AcDbEntity
  8
0
100
AcDbLine
 10
1224.131218999999
 20
-535.818756
 30
0.0
 11
1233.131218999999
 21
-535.818756
 31
0.0
  0
LINE
  5
8E64
330
18
100
AcDbEntity
  8
0
100
AcDbLine
 10
1212.131218999999
 20
-534.818756
 30
0.0
 11
1224.131218999999
 21
-534.818756
 31
0.0
  0
LINE
  5
10345
330
18
100
AcDbEntity
  8
0
100
AcDbLine
 10
1211.842775
 20
-601.6187559999998
 30
0.0
 11
1211.842775
 21
-611.0187559999998
 31
0.0
  0
ARC
  5
10346
330
18
100
AcDbEntity
  8
0
100
AcDbCircle
 10
1215.731219
 20
-606.318756
 30
0.0
 40
6.099999999999998
100
AcDbArc
 50
129.6019269999999
 51
230.398073
  0
LINE
  5
10347
330
18
100
AcDbEntity
  8
0
100
AcDbLine
 10
1212.131218999999
 20
-601.6187559999998
 30
0.0
 11
1212.131218999999
 21
-611.0187559999998
 31
0.0
  0
LINE
  5
10348
330
18
100
AcDbEntity
  8
0
100
AcDbLine
 10
1211.842775
 20
-611.0187559999998
 30
0.0
 11
1212.131218999999
 21
-611.0187559999998
 31
0.0
  0
LINE
  5
1034A
330
18
100
AcDbEntity
  8
0
100
AcDbLine
 10
1211.842775
 20
-601.6187559999998
 30
0.0
 11
1212.131218999999
 21
-601.6187559999998
 31
0.0
  0
LINE
  5
1034B
330
18
100
AcDbEntity
  8
0
100
AcDbLine
 10
1211.842775
 20
-911.0187559999999
 30
0.0
 11
1212.131218999999
 21
-911.0187559999999
 31
0.0
  0
LINE
  5
1034D
330
18
100
AcDbEntity
  8
0
100
AcDbLine
 10
1211.842775
 20
-901.618756
 30
0.0
 11
1211.842775
 21
-911.0187559999999
 31
0.0
  0
ARC
  5
1034E
330
18
100
AcDbEntity
  8
0
100
AcDbCircle
 10
1215.731219
 20
-906.3187560000001
 30
0.0
 40
6.099999999999998
100
AcDbArc
 50
129.6019269999999
 51
230.398073
  0
LINE
  5
1034F
330
18
100
AcDbEntity
  8
0
100
AcDbLine
 10
1212.131218999999
 20
-901.618756
 30
0.0
 11
1212.131218999999
 21
-911.0187559999999
 31
0.0
  0
LINE
  5
10350
330
18
100
AcDbEntity
  8
0
100
AcDbLine
 10
1211.842775
 20
-901.618756
 30
0.0
 11
1212.131218999999
 21
-901.618756
 31
0.0
  0
LINE
  5
10359
330
18
100
AcDbEntity
  8
0
100
AcDbLine
 10
649.3800769999998
 20
-977.8187609999999
 30
0.0
 11
649.3800769999998
 21
-532.8187609999998
 31
0.0
  0
LINE
  5
1035B
330
18
100
AcDbEntity
  8
0
100
AcDbLine
 10
579.3800769999998
 20
-977.8187609999999
 30
0.0
 11
579.3800769999998
 21
-532.8187609999998
 31
0.0
  0
LINE
  5
10360
330
18
100
AcDbEntity
  8
0
100
AcDbLine
 10
579.3800769999998
 20
-532.8187609999998
 30
0.0
 11
649.3800769999998
 21
-532.8187609999998
 31
0.0
  0
LINE
  5
10379
330
18
100
AcDbEntity
  8
0
100
AcDbLine
 10
579.3800769999998
 20
-977.8187609999999
 30
0.0
 11
606.8967619999998
 21
-977.8187609999999
 31
0.0
  0
CIRCLE
  5
10400
330
18
100
AcDbEntity
  8
0
100
AcDbCircle
 10
614.3800769999998
 20
-606.3187609999999
 30
0.0
 40
4.7
  0
LINE
  5
10401
330
18
100
AcDbEntity
  8
0
100
AcDbLine
 10
612.8845459999999
 20
-604.8232299999998
 30
0.0
 11
615.875608
 21
-607.814292
 31
0.0
  0
LINE
  5
10402
330
18
100
AcDbEntity
  8
0
100
AcDbLine
 10
612.8845459999999
 20
-607.814292
 30
0.0
 11
615.875608
 21
-604.8232299999998
 31
0.0
  0
CIRCLE
  5
10403
330
18
100
AcDbEntity
  8
0
100
AcDbCircle
 10
614.3800769999998
 20
-547.8187609999999
 30
0.0
 40
15.0
  0
LINE
  5
10406
330
18
100
AcDbEntity
  8
0
100
AcDbLine
 10
612.8845459999999
 20
-907.8142920000001
 30
0.0
 11
615.875608
 21
-904.82323
 31
0.0
  0
LINE
  5
10407
330
18
100
AcDbEntity
  8
0
100
AcDbLine
 10
612.8845459999999
 20
-904.82323
 30
0.0
 11
615.875608
 21
-907.8142920000001
 31
0.0
  0
CIRCLE
  5
10408
330
18
100
AcDbEntity
  8
0
100
AcDbCircle
 10
614.3800769999998
 20
-906.3187609999999
 30
0.0
 40
4.7
  0
CIRCLE
  5
1040B
330
18
100
AcDbEntity
  8
0
100
AcDbCircle
 10
614.3800769999998
 20
-964.818761
 30
0.0
 40
15.0
  0
LINE
  5
1040F
330
18
100
AcDbEntity
  8
0
100
AcDbLine
 10
621.020672
 20
-978.2687609999999
 30
0.0
 11
912.8800769999999
 21
-978.2687609999999
 31
0.0
  0
LINE
  5
10410
330
18
100
AcDbEntity
  8
0
100
AcDbLine
 10
621.863392
 20
-977.8187609999999
 30
0.0
 11
649.3800769999998
 21
-977.8187609999999
 31
0.0
  0
LINE
  5
10411
330
18
100
AcDbEntity
  8
0
100
AcDbLine
 10
609.6963279999998
 20
-979.068761
 30
0.0
 11
314.380077
 21
-979.068761
 31
0.0
  0
ARC
  5
10412
330
18
100
AcDbEntity
  8
0
100
AcDbCircle
 10
628.3800769999998
 20
-274.2898009999998
 30
0.0
 40
1.0
100
AcDbArc
 50
0.0
 51
90.0
  0
ARC
  5
10413
330
18
100
AcDbEntity
  8
0
100
AcDbCircle
 10
600.3800769999998
 20
-274.2898009999998
 30
0.0
 40
1.0
100
AcDbArc
 50
90.0
 51
180.0
  0
LINE
  5
10414
330
18
100
AcDbEntity
  8
0
100
AcDbLine
 10
629.360476
 20
-274.3090279999999
 30
0.0
 11
599.3996769999998
 21
-274.3090279999999
 31
0.0
1001
ACAD
1000
ASC_BOUNDS
1002
{
1070
    19
1005
0
1002
}
  0
LINE
  5
10415
330
18
100
AcDbEntity
  8
0
100
AcDbLine
 10
629.360476
 20
-285.3090279999999
 30
0.0
 11
599.3996769999998
 21
-285.3090279999999
 31
0.0
1001
ACAD
1000
ASC_BOUNDS
1002
{
1070
    19
1005
0
1002
}
  0
ARC
  5
10416
330
18
100
AcDbEntity
  8
0
100
AcDbCircle
 10
614.3800769999998
 20
-239.893145
 30
0.0
 40
48.396656
100
AcDbArc
 50
252.8197049999999
 51
287.180295
  0
LINE
  5
10417
330
18
100
AcDbEntity
  8
0
100
AcDbLine
 10
599.3800769999998
 20
-285.174963
 30
0.0
 11
599.3800769999998
 21
-274.2898009999998
 31
0.0
1001
ACAD
1000
ASC_BOUNDS
1002
{
1070
    19
1005
0
1002
}
  0
ARC
  5
10418
330
18
100
AcDbEntity
  8
0
100
AcDbCircle
 10
600.3800769999998
 20
-285.174963
 30
0.0
 40
1.0
100
AcDbArc
 50
180.0
 51
252.8197049999999
  0
LINE
  5
10419
330
18
100
AcDbEntity
  8
0
100
AcDbLine
 10
629.3800769999998
 20
-285.174963
 30
0.0
 11
629.3800769999998
 21
-274.2898009999998
 31
0.0
1001
ACAD
1000
ASC_BOUNDS
1002
{
1070
    19
1005
0
1002
}
  0
ARC
  5
1041A
330
18
100
AcDbEntity
  8
0
100
AcDbCircle
 10
628.3800769999998
 20
-285.174963
 30
0.0
 40
1.0
100
AcDbArc
 50
287.180295
 51
0.0
  0
LINE
  5
1041B
330
18
100
AcDbEntity
  8
0
100
AcDbLine
 10
628.3800769999998
 20
-273.2898009999999
 30
0.0
 11
600.3800769999998
 21
-273.2898009999999
 31
0.0
  0
LINE
  5
1041C
330
18
100
AcDbEntity
  8
0
100
AcDbLine
 10
622.3800769999997
 20
-268.4459319999999
 30
0.0
 11
622.3800769999997
 21
-267.4459319999999
 31
0.0
  0
LINE
  5
1041D
330
18
100
AcDbEntity
  8
0
100
AcDbLine
 10
617.3800769999997
 20
-270.2898009999998
 30
0.0
 11
617.3800769999997
 21
-267.4459319999999
 31
0.0
  0
LINE
  5
1041E
330
18
100
AcDbEntity
  8
0
100
AcDbLine
 10
611.3800769999998
 20
-270.2898009999998
 30
0.0
 11
611.3800769999998
 21
-267.4459319999999
 31
0.0
  0
LINE
  5
1041F
330
18
100
AcDbEntity
  8
0
100
AcDbLine
 10
606.3800769999998
 20
-268.4459319999999
 30
0.0
 11
606.3800769999998
 21
-267.4459319999999
 31
0.0
  0
LINE
  5
10420
330
18
100
AcDbEntity
  8
0
100
AcDbLine
 10
622.3800769999997
 20
-267.4459319999999
 30
0.0
 11
606.3800769999998
 21
-267.4459319999999
 31
0.0
  0
LINE
  5
10421
330
18
100
AcDbEntity
  8
0
100
AcDbLine
 10
622.3800769999997
 20
-268.4459319999999
 30
0.0
 11
606.3800769999998
 21
-268.4459319999999
 31
0.0
  0
LINE
  5
10422
330
18
100
AcDbEntity
  8
0
100
AcDbLine
 10
622.3800769999997
 20
-270.2898009999998
 30
0.0
 11
606.3800769999998
 21
-270.2898009999998
 31
0.0
  0
LINE
  5
10423
330
18
100
AcDbEntity
  8
0
100
AcDbLine
 10
622.3800769999997
 20
-273.2898009999999
 30
0.0
 11
622.3800769999997
 21
-270.2898009999998
 31
0.0
  0
LINE
  5
10424
330
18
100
AcDbEntity
  8
0
100
AcDbLine
 10
606.3800769999998
 20
-273.2898009999999
 30
0.0
 11
606.3800769999998
 21
-270.2898009999998
 31
0.0
  0
LINE
  5
10426
330
18
100
AcDbEntity
  8
0
100
AcDbLine
 10
1206.287349
 20
-533.818756
 30
0.0
 11
1206.287349
 21
-561.8187559999999
 31
0.0
  0
ARC
  5
10427
330
18
100
AcDbEntity
  8
0
100
AcDbCircle
 10
1239.684006
 20
-547.818756
 30
0.0
 40
48.396656
100
AcDbArc
 50
162.8197049999999
 51
197.180295
  0
LINE
  5
10428
330
18
100
AcDbEntity
  8
0
100
AcDbLine
 10
1194.268122
 20
-532.8383569999998
 30
0.0
 11
1194.268122
 21
-562.7991559999998
 31
0.0
1001
ACAD
1000
ASC_BOUNDS
1002
{
1070
    19
1005
0
1002
}
  0
LINE
  5
10429
330
18
100
AcDbEntity
  8
0
100
AcDbLine
 10
1205.268122
 20
-532.8383569999998
 30
0.0
 11
1205.268122
 21
-562.7991559999998
 31
0.0
1001
ACAD
1000
ASC_BOUNDS
1002
{
1070
    19
1005
0
1002
}
  0
ARC
  5
1042A
330
18
100
AcDbEntity
  8
0
100
AcDbCircle
 10
1205.287349
 20
-561.8187559999999
 30
0.0
 40
1.0
100
AcDbArc
 50
270.0
 51
0.0
  0
LINE
  5
1042B
330
18
100
AcDbEntity
  8
0
100
AcDbLine
 10
1194.402188
 20
-562.8187559999998
 30
0.0
 11
1205.287349
 21
-562.8187559999998
 31
0.0
1001
ACAD
1000
ASC_BOUNDS
1002
{
1070
    19
1005
0
1002
}
  0
ARC
  5
1042C
330
18
100
AcDbEntity
  8
0
100
AcDbCircle
 10
1194.402188
 20
-561.8187559999999
 30
0.0
 40
1.0
100
AcDbArc
 50
197.180295
 51
270.0
  0
ARC
  5
1042D
330
18
100
AcDbEntity
  8
0
100
AcDbCircle
 10
1205.287349
 20
-533.818756
 30
0.0
 40
1.0
100
AcDbArc
 50
0.0
 51
90.0
  0
ARC
  5
1042E
330
18
100
AcDbEntity
  8
0
100
AcDbCircle
 10
1194.402188
 20
-533.818756
 30
0.0
 40
1.0
100
AcDbArc
 50
90.0
 51
162.8197049999999
  0
LINE
  5
1042F
330
18
100
AcDbEntity
  8
0
100
AcDbLine
 10
1194.402188
 20
-532.8187559999999
 30
0.0
 11
1205.287349
 21
-532.8187559999999
 31
0.0
1001
ACAD
1000
ASC_BOUNDS
1002
{
1070
    19
1005
0
1002
}
  0
LINE
  5
10430
330
18
100
AcDbEntity
  8
0
100
AcDbLine
 10
1209.287349
 20
-539.818756
 30
0.0
 11
1209.287349
 21
-555.818756
 31
0.0
  0
LINE
  5
10431
330
18
100
AcDbEntity
  8
0
100
AcDbLine
 10
1211.131219
 20
-539.818756
 30
0.0
 11
1211.131219
 21
-555.818756
 31
0.0
  0
LINE
  5
10432
330
18
100
AcDbEntity
  8
0
100
AcDbLine
 10
1212.131218999999
 20
-539.818756
 30
0.0
 11
1212.131218999999
 21
-555.818756
 31
0.0
  0
LINE
  5
10433
330
18
100
AcDbEntity
  8
0
100
AcDbLine
 10
1211.131219
 20
-555.818756
 30
0.0
 11
1212.131218999999
 21
-555.818756
 31
0.0
  0
LINE
  5
10434
330
18
100
AcDbEntity
  8
0
100
AcDbLine
 10
1209.287349
 20
-550.818756
 30
0.0
 11
1212.131218999999
 21
-550.818756
 31
0.0
  0
LINE
  5
10435
330
18
100
AcDbEntity
  8
0
100
AcDbLine
 10
1209.287349
 20
-544.818756
 30
0.0
 11
1212.131218999999
 21
-544.818756
 31
0.0
  0
LINE
  5
10436
330
18
100
AcDbEntity
  8
0
100
AcDbLine
 10
1211.131219
 20
-539.818756
 30
0.0
 11
1212.131218999999
 21
-539.818756
 31
0.0
  0
LINE
  5
10437
330
18
100
AcDbEntity
  8
0
100
AcDbLine
 10
1206.287349
 20
-555.818756
 30
0.0
 11
1209.287349
 21
-555.818756
 31
0.0
  0
LINE
  5
10438
330
18
100
AcDbEntity
  8
0
100
AcDbLine
 10
1206.287349
 20
-539.818756
 30
0.0
 11
1209.287349
 21
-539.818756
 31
0.0
  0
LINE
  5
1043B
330
18
100
AcDbEntity
  8
0
100
AcDbLine
 10
1212.131218999999
 20
-956.818756
 30
0.0
 11
1212.131218999999
 21
-972.818756
 31
0.0
  0
LINE
  5
1043C
330
18
100
AcDbEntity
  8
0
100
AcDbLine
 10
1211.131219
 20
-956.818756
 30
0.0
 11
1211.131219
 21
-972.818756
 31
0.0
  0
LINE
  5
1043D
330
18
100
AcDbEntity
  8
0
100
AcDbLine
 10
1209.287349
 20
-956.818756
 30
0.0
 11
1209.287349
 21
-972.818756
 31
0.0
  0
LINE
  5
1043E
330
18
100
AcDbEntity
  8
0
100
AcDbLine
 10
1205.268122
 20
-949.8383569999999
 30
0.0
 11
1205.268122
 21
-979.7991559999999
 31
0.0
1001
ACAD
1000
ASC_BOUNDS
1002
{
1070
    19
1005
0
1002
}
  0
LINE
  5
1043F
330
18
100
AcDbEntity
  8
0
100
AcDbLine
 10
1194.268122
 20
-949.8383569999999
 30
0.0
 11
1194.268122
 21
-979.7991559999999
 31
0.0
1001
ACAD
1000
ASC_BOUNDS
1002
{
1070
    19
1005
0
1002
}
  0
ARC
  5
10440
330
18
100
AcDbEntity
  8
0
100
AcDbCircle
 10
1239.684006
 20
-964.818756
 30
0.0
 40
48.396656
100
AcDbArc
 50
162.8197049999999
 51
197.180295
  0
LINE
  5
10441
330
18
100
AcDbEntity
  8
0
100
AcDbLine
 10
1206.287349
 20
-950.8187559999999
 30
0.0
 11
1206.287349
 21
-978.818756
 31
0.0
  0
LINE
  5
10442
330
18
100
AcDbEntity
  8
0
100
AcDbLine
 10
1206.287349
 20
-972.818756
 30
0.0
 11
1209.287349
 21
-972.818756
 31
0.0
  0
LINE
  5
10443
330
18
100
AcDbEntity
  8
0
100
AcDbLine
 10
1211.131219
 20
-972.818756
 30
0.0
 11
1212.131218999999
 21
-972.818756
 31
0.0
  0
ARC
  5
10444
330
18
100
AcDbEntity
  8
0
100
AcDbCircle
 10
1194.402188
 20
-978.818756
 30
0.0
 40
1.0
100
AcDbArc
 50
197.180295
 51
270.0
  0
LINE
  5
10445
330
18
100
AcDbEntity
  8
0
100
AcDbLine
 10
1194.402188
 20
-979.818756
 30
0.0
 11
1205.287349
 21
-979.818756
 31
0.0
1001
ACAD
1000
ASC_BOUNDS
1002
{
1070
    19
1005
0
1002
}
  0
ARC
  5
10446
330
18
100
AcDbEntity
  8
0
100
AcDbCircle
 10
1205.287349
 20
-978.818756
 30
0.0
 40
1.0
100
AcDbArc
 50
270.0
 51
0.0
  0
LINE
  5
10447
330
18
100
AcDbEntity
  8
0
100
AcDbLine
 10
1206.287349
 20
-956.818756
 30
0.0
 11
1209.287349
 21
-956.818756
 31
0.0
  0
LINE
  5
10448
330
18
100
AcDbEntity
  8
0
100
AcDbLine
 10
1211.131219
 20
-956.818756
 30
0.0
 11
1212.131218999999
 21
-956.818756
 31
0.0
  0
LINE
  5
10449
330
18
100
AcDbEntity
  8
0
100
AcDbLine
 10
1209.287349
 20
-961.818756
 30
0.0
 11
1212.131218999999
 21
-961.818756
 31
0.0
  0
LINE
  5
1044A
330
18
100
AcDbEntity
  8
0
100
AcDbLine
 10
1209.287349
 20
-967.8187559999999
 30
0.0
 11
1212.131218999999
 21
-967.8187559999999
 31
0.0
  0
LINE
  5
1044B
330
18
100
AcDbEntity
  8
0
100
AcDbLine
 10
1194.402188
 20
-949.8187559999999
 30
0.0
 11
1205.287349
 21
-949.8187559999999
 31
0.0
1001
ACAD
1000
ASC_BOUNDS
1002
{
1070
    19
1005
0
1002
}
  0
ARC
  5
1044C
330
18
100
AcDbEntity
  8
0
100
AcDbCircle
 10
1194.402188
 20
-950.8187559999999
 30
0.0
 40
1.0
100
AcDbArc
 50
90.0
 51
162.8197049999999
  0
ARC
  5
1044D
330
18
100
AcDbEntity
  8
0
100
AcDbCircle
 10
1205.287349
 20
-950.8187559999999
 30
0.0
 40
1.0
100
AcDbArc
 50
0.0
 51
90.0
  0
LINE
  5
10459
330
18
100
AcDbEntity
  8
0
100
AcDbLine
 10
89.428934
 20
-534.818756
 30
0.0
 11
89.428934
 21
-979.818756
 31
0.0
  0
LINE
  5
1045A
330
18
100
AcDbEntity
  8
0
100
AcDbLine
 10
77.42893399999998
 20
-534.818756
 30
0.0
 11
77.42893399999998
 21
-979.818756
 31
0.0
  0
LINE
  5
1045B
330
18
100
AcDbEntity
  8
0
100
AcDbLine
 10
89.428934
 20
-901.618756
 30
0.0
 11
89.428934
 21
-911.0187559999999
 31
0.0
  0
ARC
  5
1045C
330
18
100
AcDbEntity
  8
0
100
AcDbCircle
 10
85.82893400000001
 20
-906.3187560000001
 30
0.0
 40
6.099999999999998
100
AcDbArc
 50
309.6019269999998
 51
50.39807299999999
  0
LINE
  5
1045D
330
18
100
AcDbEntity
  8
0
100
AcDbLine
 10
89.717379
 20
-901.618756
 30
0.0
 11
89.717379
 21
-911.0187559999999
 31
0.0
  0
LINE
  5
1045E
330
18
100
AcDbEntity
  8
0
100
AcDbLine
 10
95.272804
 20
-950.8187559999999
 30
0.0
 11
95.272804
 21
-978.818756
 31
0.0
  0
ARC
  5
1045F
330
18
100
AcDbEntity
  8
0
100
AcDbCircle
 10
61.876148
 20
-964.818756
 30
0.0
 40
48.396656
100
AcDbArc
 50
342.819705
 51
17.180295
  0
LINE
  5
10460
330
18
100
AcDbEntity
  8
0
100
AcDbLine
 10
107.292031
 20
-949.8383569999999
 30
0.0
 11
107.292031
 21
-979.7991559999999
 31
0.0
1001
ACAD
1000
ASC_BOUNDS
1002
{
1070
    19
1005
0
1002
}
  0
LINE
  5
10461
330
18
100
AcDbEntity
  8
0
100
AcDbLine
 10
96.29203099999999
 20
-949.8383569999999
 30
0.0
 11
96.29203099999999
 21
-979.7991559999999
 31
0.0
1001
ACAD
1000
ASC_BOUNDS
1002
{
1070
    19
1005
0
1002
}
  0
LINE
  5
10462
330
18
100
AcDbEntity
  8
0
100
AcDbLine
 10
90.428934
 20
-956.818756
 30
0.0
 11
89.428934
 21
-956.818756
 31
0.0
  0
LINE
  5
10463
330
18
100
AcDbEntity
  8
0
100
AcDbLine
 10
95.272804
 20
-956.818756
 30
0.0
 11
92.27280399999999
 21
-956.818756
 31
0.0
  0
LINE
  5
10464
330
18
100
AcDbEntity
  8
0
100
AcDbLine
 10
92.27280399999999
 20
-967.8187559999999
 30
0.0
 11
89.428934
 21
-967.8187559999999
 31
0.0
  0
LINE
  5
10465
330
18
100
AcDbEntity
  8
0
100
AcDbLine
 10
92.27280399999999
 20
-961.818756
 30
0.0
 11
89.428934
 21
-961.818756
 31
0.0
  0
ARC
  5
10466
330
18
100
AcDbEntity
  8
0
100
AcDbCircle
 10
96.272804
 20
-978.818756
 30
0.0
 40
1.0
100
AcDbArc
 50
180.0
 51
270.0
  0
LINE
  5
10467
330
18
100
AcDbEntity
  8
0
100
AcDbLine
 10
107.1579659999999
 20
-979.818756
 30
0.0
 11
96.272804
 21
-979.818756
 31
0.0
1001
ACAD
1000
ASC_BOUNDS
1002
{
1070
    19
1005
0
1002
}
  0
ARC
  5
10468
330
18
100
AcDbEntity
  8
0
100
AcDbCircle
 10
107.1579659999999
 20
-978.818756
 30
0.0
 40
1.0
100
AcDbArc
 50
270.0
 51
342.819705
  0
LINE
  5
10469
330
18
100
AcDbEntity
  8
0
100
AcDbLine
 10
90.428934
 20
-972.818756
 30
0.0
 11
89.428934
 21
-972.818756
 31
0.0
  0
LINE
  5
1046A
330
18
100
AcDbEntity
  8
0
100
AcDbLine
 10
95.272804
 20
-972.818756
 30
0.0
 11
92.27280399999999
 21
-972.818756
 31
0.0
  0
LINE
  5
1046B
330
18
100
AcDbEntity
  8
0
100
AcDbLine
 10
89.428934
 20
-979.818756
 30
0.0
 11
77.42893399999998
 21
-979.818756
 31
0.0
  0
LINE
  5
1046C
330
18
100
AcDbEntity
  8
0
100
AcDbLine
 10
92.27280399999999
 20
-956.818756
 30
0.0
 11
92.27280399999999
 21
-972.818756
 31
0.0
  0
LINE
  5
1046D
330
18
100
AcDbEntity
  8
0
100
AcDbLine
 10
90.428934
 20
-956.818756
 30
0.0
 11
90.428934
 21
-972.818756
 31
0.0
  0
LINE
  5
1046E
330
18
100
AcDbEntity
  8
0
100
AcDbLine
 10
89.428934
 20
-956.818756
 30
0.0
 11
89.428934
 21
-972.818756
 31
0.0
  0
ARC
  5
10470
330
18
100
AcDbEntity
  8
0
100
AcDbCircle
 10
96.272804
 20
-950.8187559999999
 30
0.0
 40
1.0
100
AcDbArc
 50
90.0
 51
180.0
  0
ARC
  5
10471
330
18
100
AcDbEntity
  8
0
100
AcDbCircle
 10
107.1579659999999
 20
-950.8187559999999
 30
0.0
 40
1.0
100
AcDbArc
 50
17.180295
 51
90.0
  0
LINE
  5
10472
330
18
100
AcDbEntity
  8
0
100
AcDbLine
 10
107.1579659999999
 20
-949.8187559999999
 30
0.0
 11
96.272804
 21
-949.8187559999999
 31
0.0
1001
ACAD
1000
ASC_BOUNDS
1002
{
1070
    19
1005
0
1002
}
  0
LINE
  5
10473
330
18
100
AcDbEntity
  8
0
100
AcDbLine
 10
89.717379
 20
-911.0187559999999
 30
0.0
 11
89.428934
 21
-911.0187559999999
 31
0.0
  0
LINE
  5
10474
330
18
100
AcDbEntity
  8
0
100
AcDbLine
 10
89.717379
 20
-901.618756
 30
0.0
 11
89.428934
 21
-901.618756
 31
0.0
  0
LINE
  5
10475
330
18
100
AcDbEntity
  8
0
100
AcDbLine
 10
89.717379
 20
-601.6187559999998
 30
0.0
 11
89.717379
 21
-611.0187559999998
 31
0.0
  0
ARC
  5
10476
330
18
100
AcDbEntity
  8
0
100
AcDbCircle
 10
85.82893400000001
 20
-606.318756
 30
0.0
 40
6.099999999999998
100
AcDbArc
 50
309.6019269999998
 51
50.39807299999999
  0
LINE
  5
10477
330
18
100
AcDbEntity
  8
0
100
AcDbLine
 10
89.428934
 20
-601.6187559999998
 30
0.0
 11
89.428934
 21
-611.0187559999998
 31
0.0
  0
LINE
  5
10478
330
18
100
AcDbEntity
  8
0
100
AcDbLine
 10
89.717379
 20
-611.0187559999998
 30
0.0
 11
89.428934
 21
-611.0187559999998
 31
0.0
  0
LINE
  5
1047A
330
18
100
AcDbEntity
  8
0
100
AcDbLine
 10
89.428934
 20
-539.818756
 30
0.0
 11
89.428934
 21
-555.818756
 31
0.0
  0
LINE
  5
1047B
330
18
100
AcDbEntity
  8
0
100
AcDbLine
 10
90.428934
 20
-539.818756
 30
0.0
 11
90.428934
 21
-555.818756
 31
0.0
  0
LINE
  5
1047C
330
18
100
AcDbEntity
  8
0
100
AcDbLine
 10
92.27280399999999
 20
-539.818756
 30
0.0
 11
92.27280399999999
 21
-555.818756
 31
0.0
  0
LINE
  5
1047D
330
18
100
AcDbEntity
  8
0
100
AcDbLine
 10
96.29203099999999
 20
-532.8383569999998
 30
0.0
 11
96.29203099999999
 21
-562.7991559999998
 31
0.0
1001
ACAD
1000
ASC_BOUNDS
1002
{
1070
    19
1005
0
1002
}
  0
LINE
  5
1047E
330
18
100
AcDbEntity
  8
0
100
AcDbLine
 10
107.292031
 20
-532.8383569999998
 30
0.0
 11
107.292031
 21
-562.7991559999998
 31
0.0
1001
ACAD
1000
ASC_BOUNDS
1002
{
1070
    19
1005
0
1002
}
  0
ARC
  5
1047F
330
18
100
AcDbEntity
  8
0
100
AcDbCircle
 10
61.876148
 20
-547.818756
 30
0.0
 40
48.396656
100
AcDbArc
 50
342.819705
 51
17.180295
  0
LINE
  5
10480
330
18
100
AcDbEntity
  8
0
100
AcDbLine
 10
95.272804
 20
-533.818756
 30
0.0
 11
95.272804
 21
-561.8187559999999
 31
0.0
  0
LINE
  5
10481
330
18
100
AcDbEntity
  8
0
100
AcDbLine
 10
95.272804
 20
-555.818756
 30
0.0
 11
92.27280399999999
 21
-555.818756
 31
0.0
  0
LINE
  5
10482
330
18
100
AcDbEntity
  8
0
100
AcDbLine
 10
90.428934
 20
-555.818756
 30
0.0
 11
89.428934
 21
-555.818756
 31
0.0
  0
ARC
  5
10483
330
18
100
AcDbEntity
  8
0
100
AcDbCircle
 10
107.1579659999999
 20
-561.8187559999999
 30
0.0
 40
1.0
100
AcDbArc
 50
270.0
 51
342.819705
  0
LINE
  5
10484
330
18
100
AcDbEntity
  8
0
100
AcDbLine
 10
107.1579659999999
 20
-562.8187559999998
 30
0.0
 11
96.272804
 21
-562.8187559999998
 31
0.0
1001
ACAD
1000
ASC_BOUNDS
1002
{
1070
    19
1005
0
1002
}
  0
ARC
  5
10485
330
18
100
AcDbEntity
  8
0
100
AcDbCircle
 10
96.272804
 20
-561.8187559999999
 30
0.0
 40
1.0
100
AcDbArc
 50
180.0
 51
270.0
  0
LINE
  5
10486
330
18
100
AcDbEntity
  8
0
100
AcDbLine
 10
89.717379
 20
-601.6187559999998
 30
0.0
 11
89.428934
 21
-601.6187559999998
 31
0.0
  0
LINE
  5
10487
330
18
100
AcDbEntity
  8
0
100
AcDbLine
 10
95.272804
 20
-539.818756
 30
0.0
 11
92.27280399999999
 21
-539.818756
 31
0.0
  0
LINE
  5
10488
330
18
100
AcDbEntity
  8
0
100
AcDbLine
 10
90.428934
 20
-539.818756
 30
0.0
 11
89.428934
 21
-539.818756
 31
0.0
  0
LINE
  5
10489
330
18
100
AcDbEntity
  8
0
100
AcDbLine
 10
92.27280399999999
 20
-544.818756
 30
0.0
 11
89.428934
 21
-544.818756
 31
0.0
  0
LINE
  5
1048A
330
18
100
AcDbEntity
  8
0
100
AcDbLine
 10
92.27280399999999
 20
-550.818756
 30
0.0
 11
89.428934
 21
-550.818756
 31
0.0
  0
LINE
  5
1048B
330
18
100
AcDbEntity
  8
0
100
AcDbLine
 10
107.1579659999999
 20
-532.8187559999999
 30
0.0
 11
96.272804
 21
-532.8187559999999
 31
0.0
1001
ACAD
1000
ASC_BOUNDS
1002
{
1070
    19
1005
0
1002
}
  0
ARC
  5
1048C
330
18
100
AcDbEntity
  8
0
100
AcDbCircle
 10
107.1579659999999
 20
-533.818756
 30
0.0
 40
1.0
100
AcDbArc
 50
17.180295
 51
90.0
  0
ARC
  5
1048D
330
18
100
AcDbEntity
  8
0
100
AcDbCircle
 10
96.272804
 20
-533.818756
 30
0.0
 40
1.0
100
AcDbArc
 50
90.0
 51
180.0
  0
LINE
  5
1048E
330
18
100
AcDbEntity
  8
0
100
AcDbLine
 10
89.428934
 20
-534.818756
 30
0.0
 11
77.42893399999998
 21
-534.818756
 31
0.0
  0
LINE
  5
1048F
330
18
100
AcDbEntity
  8
0
100
AcDbLine
 10
77.42893399999998
 20
-535.818756
 30
0.0
 11
68.428934
 21
-535.818756
 31
0.0
  0
LINE
  5
10490
330
18
100
AcDbEntity
  8
0
100
AcDbLine
 10
77.42893399999998
 20
-978.818756
 30
0.0
 11
68.428934
 21
-978.818756
 31
0.0
  0
LINE
  5
10492
330
18
100
AcDbEntity
  8
0
100
AcDbLine
 10
68.428934
 20
-978.818756
 30
0.0
 11
68.428934
 21
-535.818756
 31
0.0
  0
LINE
  5
10493
330
18
100
AcDbEntity
  8
0
100
AcDbLine
 10
68.428934
 20
-550.818756
 30
0.0
 11
65.27280400000001
 21
-550.818756
 31
0.0
  0
LINE
  5
10494
330
18
100
AcDbEntity
  8
0
100
AcDbLine
 10
68.428934
 20
-544.818756
 30
0.0
 11
65.27280400000001
 21
-544.818756
 31
0.0
  0
LINE
  5
10495
330
18
100
AcDbEntity
  8
0
100
AcDbLine
 10
66.272804
 20
-543.818756
 30
0.0
 11
64.272804
 21
-545.8187559999998
 31
0.0
  0
LINE
  5
10496
330
18
100
AcDbEntity
  8
0
100
AcDbLine
 10
66.272804
 20
-551.818756
 30
0.0
 11
64.272804
 21
-549.8187559999998
 31
0.0
  0
LINE
  5
10497
330
18
100
AcDbEntity
  8
0
100
AcDbLine
 10
65.27280400000001
 20
-544.818756
 30
0.0
 11
65.27280400000001
 21
-550.818756
 31
0.0
  0
LINE
  5
10498
330
18
100
AcDbEntity
  8
0
100
AcDbLine
 10
64.272804
 20
-545.8187559999998
 30
0.0
 11
64.272804
 21
-549.8187559999998
 31
0.0
  0
LINE
  5
10499
330
18
100
AcDbEntity
  8
0
100
AcDbLine
 10
68.428934
 20
-543.818756
 30
0.0
 11
66.272804
 21
-543.818756
 31
0.0
  0
LINE
  5
1049A
330
18
100
AcDbEntity
  8
0
100
AcDbLine
 10
68.428934
 20
-551.818756
 30
0.0
 11
66.272804
 21
-551.818756
 31
0.0
  0
LINE
  5
1049C
330
18
100
AcDbEntity
  8
0
100
AcDbLine
 10
68.428934
 20
-968.8187560000001
 30
0.0
 11
66.272804
 21
-968.8187560000001
 31
0.0
  0
LINE
  5
1049D
330
18
100
AcDbEntity
  8
0
100
AcDbLine
 10
68.428934
 20
-960.8187560000001
 30
0.0
 11
66.272804
 21
-960.8187560000001
 31
0.0
  0
LINE
  5
1049E
330
18
100
AcDbEntity
  8
0
100
AcDbLine
 10
64.272804
 20
-962.818756
 30
0.0
 11
64.272804
 21
-966.8187559999999
 31
0.0
  0
LINE
  5
1049F
330
18
100
AcDbEntity
  8
0
100
AcDbLine
 10
65.27280400000001
 20
-961.818756
 30
0.0
 11
65.27280400000001
 21
-967.8187559999999
 31
0.0
  0
LINE
  5
104A0
330
18
100
AcDbEntity
  8
0
100
AcDbLine
 10
66.272804
 20
-968.8187560000001
 30
0.0
 11
64.272804
 21
-966.8187559999999
 31
0.0
  0
LINE
  5
104A1
330
18
100
AcDbEntity
  8
0
100
AcDbLine
 10
66.272804
 20
-960.8187560000001
 30
0.0
 11
64.272804
 21
-962.818756
 31
0.0
  0
LINE
  5
104A2
330
18
100
AcDbEntity
  8
0
100
AcDbLine
 10
68.428934
 20
-961.818756
 30
0.0
 11
65.27280400000001
 21
-961.818756
 31
0.0
  0
LINE
  5
104A3
330
18
100
AcDbEntity
  8
0
100
AcDbLine
 10
68.428934
 20
-967.8187559999999
 30
0.0
 11
65.27280400000001
 21
-967.8187559999999
 31
0.0
  0
CIRCLE
  5
104A7
330
18
100
AcDbEntity
  8
0
100
AcDbCircle
 10
1284.431219
 20
-944.0687609999999
 30
0.0
 40
16.65
  0
LINE
  5
105C9
330
18
100
AcDbEntity
  8
0
100
AcDbLine
 10
68.428934
 20
-608.325154
 30
0.0
 11
-119.2893399999999
 21
-926.218756
 31
0.0
  0
LINE
  5
105CA
330
18
100
AcDbEntity
  8
0
100
AcDbLine
 10
-342.871066
 20
-593.592042
 30
0.0
 11
-146.4527919999999
 21
-926.218756
 31
0.0
  0
LINE
  5
105CB
330
18
100
AcDbEntity
  8
0
100
AcDbLine
 10
68.428934
 20
-602.621796
 30
0.0
 11
-122.452018
 21
-925.871273
 31
0.0
  0
LINE
  5
105CC
330
18
100
AcDbEntity
  8
0
100
AcDbLine
 10
-342.871066
 20
-587.8886839999998
 30
0.0
 11
-143.2901129999999
 21
-925.871273
 31
0.0
  0
ARC
  5
105CD
330
18
100
AcDbEntity
  8
0
100
AcDbCircle
 10
-132.8710659999998
 20
-919.7187559999999
 30
0.0
 40
12.09999999999999
100
AcDbArc
 50
210.562132
 51
212.49256
  0
LINE
  5
10629
330
18
100
AcDbEntity
  8
0
100
AcDbLine
 10
-342.871066
 20
-924.7488289999999
 30
0.0
 11
-143.2901129999999
 21
-586.76624
 31
0.0
  0
LINE
  5
1062A
330
18
100
AcDbEntity
  8
0
100
AcDbLine
 10
68.428934
 20
-910.0157170000001
 30
0.0
 11
-122.452018
 21
-586.76624
 31
0.0
  0
LINE
  5
1062B
330
18
100
AcDbEntity
  8
0
100
AcDbLine
 10
-342.871066
 20
-919.045471
 30
0.0
 11
-146.4527919999999
 21
-586.4187559999997
 31
0.0
  0
LINE
  5
1062C
330
18
100
AcDbEntity
  8
0
100
AcDbLine
 10
68.428934
 20
-904.312359
 30
0.0
 11
-119.2893399999999
 21
-586.4187559999997
 31
0.0
  0
ARC
  5
1062D
330
18
100
AcDbEntity
  8
0
100
AcDbCircle
 10
-132.8710659999998
 20
-592.9187559999998
 30
0.0
 40
12.09999999999999
100
AcDbArc
 50
30.562132
 51
32.49255999999999
  0
ARC
  5
10631
330
18
100
AcDbEntity
  8
0
100
AcDbCircle
 10
-132.8710659999998
 20
-592.9187559999998
 30
0.0
 40
12.09999999999999
100
AcDbArc
 50
147.50744
 51
149.4378679999998
  0
ARC
  5
10632
330
18
100
AcDbEntity
  8
0
100
AcDbCircle
 10
-132.8710659999998
 20
-919.7187559999999
 30
0.0
 40
12.09999999999999
100
AcDbArc
 50
327.5074399999998
 51
329.437868
  0
LINE
  5
10910
330
18
100
AcDbEntity
  8
0
100
AcDbLine
 10
454.3800759999999
 20
-760.568761
 30
0.0
 11
364.3800759999999
 21
-760.568761
 31
0.0
  0
LINE
  5
10911
330
18
100
AcDbEntity
  8
0
100
AcDbLine
 10
364.3800759999999
 20
-750.5687609999998
 30
0.0
 11
454.3800759999999
 21
-750.5687609999998
 31
0.0
  0
LINE
  5
10912
330
18
100
AcDbEntity
  8
0
100
AcDbLine
 10
364.3800759999999
 20
-760.568761
 30
0.0
 11
364.3800759999999
 21
-750.5687609999998
 31
0.0
  0
LINE
  5
10913
330
18
100
AcDbEntity
  8
0
100
AcDbLine
 10
484.3800759999999
 20
-755.5687609999998
 30
0.0
 11
454.3800759999999
 21
-768.068761
 31
0.0
  0
LINE
  5
10914
330
18
100
AcDbEntity
  8
0
100
AcDbLine
 10
454.3800759999999
 20
-743.0687609999998
 30
0.0
 11
484.3800759999999
 21
-755.5687609999998
 31
0.0
  0
LINE
  5
10915
330
18
100
AcDbEntity
  8
0
100
AcDbLine
 10
454.3800759999999
 20
-743.0687609999998
 30
0.0
 11
454.3800759999999
 21
-750.5687609999998
 31
0.0
  0
LINE
  5
10916
330
18
100
AcDbEntity
  8
0
100
AcDbLine
 10
454.3800759999999
 20
-760.568761
 30
0.0
 11
454.3800759999999
 21
-768.068761
 31
0.0
  0
LINE
  5
10935
330
18
100
AcDbEntity
  8
0
100
AcDbLine
 10
-342.8710655801253
 20
-592.2787492121996
 30
0.0
 11
-337.0110728591527
 21
-586.4187564912271
 31
0.0
  0
LINE
  5
10936
330
18
100
AcDbEntity
  8
0
100
AcDbLine
 10
-342.8710655801253
 20
-614.7293895148727
 30
0.0
 11
-314.5604325564799
 21
-586.4187564912271
 31
0.0
  0
LINE
  5
10937
330
18
100
AcDbEntity
  8
0
100
AcDbLine
 10
-342.8710655801252
 20
-637.1800298175456
 30
0.0
 11
-292.109792253807
 21
-586.4187564912271
 31
0.0
  0
LINE
  5
10938
330
18
100
AcDbEntity
  8
0
100
AcDbLine
 10
-342.8710655801253
 20
-659.6306701202185
 30
0.0
 11
-269.6591519511339
 21
-586.4187564912271
 31
0.0
  0
LINE
  5
10939
330
18
100
AcDbEntity
  8
0
100
AcDbLine
 10
-342.8710655801253
 20
-682.0813104228914
 30
0.0
 11
-247.208511648461
 21
-586.4187564912271
 31
0.0
  0
LINE
  5
1093A
330
18
100
AcDbEntity
  8
0
100
AcDbLine
 10
-342.8710655801253
 20
-704.5319507255642
 30
0.0
 11
-224.7578713457881
 21
-586.4187564912271
 31
0.0
  0
LINE
  5
1093B
330
18
100
AcDbEntity
  8
0
100
AcDbLine
 10
-342.8710655801253
 20
-726.9825910282371
 30
0.0
 11
-202.3072310431154
 21
-586.4187564912271
 31
0.0
  0
LINE
  5
1093C
330
18
100
AcDbEntity
  8
0
100
AcDbLine
 10
-342.8710655801253
 20
-749.4332313309098
 30
0.0
 11
-179.8565907404423
 21
-586.4187564912271
 31
0.0
  0
LINE
  5
1093D
330
18
100
AcDbEntity
  8
0
100
AcDbLine
 10
-342.8710655801253
 20
-771.8838716335827
 30
0.0
 11
-157.4059504377695
 21
-586.4187564912271
 31
0.0
  0
LINE
  5
1093E
330
18
100
AcDbEntity
  8
0
100
AcDbLine
 10
-342.8710655801253
 20
-794.3345119362559
 30
0.0
 11
-134.9553101350967
 21
-586.4187564912271
 31
0.0
  0
LINE
  5
1093F
330
18
100
AcDbEntity
  8
0
100
AcDbLine
 10
-342.8710655801253
 20
-816.7851522389288
 30
0.0
 11
-112.5046698324237
 21
-586.4187564912271
 31
0.0
  0
LINE
  5
10940
330
18
100
AcDbEntity
  8
0
100
AcDbLine
 10
-342.8710655801253
 20
-839.2357925416016
 30
0.0
 11
-90.05402952975101
 21
-586.4187564912271
 31
0.0
  0
LINE
  5
10941
330
18
100
AcDbEntity
  8
0
100
AcDbLine
 10
-342.8710655801253
 20
-861.6864328442746
 30
0.0
 11
-67.60338922707808
 21
-586.4187564912271
 31
0.0
  0
LINE
  5
10942
330
18
100
AcDbEntity
  8
0
100
AcDbLine
 10
-342.8710655801253
 20
-884.1370731469471
 30
0.0
 11
-45.15274892440515
 21
-586.4187564912271
 31
0.0
  0
LINE
  5
10943
330
18
100
AcDbEntity
  8
0
100
AcDbLine
 10
-342.8710655801253
 20
-906.5877134496203
 30
0.0
 11
-22.70210862173235
 21
-586.4187564912271
 31
0.0
  0
LINE
  5
10944
330
18
100
AcDbEntity
  8
0
100
AcDbLine
 10
-340.0514683190591
 20
-926.2187564912268
 30
0.0
 11
-0.2514683190594269
 21
-586.4187564912271
 31
0.0
  0
LINE
  5
10945
330
18
100
AcDbEntity
  8
0
100
AcDbLine
 10
-317.6008280163861
 20
-926.2187564912268
 30
0.0
 11
22.19917198361348
 21
-586.4187564912271
 31
0.0
  0
LINE
  5
10946
330
18
100
AcDbEntity
  8
0
100
AcDbLine
 10
-295.1501877137133
 20
-926.2187564912268
 30
0.0
 11
44.64981228628629
 21
-586.4187564912271
 31
0.0
  0
LINE
  5
10947
330
18
100
AcDbEntity
  8
0
100
AcDbLine
 10
-272.6995474110404
 20
-926.2187564912268
 30
0.0
 11
67.10045258895923
 21
-586.4187564912271
 31
0.0
  0
LINE
  5
10948
330
18
100
AcDbEntity
  8
0
100
AcDbLine
 10
-250.2489071083676
 20
-926.2187564912268
 30
0.0
 11
68.42893441987456
 21
-607.5409149629847
 31
0.0
  0
LINE
  5
10949
330
18
100
AcDbEntity
  8
0
100
AcDbLine
 10
-227.7982668056945
 20
-926.2187564912268
 30
0.0
 11
68.42893441987462
 21
-629.9915552656575
 31
0.0
  0
LINE
  5
1094A
330
18
100
AcDbEntity
  8
0
100
AcDbLine
 10
-205.3476265030218
 20
-926.2187564912268
 30
0.0
 11
68.42893441987462
 21
-652.4421955683306
 31
0.0
  0
LINE
  5
1094B
330
18
100
AcDbEntity
  8
0
100
AcDbLine
 10
-182.8969862003488
 20
-926.2187564912268
 30
0.0
 11
68.42893441987456
 21
-674.8928358710032
 31
0.0
  0
LINE
  5
1094C
330
18
100
AcDbEntity
  8
0
100
AcDbLine
 10
-160.4463458976759
 20
-926.2187564912268
 30
0.0
 11
68.42893441987462
 21
-697.343476173676
 31
0.0
  0
LINE
  5
1094D
330
18
100
AcDbEntity
  8
0
100
AcDbLine
 10
-137.9957055950031
 20
-926.2187564912268
 30
0.0
 11
68.42893441987462
 21
-719.794116476349
 31
0.0
  0
LINE
  5
1094E
330
18
100
AcDbEntity
  8
0
100
AcDbLine
 10
-115.5450652923302
 20
-926.2187564912268
 30
0.0
 11
68.42893441987468
 21
-742.2447567790219
 31
0.0
  0
LINE
  5
1094F
330
18
100
AcDbEntity
  8
0
100
AcDbLine
 10
-93.09442498965736
 20
-926.2187564912268
 30
0.0
 11
68.42893441987468
 21
-764.6953970816947
 31
0.0
  0
LINE
  5
10950
330
18
100
AcDbEntity
  8
0
100
AcDbLine
 10
-70.6437846869846
 20
-926.2187564912268
 30
0.0
 11
68.42893441987462
 21
-787.1460373843676
 31
0.0
  0
LINE
  5
10951
330
18
100
AcDbEntity
  8
0
100
AcDbLine
 10
-48.19314438431171
 20
-926.2187564912268
 30
0.0
 11
68.42893441987468
 21
-809.5966776870406
 31
0.0
  0
LINE
  5
10952
330
18
100
AcDbEntity
  8
0
100
AcDbLine
 10
-25.7425040816388
 20
-926.2187564912268
 30
0.0
 11
68.42893441987462
 21
-832.0473179897133
 31
0.0
  0
LINE
  5
10953
330
18
100
AcDbEntity
  8
0
100
AcDbLine
 10
-3.291863778965931
 20
-926.2187564912268
 30
0.0
 11
68.42893441987456
 21
-854.4979582923863
 31
0.0
  0
LINE
  5
10954
330
18
100
AcDbEntity
  8
0
100
AcDbLine
 10
19.15877652370692
 20
-926.2187564912268
 30
0.0
 11
68.42893441987479
 21
-876.948598595059
 31
0.0
  0
LINE
  5
10955
330
18
100
AcDbEntity
  8
0
100
AcDbLine
 10
41.60941682637985
 20
-926.2187564912268
 30
0.0
 11
68.42893441987462
 21
-899.399238897732
 31
0.0
  0
LINE
  5
10956
330
18
100
AcDbEntity
  8
0
100
AcDbLine
 10
64.06005712905261
 20
-926.2187564912268
 30
0.0
 11
68.42893441987475
 21
-921.849879200405
 31
0.0
  0
LINE
  5
10957
330
18
100
AcDbEntity
  8
0
100
AcDbLine
 10
-328.5664601557816
 20
-926.2187564912268
 30
0.0
 11
-342.8710655801253
 21
-911.9141510668832
 31
0.0
  0
LINE
  5
10958
330
18
100
AcDbEntity
  8
0
100
AcDbLine
 10
-306.1158198531088
 20
-926.2187564912268
 30
0.0
 11
-342.8710655801253
 21
-889.4635107642104
 31
0.0
  0
LINE
  5
10959
330
18
100
AcDbEntity
  8
0
100
AcDbLine
 10
-283.6651795504358
 20
-926.2187564912268
 30
0.0
 11
-342.8710655801253
 21
-867.0128704615374
 31
0.0
  0
LINE
  5
1095A
330
18
100
AcDbEntity
  8
0
100
AcDbLine
 10
-261.2145392477629
 20
-926.2187564912268
 30
0.0
 11
-342.8710655801253
 21
-844.5622301588644
 31
0.0
  0
LINE
  5
1095B
330
18
100
AcDbEntity
  8
0
100
AcDbLine
 10
-238.7638989450902
 20
-926.2187564912268
 30
0.0
 11
-342.8710655801253
 21
-822.1115898561917
 31
0.0
  0
LINE
  5
1095C
330
18
100
AcDbEntity
  8
0
100
AcDbLine
 10
-216.3132586424173
 20
-926.2187564912268
 30
0.0
 11
-342.8710655801252
 21
-799.6609495535188
 31
0.0
  0
LINE
  5
1095D
330
18
100
AcDbEntity
  8
0
100
AcDbLine
 10
-193.8626183397444
 20
-926.2187564912268
 30
0.0
 11
-342.8710655801253
 21
-777.2103092508459
 31
0.0
  0
LINE
  5
1095E
330
18
100
AcDbEntity
  8
0
100
AcDbLine
 10
-171.4119780370714
 20
-926.2187564912268
 30
0.0
 11
-342.8710655801253
 21
-754.759668948173
 31
0.0
  0
LINE
  5
1095F
330
18
100
AcDbEntity
  8
0
100
AcDbLine
 10
-148.9613377343985
 20
-926.2187564912268
 30
0.0
 11
-342.8710655801252
 21
-732.3090286455002
 31
0.0
  0
LINE
  5
10960
330
18
100
AcDbEntity
  8
0
100
AcDbLine
 10
-126.5106974317257
 20
-926.2187564912268
 30
0.0
 11
-342.8710655801253
 21
-709.8583883428273
 31
0.0
  0
LINE
  5
10961
330
18
100
AcDbEntity
  8
0
100
AcDbLine
 10
-104.0600571290529
 20
-926.2187564912268
 30
0.0
 11
-342.8710655801253
 21
-687.4077480401544
 31
0.0
  0
LINE
  5
10962
330
18
100
AcDbEntity
  8
0
100
AcDbLine
 10
-81.60941682638009
 20
-926.2187564912268
 30
0.0
 11
-342.8710655801252
 21
-664.9571077374815
 31
0.0
  0
LINE
  5
10963
330
18
100
AcDbEntity
  8
0
100
AcDbLine
 10
-59.15877652370728
 20
-926.2187564912268
 30
0.0
 11
-342.8710655801253
 21
-642.5064674348086
 31
0.0
  0
LINE
  5
10964
330
18
100
AcDbEntity
  8
0
100
AcDbLine
 10
-36.70813622103441
 20
-926.2187564912268
 30
0.0
 11
-342.8710655801253
 21
-620.0558271321357
 31
0.0
  0
LINE
  5
10965
330
18
100
AcDbEntity
  8
0
100
AcDbLine
 10
-14.25749591836147
 20
-926.2187564912268
 30
0.0
 11
-342.8710655801253
 21
-597.6051868294629
 31
0.0
  0
LINE
  5
10966
330
18
100
AcDbEntity
  8
0
100
AcDbLine
 10
8.193144384311381
 20
-926.2187564912268
 30
0.0
 11
-331.6068556156881
 21
-586.4187564912271
 31
0.0
  0
LINE
  5
10967
330
18
100
AcDbEntity
  8
0
100
AcDbLine
 10
30.64378468698425
 20
-926.2187564912268
 30
0.0
 11
-309.1562153130153
 21
-586.4187564912271
 31
0.0
  0
LINE
  5
10968
330
18
100
AcDbEntity
  8
0
100
AcDbLine
 10
53.09442498965717
 20
-926.2187564912268
 30
0.0
 11
-286.7055750103423
 21
-586.4187564912271
 31
0.0
  0
LINE
  5
10969
330
18
100
AcDbEntity
  8
0
100
AcDbLine
 10
68.42893441987468
 20
-919.1026256187711
 30
0.0
 11
-264.2549347076694
 21
-586.4187564912271
 31
0.0
  0
LINE
  5
1096A
330
18
100
AcDbEntity
  8
0
100
AcDbLine
 10
68.42893441987462
 20
-896.6519853160985
 30
0.0
 11
-241.8042944049966
 21
-586.4187564912271
 31
0.0
  0
LINE
  5
1096B
330
18
100
AcDbEntity
  8
0
100
AcDbLine
 10
68.42893441987468
 20
-874.2013450134258
 30
0.0
 11
-219.3536541023236
 21
-586.4187564912271
 31
0.0
  0
LINE
  5
1096C
330
18
100
AcDbEntity
  8
0
100
AcDbLine
 10
68.42893441987462
 20
-851.7507047107525
 30
0.0
 11
-196.9030137996508
 21
-586.4187564912271
 31
0.0
  0
LINE
  5
1096D
330
18
100
AcDbEntity
  8
0
100
AcDbLine
 10
68.42893441987456
 20
-829.3000644080796
 30
0.0
 11
-174.4523734969779
 21
-586.4187564912271
 31
0.0
  0
LINE
  5
1096E
330
18
100
AcDbEntity
  8
0
100
AcDbLine
 10
68.42893441987468
 20
-806.8494241054068
 30
0.0
 11
-152.0017331943049
 21
-586.4187564912271
 31
0.0
  0
LINE
  5
1096F
330
18
100
AcDbEntity
  8
0
100
AcDbLine
 10
68.42893441987462
 20
-784.3987838027341
 30
0.0
 11
-129.551092891632
 21
-586.4187564912271
 31
0.0
  0
LINE
  5
10970
330
18
100
AcDbEntity
  8
0
100
AcDbLine
 10
68.42893441987456
 20
-761.9481435000611
 30
0.0
 11
-107.1004525889593
 21
-586.4187564912271
 31
0.0
  0
LINE
  5
10971
330
18
100
AcDbEntity
  8
0
100
AcDbLine
 10
68.42893441987468
 20
-739.4975031973882
 30
0.0
 11
-84.64981228628635
 21
-586.4187564912271
 31
0.0
  0
LINE
  5
10972
330
18
100
AcDbEntity
  8
0
100
AcDbLine
 10
68.42893441987468
 20
-717.0468628947154
 30
0.0
 11
-62.19917198361354
 21
-586.4187564912271
 31
0.0
  0
LINE
  5
10973
330
18
100
AcDbEntity
  8
0
100
AcDbLine
 10
68.42893441987456
 20
-694.5962225920425
 30
0.0
 11
-39.74853168094067
 21
-586.4187564912271
 31
0.0
  0
LINE
  5
10974
330
18
100
AcDbEntity
  8
0
100
AcDbLine
 10
68.42893441987456
 20
-672.1455822893696
 30
0.0
 11
-17.29789137826776
 21
-586.4187564912271
 31
0.0
  0
LINE
  5
10975
330
18
100
AcDbEntity
  8
0
100
AcDbLine
 10
68.42893441987462
 20
-649.6949419866966
 30
0.0
 11
5.152748924405101
 21
-586.4187564912271
 31
0.0
  0
LINE
  5
10976
330
18
100
AcDbEntity
  8
0
100
AcDbLine
 10
68.42893441987462
 20
-627.2443016840237
 30
0.0
 11
27.60338922707797
 21
-586.4187564912271
 31
0.0
  0
LINE
  5
10977
330
18
100
AcDbEntity
  8
0
100
AcDbLine
 10
68.42893441987462
 20
-604.7936613813508
 30
0.0
 11
50.05402952975089
 21
-586.4187564912271
 31
0.0
  0
LINE
  5
10995
330
18
100
AcDbEntity
  8
0
100
AcDbLine
 10
796.3800769999999
 20
-919.0687609999999
 30
0.0
 11
872.3800769999998
 21
-919.0687609999999
 31
0.0
  0
LINE
  5
10996
330
18
100
AcDbEntity
  8
0
100
AcDbLine
 10
872.3800769999998
 20
-939.0687609999996
 30
0.0
 11
796.3800769999999
 21
-939.0687609999996
 31
0.0
  0
LINE
  5
10997
330
18
100
AcDbEntity
  8
0
100
AcDbLine
 10
798.3800769999999
 20
-921.068761
 30
0.0
 11
870.3800769999999
 21
-921.068761
 31
0.0
  0
LINE
  5
10998
330
18
100
AcDbEntity
  8
0
100
AcDbLine
 10
870.3800769999999
 20
-937.068761
 30
0.0
 11
798.3800769999999
 21
-937.068761
 31
0.0
  0
LINE
  5
10999
330
18
100
AcDbEntity
  8
0
100
AcDbLine
 10
794.3800769999999
 20
-937.068761
 30
0.0
 11
794.3800769999999
 21
-921.068761
 31
0.0
  0
ARC
  5
1099A
330
18
100
AcDbEntity
  8
0
100
AcDbCircle
 10
798.3800769999999
 20
-923.0687609999996
 30
0.0
 40
2.0
100
AcDbArc
 50
90.0
 51
180.0
  0
LINE
  5
1099C
330
18
100
AcDbEntity
  8
0
100
AcDbLine
 10
796.3800769999999
 20
-935.0687609999999
 30
0.0
 11
796.3800769999999
 21
-923.0687609999996
 31
0.0
  0
ARC
  5
1099D
330
18
100
AcDbEntity
  8
0
100
AcDbCircle
 10
796.3800769999999
 20
-937.068761
 30
0.0
 40
2.0
100
AcDbArc
 50
180.0
 51
270.0
  0
ARC
  5
1099E
330
18
100
AcDbEntity
  8
0
100
AcDbCircle
 10
798.3800769999999
 20
-935.0687609999999
 30
0.0
 40
2.0
100
AcDbArc
 50
180.0
 51
270.0
  0
ARC
  5
1099F
330
18
100
AcDbEntity
  8
0
100
AcDbCircle
 10
796.3800769999999
 20
-921.068761
 30
0.0
 40
2.0
100
AcDbArc
 50
90.0
 51
180.0
  0
LINE
  5
109A0
330
18
100
AcDbEntity
  8
0
100
AcDbLine
 10
874.3800769999998
 20
-921.068761
 30
0.0
 11
874.3800769999998
 21
-937.068761
 31
0.0
  0
ARC
  5
109A1
330
18
100
AcDbEntity
  8
0
100
AcDbCircle
 10
870.3800769999999
 20
-923.0687609999996
 30
0.0
 40
2.0
100
AcDbArc
 50
0.0
 51
90.0
  0
LINE
  5
109A2
330
18
100
AcDbEntity
  8
0
100
AcDbLine
 10
872.3800769999998
 20
-923.0687609999996
 30
0.0
 11
872.3800769999998
 21
-935.0687609999999
 31
0.0
  0
ARC
  5
109A3
330
18
100
AcDbEntity
  8
0
100
AcDbCircle
 10
872.3800769999998
 20
-937.068761
 30
0.0
 40
2.0
100
AcDbArc
 50
270.0
 51
0.0
  0
ARC
  5
109A4
330
18
100
AcDbEntity
  8
0
100
AcDbCircle
 10
870.3800769999999
 20
-935.0687609999999
 30
0.0
 40
2.0
100
AcDbArc
 50
270.0
 51
0.0
  0
ARC
  5
109A5
330
18
100
AcDbEntity
  8
0
100
AcDbCircle
 10
872.3800769999998
 20
-921.068761
 30
0.0
 40
2.0
100
AcDbArc
 50
0.0
 51
90.0
  0
LINE
  5
109F6
330
18
100
AcDbEntity
  8
0
100
AcDbLine
 10
828.8284882587188
 20
-898.7484759999999
 30
0.0
 11
837.3694138587188
 21
-898.7484759999999
 31
0.0
  0
LINE
  5
109F7
330
18
100
AcDbEntity
  8
0
100
AcDbLine
 10
828.8284882587188
 20
-895.5456289
 30
0.0
 11
837.7252857587189
 21
-895.5456289
 31
0.0
  0
ELLIPSE
  5
109F8
330
18
100
AcDbEntity
  8
0
100
AcDbEllipse
 10
830.9637196587187
 20
-904.7982982999998
 30
0.0
 11
-3.019673223595123
 21
3.019673223595123
 31
0.0
210
0.0
220
0.0
230
1.0
 40
0.9999999874753044
 41
-0.7853984838190776
 42
2.356194483929996
  0
LINE
  5
109F9
330
18
100
AcDbEntity
  8
0
100
AcDbLine
 10
786.8356004999998
 20
-895.5456289
 30
0.0
 11
790.3943194999998
 21
-895.5456289
 31
0.0
  0
ELLIPSE
  5
109FA
330
18
100
AcDbEntity
  8
0
100
AcDbEllipse
 10
786.4797285999999
 20
-905.1541701999999
 30
0.0
 11
-2.768033770961138
 21
2.768033770961138
 31
0.0
210
0.0
220
0.0
230
0.9999999999999998
 40
0.9999999999999856
 41
2.356194839258178
 42
3.926990816987248
  0
LINE
  5
109FB
330
18
100
AcDbEntity
  8
0
100
AcDbLine
 10
776.5153153999998
 20
-905.8659139999999
 30
0.0
 11
776.5153153999998
 21
-909.0687610999999
 31
0.0
  0
LINE
  5
109FC
330
18
100
AcDbEntity
  8
0
100
AcDbLine
 10
776.5153153999998
 20
-909.0687610999999
 30
0.0
 11
786.4797285999999
 21
-909.0687610999999
 31
0.0
  0
ELLIPSE
  5
109FD
330
18
100
AcDbEntity
  8
0
100
AcDbEllipse
 10
778.6505467999999
 20
-899.4602198
 30
0.0
 11
-3.019673204684887
 21
3.019673204684887
 31
0.0
210
0.0
220
0.0
230
1.0
 40
0.999999999999996
 41
0.7853978143316001
 42
2.356195013791118
  0
ELLIPSE
  5
109FE
330
18
100
AcDbEntity
  8
0
100
AcDbEllipse
 10
778.6505467999999
 20
-899.4602198
 30
0.0
 11
-3.019673204684944
 21
3.019673204684945
 31
0.0
210
0.0
220
0.0
230
1.0
 40
0.9999999999999733
 41
0.7853981633974616
 42
2.356194490192331
  0
LINE
  5
109FF
330
18
100
AcDbEntity
  8
0
100
AcDbLine
 10
776.5153153999998
 20
-905.8659139999999
 30
0.0
 11
785.7679847999999
 21
-905.8659139999999
 31
0.0
  0
LINE
  5
10A00
330
18
100
AcDbEntity
  8
0
100
AcDbLine
 10
774.3800839999999
 20
-895.5456289
 30
0.0
 11
777.9388029999998
 21
-895.5456289
 31
0.0
  0
LINE
  5
10A02
330
18
100
AcDbEntity
  8
0
100
AcDbLine
 10
779.0064186999999
 20
-900.5278354999999
 30
0.0
 11
785.7679847999999
 21
-900.5278354999999
 31
0.0
  0
LINE
  5
10A03
330
18
100
AcDbEntity
  8
0
100
AcDbLine
 10
778.6505467999999
 20
-903.7306826
 30
0.0
 11
785.7679847999999
 21
-903.7306826
 31
0.0
  0
LINE
  5
10A04
330
18
100
AcDbEntity
  8
0
100
AcDbLine
 10
777.9388029999998
 20
-895.5456289
 30
0.0
 11
777.9388029999998
 21
-899.4602198
 31
0.0
  0
LINE
  5
10A05
330
18
100
AcDbEntity
  8
0
100
AcDbLine
 10
786.8356004999998
 20
-895.5456289
 30
0.0
 11
786.8356004999998
 21
-899.4602198
 31
0.0
  0
LINE
  5
10A06
330
18
100
AcDbEntity
  8
0
100
AcDbLine
 10
786.8356004999998
 20
-902.6630668999999
 30
0.0
 11
786.8356004999998
 21
-904.7982982999998
 31
0.0
  0
ELLIPSE
  5
10A07
330
18
100
AcDbEntity
  8
0
100
AcDbEllipse
 10
779.0064186999999
 20
-899.4602198
 30
0.0
 11
-0.7549183011712102
 21
0.7549183011712102
 31
0.0
210
0.0
220
0.0
230
1.0
 40
0.9999999999999737
 41
0.7853978143316107
 42
2.356195013791107
  0
ELLIPSE
  5
10A08
330
18
100
AcDbEntity
  8
0
100
AcDbEllipse
 10
785.7679847999999
 20
-902.6630668999999
 30
0.0
 11
-0.7549183011711991
 21
0.7549183011711992
 31
0.0
210
0.0
220
0.0
230
1.0
 40
0.9999999999999728
 41
2.356194839258181
 42
3.926990816987254
  0
ELLIPSE
  5
10A09
330
18
100
AcDbEntity
  8
0
100
AcDbEllipse
 10
785.7679847999999
 20
-899.4602198
 30
0.0
 11
0.7549183011712354
 21
0.7549183011712353
 31
0.0
210
0.0
220
0.0
230
1.0
 40
0.9999999999998767
 41
3.926991166053153
 42
5.497787143782076
  0
ELLIPSE
  5
10A0A
330
18
100
AcDbEntity
  8
0
100
AcDbEllipse
 10
785.7679847999999
 20
-904.7982982999998
 30
0.0
 11
-0.7549183011711991
 21
0.7549183011711992
 31
0.0
210
0.0
220
0.0
230
1.0
 40
0.9999999999999728
 41
2.356194839258181
 42
3.926990816987254
  0
LINE
  5
10A0B
330
18
100
AcDbEntity
  8
0
100
AcDbLine
 10
807.8320461587189
 20
-895.5456289
 30
0.0
 11
820.6434345587188
 21
-895.5456289
 31
0.0
  0
LINE
  5
10A0C
330
18
100
AcDbEntity
  8
0
100
AcDbLine
 10
807.8320461587189
 20
-909.0687610999999
 30
0.0
 11
811.3907651587188
 21
-909.0687610999999
 31
0.0
  0
LINE
  5
10A0D
330
18
100
AcDbEntity
  8
0
100
AcDbLine
 10
807.8320461587189
 20
-895.5456289
 30
0.0
 11
807.8320461587189
 21
-909.0687610999999
 31
0.0
  0
LINE
  5
10A0E
330
18
100
AcDbEntity
  8
0
100
AcDbLine
 10
806.7644268999998
 20
-899.8160916999999
 30
0.0
 11
806.7644268999998
 21
-909.0687610999999
 31
0.0
  0
ELLIPSE
  5
10A0F
330
18
100
AcDbEntity
  8
0
100
AcDbEllipse
 10
795.7323979999999
 20
-904.7982982999998
 30
0.0
 11
-3.019673224005891
 21
3.019673224005891
 31
0.0
210
0.0
220
0.0
230
1.0
 40
0.9999999872032438
 41
-0.7853984839550813
 42
2.356194483793966
  0
LINE
  5
10A10
330
18
100
AcDbEntity
  8
0
100
AcDbLine
 10
795.7323979999999
 20
-909.0687610999999
 30
0.0
 11
806.7644268999998
 21
-909.0687610999999
 31
0.0
  0
LINE
  5
10A11
330
18
100
AcDbEntity
  8
0
100
AcDbLine
 10
795.7323979999999
 20
-905.8659139999999
 30
0.0
 11
803.2057078999999
 21
-905.8659139999999
 31
0.0
  0
LINE
  5
10A12
330
18
100
AcDbEntity
  8
0
100
AcDbLine
 10
793.5971665999999
 20
-898.7484759999999
 30
0.0
 11
802.1380921999998
 21
-898.7484759999999
 31
0.0
  0
LINE
  5
10A13
330
18
100
AcDbEntity
  8
0
100
AcDbLine
 10
793.5971665999999
 20
-895.5456289
 30
0.0
 11
802.4939676587187
 21
-895.5456289
 31
0.0
  0
LINE
  5
10A14
330
18
100
AcDbEntity
  8
0
100
AcDbLine
 10
795.7323979999999
 20
-903.7306826
 30
0.0
 11
803.2057078999999
 21
-903.7306826
 31
0.0
  0
LINE
  5
10A15
330
18
100
AcDbEntity
  8
0
100
AcDbLine
 10
795.7323979999999
 20
-900.5278354999999
 30
0.0
 11
803.2057078999999
 21
-900.5278354999999
 31
0.0
  0
LINE
  5
10A16
330
18
100
AcDbEntity
  8
0
100
AcDbLine
 10
790.3943194999998
 20
-895.5456289
 30
0.0
 11
790.3943194999998
 21
-905.1541701999999
 31
0.0
  0
LINE
  5
10A17
330
18
100
AcDbEntity
  8
0
100
AcDbLine
 10
793.5971665999999
 20
-895.5456289
 30
0.0
 11
793.5971665999999
 21
-898.7484759999999
 31
0.0
  0
ELLIPSE
  5
10A18
330
18
100
AcDbEntity
  8
0
100
AcDbEllipse
 10
795.7323979999999
 20
-904.7982982999998
 30
0.0
 11
-0.7549183697121604
 21
0.7549183697121604
 31
0.0
210
0.0
220
0.0
230
1.0
 40
0.9999998184150401
 41
-0.7853985683492447
 42
2.356194399399856
  0
LINE
  5
10A19
330
18
100
AcDbEntity
  8
0
100
AcDbLine
 10
803.2057078999999
 20
-899.8160916999999
 30
0.0
 11
803.2057078999999
 21
-900.5278354999999
 31
0.0
  0
LINE
  5
10A1A
330
18
100
AcDbEntity
  8
0
100
AcDbLine
 10
803.2057078999999
 20
-903.7306826
 30
0.0
 11
803.2057078999999
 21
-905.8659139999999
 31
0.0
  0
ELLIPSE
  5
10A1B
330
18
100
AcDbEntity
  8
0
100
AcDbEllipse
 10
802.1380921999998
 20
-899.8160916999999
 30
0.0
 11
-0.7549183011712759
 21
0.754918301171276
 31
0.0
210
0.0
220
0.0
230
1.0
 40
0.9999999999999706
 41
3.926990816987256
 42
5.497786829622815
  0
ELLIPSE
  5
10A1C
330
18
100
AcDbEntity
  8
0
100
AcDbEllipse
 10
802.4939676587187
 20
-899.8160916999999
 30
0.0
 11
3.019673204684958
 21
3.019673204684957
 31
0.0
210
0.0
220
0.0
230
1.0
 40
0.9999999999999605
 41
5.497787143782118
 42
7.068583156417773
  0
LINE
  5
10A1D
330
18
100
AcDbEntity
  8
0
100
AcDbLine
 10
825.6256411587187
 20
-900.5278354999999
 30
0.0
 11
825.6256411587187
 21
-909.0687610999999
 31
0.0
  0
LINE
  5
10A1E
330
18
100
AcDbEntity
  8
0
100
AcDbLine
 10
811.3907651587188
 20
-898.7484759999999
 30
0.0
 11
811.3907651587188
 21
-909.0687610999999
 31
0.0
  0
LINE
  5
10A1F
330
18
100
AcDbEntity
  8
0
100
AcDbLine
 10
822.0669221587188
 20
-900.1719636
 30
0.0
 11
822.0669221587188
 21
-909.0687610999999
 31
0.0
  0
LINE
  5
10A20
330
18
100
AcDbEntity
  8
0
100
AcDbLine
 10
818.5082031587189
 20
-899.8160916999999
 30
0.0
 11
818.5082031587189
 21
-909.0687610999999
 31
0.0
  0
LINE
  5
10A21
330
18
100
AcDbEntity
  8
0
100
AcDbLine
 10
814.9494841587188
 20
-900.1719636
 30
0.0
 11
814.9494841587188
 21
-909.0687610999999
 31
0.0
  0
LINE
  5
10A22
330
18
100
AcDbEntity
  8
0
100
AcDbLine
 10
814.9494841587188
 20
-909.0687610999999
 30
0.0
 11
818.5082031587189
 21
-909.0687610999999
 31
0.0
  0
LINE
  5
10A23
330
18
100
AcDbEntity
  8
0
100
AcDbLine
 10
822.0669221587188
 20
-909.0687610999999
 30
0.0
 11
825.6256411587187
 21
-909.0687610999999
 31
0.0
  0
LINE
  5
10A24
330
18
100
AcDbEntity
  8
0
100
AcDbLine
 10
817.4405838999998
 20
-898.7484759999999
 30
0.0
 11
820.6434345587188
 21
-898.7484759999999
 31
0.0
  0
LINE
  5
10A25
330
18
100
AcDbEntity
  8
0
100
AcDbLine
 10
811.3907651587188
 20
-898.7484759999999
 30
0.0
 11
813.5259965587188
 21
-898.7484759999999
 31
0.0
  0
ELLIPSE
  5
10A26
330
18
100
AcDbEntity
  8
0
100
AcDbEllipse
 10
813.5259965587188
 20
-900.1719636
 30
0.0
 11
1.006557734895024
 21
1.006557734895024
 31
0.0
210
0.0
220
0.0
230
1.0
 40
0.9999999999999117
 41
5.497787143782093
 42
7.068583156417797
  0
ELLIPSE
  5
10A27
330
18
100
AcDbEntity
  8
0
100
AcDbEllipse
 10
817.4405838999998
 20
-899.8160916999999
 30
0.0
 11
0.7549183011712537
 21
0.7549183011712536
 31
0.0
210
0.0
220
0.0
230
1.0
 40
0.9999999999999229
 41
5.497787143782099
 42
7.06858315641787
  0
LINE
  5
10A28
330
18
100
AcDbEntity
  8
0
100
AcDbLine
 10
828.8284882587188
 20
-895.5456289
 30
0.0
 11
828.8284882587188
 21
-898.7484759999999
 31
0.0
  0
ELLIPSE
  5
10A29
330
18
100
AcDbEntity
  8
0
100
AcDbEllipse
 10
820.6434345587188
 20
-900.1719636
 30
0.0
 11
1.006557734895024
 21
1.006557734895024
 31
0.0
210
0.0
220
0.0
230
1.0
 40
0.9999999999999117
 41
5.497787143782093
 42
7.068583156417797
  0
ELLIPSE
  5
10A2A
330
18
100
AcDbEntity
  8
0
100
AcDbEllipse
 10
820.6434345587188
 20
-900.5278354999999
 30
0.0
 11
3.522952072132441
 21
3.52295207213244
 31
0.0
210
0.0
220
0.0
230
0.9999999999999998
 40
0.9999999999999811
 41
5.497787143782128
 42
7.068583156417774
  0
ELLIPSE
  5
10A2B
330
18
100
AcDbEntity
  8
0
100
AcDbEllipse
 10
870.1096250999997
 20
-899.8160916999999
 30
0.0
 11
3.019673204684901
 21
3.019673204684901
 31
0.0
210
0.0
220
0.0
230
1.0
 40
0.9999999999999978
 41
5.497787143782137
 42
7.06858315641778
  0
LINE
  5
10A2C
330
18
100
AcDbEntity
  8
0
100
AcDbLine
 10
863.3480518825617
 20
-905.8659139999999
 30
0.0
 11
870.8213617825618
 21
-905.8659139999999
 31
0.0
  0
LINE
  5
10A2D
330
18
100
AcDbEntity
  8
0
100
AcDbLine
 10
863.3480589999997
 20
-909.0687610999999
 30
0.0
 11
874.3800807825618
 21
-909.0687610999999
 31
0.0
  0
LINE
  5
10A2E
330
18
100
AcDbEntity
  8
0
100
AcDbLine
 10
863.3480518825617
 20
-903.7306826
 30
0.0
 11
870.8213617825618
 21
-903.7306826
 31
0.0
  0
LINE
  5
10A2F
330
18
100
AcDbEntity
  8
0
100
AcDbLine
 10
863.3480589999997
 20
-900.5278354999999
 30
0.0
 11
870.8213617825618
 21
-900.5278354999999
 31
0.0
  0
ELLIPSE
  5
10A30
330
18
100
AcDbEntity
  8
0
100
AcDbEllipse
 10
869.7537496412808
 20
-899.8160916999999
 30
0.0
 11
-0.7549183011712759
 21
0.754918301171276
 31
0.0
210
0.0
220
0.0
230
1.0
 40
0.9999999999999706
 41
3.926990816987256
 42
5.497786829622921
  0
LINE
  5
10A31
330
18
100
AcDbEntity
  8
0
100
AcDbLine
 10
843.0633642587189
 20
-909.0687610999999
 30
0.0
 11
851.2484143999998
 21
-909.0687610999999
 31
0.0
  0
LINE
  5
10A32
330
18
100
AcDbEntity
  8
0
100
AcDbLine
 10
843.0633642587189
 20
-895.5456289
 30
0.0
 11
851.2484143999998
 21
-895.5456289
 31
0.0
  0
LINE
  5
10A33
330
18
100
AcDbEntity
  8
0
100
AcDbLine
 10
846.6220832587188
 20
-899.1043479
 30
0.0
 11
851.2484143999998
 21
-899.1043479
 31
0.0
  0
LINE
  5
10A34
330
18
100
AcDbEntity
  8
0
100
AcDbLine
 10
846.6220832587188
 20
-905.5100421
 30
0.0
 11
851.2484143999998
 21
-905.5100421
 31
0.0
  0
LINE
  5
10A35
330
18
100
AcDbEntity
  8
0
100
AcDbLine
 10
843.0633642587189
 20
-895.5456289
 30
0.0
 11
843.0633642587189
 21
-909.0687610999999
 31
0.0
  0
LINE
  5
10A36
330
18
100
AcDbEntity
  8
0
100
AcDbLine
 10
841.9957449999998
 20
-899.8160916999999
 30
0.0
 11
841.9957449999998
 21
-909.0687610999999
 31
0.0
  0
LINE
  5
10A37
330
18
100
AcDbEntity
  8
0
100
AcDbLine
 10
830.9637196587187
 20
-909.0687610999999
 30
0.0
 11
841.9957449999998
 21
-909.0687610999999
 31
0.0
  0
ELLIPSE
  5
10A38
330
18
100
AcDbEntity
  8
0
100
AcDbEllipse
 10
837.7252857587189
 20
-899.8160916999999
 30
0.0
 11
3.019673204684901
 21
3.019673204684901
 31
0.0
210
0.0
220
0.0
230
1.0
 40
0.9999999999999714
 41
5.497787143782123
 42
7.068583156417793
  0
LINE
  5
10A39
330
18
100
AcDbEntity
  8
0
100
AcDbLine
 10
830.9637196587187
 20
-905.8659139999999
 30
0.0
 11
838.4370259999998
 21
-905.8659139999999
 31
0.0
  0
LINE
  5
10A3A
330
18
100
AcDbEntity
  8
0
100
AcDbLine
 10
830.9637196587187
 20
-903.7306826
 30
0.0
 11
838.4370259999998
 21
-903.7306826
 31
0.0
  0
LINE
  5
10A3B
330
18
100
AcDbEntity
  8
0
100
AcDbLine
 10
830.9637196587187
 20
-900.5278354999999
 30
0.0
 11
838.4370259999998
 21
-900.5278354999999
 31
0.0
  0
LINE
  5
10A3C
330
18
100
AcDbEntity
  8
0
100
AcDbLine
 10
838.4370259999998
 20
-899.8160916999999
 30
0.0
 11
838.4370259999998
 21
-900.5278354999999
 31
0.0
  0
LINE
  5
10A3D
330
18
100
AcDbEntity
  8
0
100
AcDbLine
 10
838.4370259999998
 20
-903.7306826
 30
0.0
 11
838.4370259999998
 21
-905.8659139999999
 31
0.0
  0
ELLIPSE
  5
10A3E
330
18
100
AcDbEntity
  8
0
100
AcDbEllipse
 10
837.3694138587188
 20
-899.8160916999999
 30
0.0
 11
0.7549183011712537
 21
0.7549183011712536
 31
0.0
210
0.0
220
0.0
230
1.0
 40
0.9999999999999229
 41
5.497787143782099
 42
7.06858315641787
  0
ELLIPSE
  5
10A3F
330
18
100
AcDbEntity
  8
0
100
AcDbEllipse
 10
830.9637196587187
 20
-904.7982982999998
 30
0.0
 11
-0.7549183697634584
 21
0.7549183697634584
 31
0.0
210
0.0
220
0.0
230
0.9999999999999998
 40
0.9999998182790298
 41
-0.7853985684172498
 42
2.356194399331851
  0
LINE
  5
10A40
330
18
100
AcDbEntity
  8
0
100
AcDbLine
 10
846.6220832587188
 20
-899.1043479
 30
0.0
 11
846.6220832587188
 21
-905.5100421
 31
0.0
  0
ELLIPSE
  5
10A41
330
18
100
AcDbEntity
  8
0
100
AcDbEllipse
 10
863.3480589999997
 20
-904.7982982999998
 30
0.0
 11
-3.019673224005891
 21
3.019673224005891
 31
0.0
210
0.0
220
0.0
230
1.0
 40
0.9999999872032438
 41
-0.7853984839550813
 42
2.356194483793966
  0
ELLIPSE
  5
10A42
330
18
100
AcDbEntity
  8
0
100
AcDbEllipse
 10
851.2484143999998
 20
-902.307195
 30
0.0
 11
4.781149259056893
 21
4.781149259056893
 31
0.0
210
0.0
220
0.0
230
1.0
 40
0.9999999923424953
 41
3.926991169881849
 42
7.068583160246517
  0
ELLIPSE
  5
10A43
330
18
100
AcDbEntity
  8
0
100
AcDbEllipse
 10
851.2484143999998
 20
-902.307195
 30
0.0
 11
2.264754944472859
 21
2.264754944472858
 31
0.0
210
0.0
220
0.0
230
1.0
 40
0.9999999638290251
 41
3.926991184138579
 42
7.068583174503249
  0
LINE
  5
10A44
330
18
100
AcDbEntity
  8
0
100
AcDbLine
 10
861.2128275999998
 20
-898.7484759999999
 30
0.0
 11
869.7537496412808
 21
-898.7484759999999
 31
0.0
  0
LINE
  5
10A45
330
18
100
AcDbEntity
  8
0
100
AcDbLine
 10
861.2128275999998
 20
-895.5456289
 30
0.0
 11
861.2128275999998
 21
-898.7484759999999
 31
0.0
  0
ELLIPSE
  5
10A46
330
18
100
AcDbEntity
  8
0
100
AcDbEllipse
 10
863.3480518825617
 20
-904.7982982999998
 30
0.0
 11
-0.7549183697634584
 21
0.7549183697634584
 31
0.0
210
0.0
220
0.0
230
0.9999999999999998
 40
0.9999998182790298
 41
-0.7853985684172498
 42
2.356194399331851
  0
LINE
  5
10A47
330
18
100
AcDbEntity
  8
0
100
AcDbLine
 10
861.2128275999998
 20
-895.5456289
 30
0.0
 11
870.1096250999997
 21
-895.5456289
 31
0.0
  0
LINE
  5
10A48
330
18
100
AcDbEntity
  8
0
100
AcDbLine
 10
874.3800807825618
 20
-899.8160916999999
 30
0.0
 11
874.3800807825618
 21
-909.0687610999999
 31
0.0
  0
LINE
  5
10A49
330
18
100
AcDbEntity
  8
0
100
AcDbLine
 10
870.8213617825618
 20
-899.8160916999999
 30
0.0
 11
870.8213617825618
 21
-900.5278354999999
 31
0.0
  0
LINE
  5
10A4A
330
18
100
AcDbEntity
  8
0
100
AcDbLine
 10
870.8213617825618
 20
-903.7306826
 30
0.0
 11
870.8213617825618
 21
-905.8659139999999
 31
0.0
  0
SOLID
  5
10A53
330
18
100
AcDbEntity
  8
0
100
AcDbTrace
 10
803.8800769999999
 20
-925.5687609999997
 30
0.0
 11
803.8800769999999
 21
-925.6687609999996
 31
0.0
 12
803.5702939999998
 22
-925.5425129999997
 32
0.0
 13
803.542895
 23
-925.7013409999997
 33
0.0
  0
SOLID
  5
10A54
330
18
100
AcDbEntity
  8
0
100
AcDbTrace
 10
802.880077
 20
-922.9687609999997
 30
0.0
 11
803.8800769999999
 21
-922.9687609999997
 31
0.0
 12
802.880077
 22
-925.5687609999997
 32
0.0
 13
803.8800769999999
 23
-925.5687609999997
 33
0.0
  0
LINE
  5
10A58
330
18
100
AcDbEntity
  8
0
100
AcDbLine
 10
802.880077
 20
-922.9687609999997
 30
0.0
 11
803.8800769999999
 21
-922.9687609999997
 31
0.0
  0
ARC
  5
10A59
330
18
100
AcDbEntity
  8
0
100
AcDbCircle
 10
802.7800769999998
 20
-925.6687609999996
 30
0.0
 40
1.1
100
AcDbArc
 50
270.0000200000019
 51
0.0
  0
SOLID
  5
10A5A
330
18
100
AcDbEntity
  8
0
100
AcDbTrace
 10
800.580077
 20
-925.2687609999997
 30
0.0
 11
800.6800769999998
 21
-925.2687609999997
 31
0.0
 12
800.5473089999998
 22
-924.7312869999996
 32
0.0
 13
800.8364839999998
 23
-924.6920369999996
 33
0.0
  0
LINE
  5
10A5B
330
18
100
AcDbEntity
  8
0
100
AcDbLine
 10
800.580077
 20
-925.2687609999997
 30
0.0
 11
802.580077
 21
-925.2687609999997
 31
0.0
  0
SOLID
  5
10A5C
330
18
100
AcDbEntity
  8
0
100
AcDbTrace
 10
799.9800769999999
 20
-925.8687609999995
 30
0.0
 11
799.9800769999999
 21
-926.7687609999997
 31
0.0
 12
802.580077
 22
-925.8687609999995
 32
0.0
 13
802.580077
 23
-926.7687609999997
 33
0.0
  0
LINE
  5
10A5F
330
18
100
AcDbEntity
  8
0
100
AcDbLine
 10
799.9800769999999
 20
-925.8687609999995
 30
0.0
 11
802.580077
 21
-925.8687609999995
 31
0.0
  0
LINE
  5
10A60
330
18
100
AcDbEntity
  8
0
100
AcDbLine
 10
799.9800769999999
 20
-926.7687609999997
 30
0.0
 11
802.7800769999998
 21
-926.7687609999997
 31
0.0
  0
ARC
  5
10A61
330
18
100
AcDbEntity
  8
0
100
AcDbCircle
 10
800.6800769999998
 20
-924.0687609999996
 30
0.0
 40
0.3
100
AcDbArc
 50
179.9999799999979
 51
270.0000300000029
  0
LINE
  5
10A63
330
18
100
AcDbEntity
  8
0
100
AcDbLine
 10
799.3800769999999
 20
-922.9687609999997
 30
0.0
 11
799.3800769999999
 21
-924.0687609999996
 31
0.0
  0
LINE
  5
10A64
330
18
100
AcDbEntity
  8
0
100
AcDbLine
 10
799.3800769999999
 20
-922.9687609999997
 30
0.0
 11
800.3800769999999
 21
-922.9687609999997
 31
0.0
  0
LINE
  5
10A65
330
18
100
AcDbEntity
  8
0
100
AcDbLine
 10
800.3800769999999
 20
-922.9687609999997
 30
0.0
 11
800.3800769999999
 21
-924.0687609999996
 31
0.0
  0
LINE
  5
10A66
330
18
100
AcDbEntity
  8
0
100
AcDbLine
 10
799.9800769999999
 20
-925.8687609999995
 30
0.0
 11
799.9800769999999
 21
-926.7687609999997
 31
0.0
  0
ARC
  5
10A67
330
18
100
AcDbEntity
  8
0
100
AcDbCircle
 10
800.580077
 20
-924.0687609999996
 30
0.0
 40
1.199999999999999
100
AcDbArc
 50
179.9999799999979
 51
270.0000300000029
  0
SOLID
  5
10A68
330
18
100
AcDbEntity
  8
0
100
AcDbTrace
 10
802.580077
 20
-926.7687609999997
 30
0.0
 11
802.7800769999998
 21
-926.7687609999997
 31
0.0
 12
802.5673449999999
 22
-926.5726919999996
 32
0.0
 13
802.795373
 23
-926.5166499999997
 33
0.0
  0
SOLID
  5
10A69
330
18
100
AcDbEntity
  8
0
100
AcDbTrace
 10
802.580077
 20
-925.8687609999995
 30
0.0
 11
802.580077
 21
-926.7687609999997
 31
0.0
 12
802.580077
 22
-926.7687609999997
 32
0.0
 13
802.7800769999998
 23
-926.7687609999997
 33
0.0
  0
SOLID
  5
10A6A
330
18
100
AcDbEntity
  8
0
100
AcDbTrace
 10
800.6800769999998
 20
-925.2687609999997
 30
0.0
 11
800.6800769999998
 21
-924.3687609999996
 31
0.0
 12
802.580077
 22
-925.2687609999997
 32
0.0
 13
802.580077
 23
-924.3687609999996
 33
0.0
  0
LINE
  5
10A6C
330
18
100
AcDbEntity
  8
0
100
AcDbLine
 10
800.6800769999998
 20
-924.3687609999996
 30
0.0
 11
802.580077
 21
-924.3687609999996
 31
0.0
  0
LINE
  5
10A6D
330
18
100
AcDbEntity
  8
0
100
AcDbLine
 10
802.880077
 20
-922.9687609999997
 30
0.0
 11
802.880077
 21
-924.0687609999996
 31
0.0
  0
LINE
  5
10A6E
330
18
100
AcDbEntity
  8
0
100
AcDbLine
 10
802.880077
 20
-924.9687609999996
 30
0.0
 11
802.880077
 21
-925.5687609999997
 31
0.0
  0
ARC
  5
10A6F
330
18
100
AcDbEntity
  8
0
100
AcDbCircle
 10
802.580077
 20
-924.9687609999996
 30
0.0
 40
0.3
100
AcDbArc
 50
270.0000200000019
 51
0.0
  0
ARC
  5
10A70
330
18
100
AcDbEntity
  8
0
100
AcDbCircle
 10
802.580077
 20
-924.0687609999996
 30
0.0
 40
0.3
100
AcDbArc
 50
270.0000200000019
 51
0.0
  0
ARC
  5
10A71
330
18
100
AcDbEntity
  8
0
100
AcDbCircle
 10
802.580077
 20
-925.5687609999997
 30
0.0
 40
0.3
100
AcDbArc
 50
270.0000200000019
 51
0.0
  0
ARC
  5
10A73
330
18
100
AcDbEntity
  8
0
100
AcDbCircle
 10
819.8800789999999
 20
-924.1687609999997
 30
0.0
 40
1.199999999999999
100
AcDbArc
 50
0.0
 51
89.9999820000008
  0
ARC
  5
10A77
330
18
100
AcDbEntity
  8
0
100
AcDbCircle
 10
814.1800779999998
 20
-924.3687609999996
 30
0.0
 40
1.399999999999999
100
AcDbArc
 50
0.0
 51
89.9999820000008
  0
ARC
  5
10A78
330
18
100
AcDbEntity
  8
0
100
AcDbCircle
 10
808.1800769999999
 20
-924.1687609999997
 30
0.0
 40
1.199999999999999
100
AcDbArc
 50
0.0
 51
89.9999820000008
  0
SOLID
  5
10A79
330
18
100
AcDbEntity
  8
0
100
AcDbTrace
 10
815.5800779999999
 20
-924.3687609999996
 30
0.0
 11
814.580078
 21
-924.3687609999996
 31
0.0
 12
814.580078
 22
-924.2687609999997
 32
0.0
 13
814.580078
 23
-924.2687609999997
 33
0.0
  0
SOLID
  5
10A7A
330
18
100
AcDbEntity
  8
0
100
AcDbTrace
 10
815.5800779999999
 20
-926.7687609999997
 30
0.0
 11
814.580078
 21
-926.7687609999997
 31
0.0
 12
815.5800779999999
 22
-924.3687609999996
 32
0.0
 13
814.580078
 23
-924.3687609999996
 33
0.0
  0
LINE
  5
10A7C
330
18
100
AcDbEntity
  8
0
100
AcDbLine
 10
814.580078
 20
-926.7687609999997
 30
0.0
 11
815.5800779999999
 21
-926.7687609999997
 31
0.0
  0
SOLID
  5
10A7D
330
18
100
AcDbEntity
  8
0
100
AcDbTrace
 10
808.3800769999999
 20
-924.1687609999997
 30
0.0
 11
809.3800769999999
 21
-924.1687609999997
 31
0.0
 12
808.3800769999999
 22
-925.8687609999995
 32
0.0
 13
809.3800769999999
 23
-926.7687609999997
 33
0.0
  0
SOLID
  5
10A7E
330
18
100
AcDbEntity
  8
0
100
AcDbTrace
 10
806.2800779999999
 20
-925.8687609999995
 30
0.0
 11
806.2800769999999
 21
-926.7687609999997
 31
0.0
 12
808.3800769999999
 22
-925.8687609999995
 32
0.0
 13
809.3800769999999
 23
-926.7687609999997
 33
0.0
  0
LINE
  5
10A7F
330
18
100
AcDbEntity
  8
0
100
AcDbLine
 10
806.2800769999999
 20
-926.7687609999997
 30
0.0
 11
809.3800769999999
 21
-926.7687609999997
 31
0.0
  0
SOLID
  5
10A80
330
18
100
AcDbEntity
  8
0
100
AcDbTrace
 10
806.2800769999999
 20
-924.3687609999996
 30
0.0
 11
806.2800779999999
 21
-925.2687609999997
 31
0.0
 12
808.3800769999999
 22
-924.3687609999996
 32
0.0
 13
808.3800769999999
 23
-925.2687609999997
 33
0.0
  0
SOLID
  5
10A81
330
18
100
AcDbEntity
  8
0
100
AcDbTrace
 10
805.6800769999998
 20
-922.9687609999997
 30
0.0
 11
805.6800769999998
 21
-923.8687609999995
 31
0.0
 12
808.0800769999999
 22
-922.9687609999997
 32
0.0
 13
808.0800769999999
 23
-923.8687609999995
 33
0.0
  0
LINE
  5
10A83
330
18
100
AcDbEntity
  8
0
100
AcDbLine
 10
806.2800779999999
 20
-925.8687609999995
 30
0.0
 11
808.3800769999999
 21
-925.8687609999995
 31
0.0
  0
LINE
  5
10A84
330
18
100
AcDbEntity
  8
0
100
AcDbLine
 10
805.6800769999998
 20
-923.8687609999995
 30
0.0
 11
808.0800769999999
 21
-923.8687609999995
 31
0.0
  0
LINE
  5
10A85
330
18
100
AcDbEntity
  8
0
100
AcDbLine
 10
805.6800769999998
 20
-922.9687609999997
 30
0.0
 11
808.1800769999999
 21
-922.9687609999997
 31
0.0
  0
LINE
  5
10A86
330
18
100
AcDbEntity
  8
0
100
AcDbLine
 10
806.2800779999999
 20
-925.2687609999997
 30
0.0
 11
808.3800769999999
 21
-925.2687609999997
 31
0.0
  0
LINE
  5
10A87
330
18
100
AcDbEntity
  8
0
100
AcDbLine
 10
806.2800769999999
 20
-924.3687609999996
 30
0.0
 11
808.3800769999999
 21
-924.3687609999996
 31
0.0
  0
ARC
  5
10A88
330
18
100
AcDbEntity
  8
0
100
AcDbCircle
 10
806.2800769999999
 20
-925.5687609999997
 30
0.0
 40
1.199999999999999
100
AcDbArc
 50
89.9999820000008
 51
270.0
  0
ARC
  5
10A89
330
18
100
AcDbEntity
  8
0
100
AcDbCircle
 10
806.2800779999999
 20
-925.5687609999997
 30
0.0
 40
0.3
100
AcDbArc
 50
89.9999820000008
 51
270.0
  0
LINE
  5
10A8B
330
18
100
AcDbEntity
  8
0
100
AcDbLine
 10
803.8800769999999
 20
-922.9687609999997
 30
0.0
 11
803.8800769999999
 21
-925.6687609999996
 31
0.0
  0
LINE
  5
10A8C
330
18
100
AcDbEntity
  8
0
100
AcDbLine
 10
805.6800769999998
 20
-922.9687609999997
 30
0.0
 11
805.6800769999998
 21
-923.8687609999995
 31
0.0
  0
SOLID
  5
10A8D
330
18
100
AcDbEntity
  8
0
100
AcDbTrace
 10
808.0800769999999
 20
-922.9687609999997
 30
0.0
 11
808.1800769999999
 21
-922.9687609999997
 31
0.0
 12
808.0800769999999
 22
-923.5437609999996
 32
0.0
 13
808.287031
 23
-923.2996749999996
 33
0.0
  0
LINE
  5
10A8E
330
18
100
AcDbEntity
  8
0
100
AcDbLine
 10
808.3800769999999
 20
-924.1687609999997
 30
0.0
 11
808.3800769999999
 21
-924.3687609999996
 31
0.0
  0
LINE
  5
10A8F
330
18
100
AcDbEntity
  8
0
100
AcDbLine
 10
808.3800769999999
 20
-925.2687609999997
 30
0.0
 11
808.3800769999999
 21
-925.8687609999995
 31
0.0
  0
ARC
  5
10A90
330
18
100
AcDbEntity
  8
0
100
AcDbCircle
 10
808.0800769999999
 20
-924.1687609999997
 30
0.0
 40
0.3
100
AcDbArc
 50
0.0
 51
89.9999820000008
  0
ARC
  5
10A92
330
18
100
AcDbEntity
  8
0
100
AcDbCircle
 10
812.1800779999999
 20
-924.2687609999997
 30
0.0
 40
0.4
100
AcDbArc
 50
0.0
 51
89.9999820000008
  0
SOLID
  5
10A93
330
18
100
AcDbEntity
  8
0
100
AcDbTrace
 10
811.5800779999998
 20
-923.8687609999995
 30
0.0
 11
810.5800779999999
 21
-922.9687609999997
 31
0.0
 12
814.1800779999998
 22
-923.8687609999995
 32
0.0
 13
814.1800779999998
 23
-922.9687609999997
 33
0.0
  0
LINE
  5
10A94
330
18
100
AcDbEntity
  8
0
100
AcDbLine
 10
810.5800779999999
 20
-922.9687609999997
 30
0.0
 11
814.1800779999998
 21
-922.9687609999997
 31
0.0
  0
SOLID
  5
10A95
330
18
100
AcDbEntity
  8
0
100
AcDbTrace
 10
811.5800779999998
 20
-926.7687609999997
 30
0.0
 11
810.5800779999999
 21
-926.7687609999997
 31
0.0
 12
811.5800779999998
 22
-923.8687609999995
 32
0.0
 13
810.5800779999999
 23
-922.9687609999997
 33
0.0
  0
LINE
  5
10A96
330
18
100
AcDbEntity
  8
0
100
AcDbLine
 10
810.5800779999999
 20
-922.9687609999997
 30
0.0
 11
810.5800779999999
 21
-926.7687609999997
 31
0.0
  0
LINE
  5
10A97
330
18
100
AcDbEntity
  8
0
100
AcDbLine
 10
810.5800779999999
 20
-926.7687609999997
 30
0.0
 11
811.5800779999998
 21
-926.7687609999997
 31
0.0
  0
LINE
  5
10A98
330
18
100
AcDbEntity
  8
0
100
AcDbLine
 10
811.5800779999998
 20
-923.8687609999995
 30
0.0
 11
811.5800779999998
 21
-926.7687609999997
 31
0.0
  0
LINE
  5
10A99
330
18
100
AcDbEntity
  8
0
100
AcDbLine
 10
809.3800769999999
 20
-924.1687609999997
 30
0.0
 11
809.3800769999999
 21
-926.7687609999997
 31
0.0
  0
LINE
  5
10A9A
330
18
100
AcDbEntity
  8
0
100
AcDbLine
 10
811.5800779999998
 20
-923.8687609999995
 30
0.0
 11
812.1800779999999
 21
-923.8687609999995
 31
0.0
  0
SOLID
  5
10A9B
330
18
100
AcDbEntity
  8
0
100
AcDbTrace
 10
813.580078
 20
-924.2687609999997
 30
0.0
 11
813.580078
 21
-924.1687609999997
 31
0.0
 12
813.2669259999998
 22
-924.4406649999996
 32
0.0
 13
813.2800779999998
 23
-924.0187609999997
 33
0.0
  0
SOLID
  5
10A9C
330
18
100
AcDbEntity
  8
0
100
AcDbTrace
 10
813.580078
 20
-924.2687609999997
 30
0.0
 11
813.580078
 21
-924.1687609999997
 31
0.0
 12
813.2800779999998
 22
-924.0187609999997
 32
0.0
 13
812.9653279999999
 23
-924.2687609999997
 33
0.0
  0
SOLID
  5
10A9D
330
18
100
AcDbEntity
  8
0
100
AcDbTrace
 10
813.580078
 20
-926.7687609999997
 30
0.0
 11
812.580078
 21
-926.7687609999997
 31
0.0
 12
813.580078
 22
-924.2687609999997
 32
0.0
 13
812.580078
 23
-924.2687609999997
 33
0.0
  0
LINE
  5
10A9F
330
18
100
AcDbEntity
  8
0
100
AcDbLine
 10
814.580078
 20
-924.2687609999997
 30
0.0
 11
814.580078
 21
-926.7687609999997
 31
0.0
  0
LINE
  5
10AA0
330
18
100
AcDbEntity
  8
0
100
AcDbLine
 10
813.580078
 20
-924.1687609999997
 30
0.0
 11
813.580078
 21
-926.7687609999997
 31
0.0
  0
LINE
  5
10AA1
330
18
100
AcDbEntity
  8
0
100
AcDbLine
 10
812.580078
 20
-924.2687609999997
 30
0.0
 11
812.580078
 21
-926.7687609999997
 31
0.0
  0
LINE
  5
10AA2
330
18
100
AcDbEntity
  8
0
100
AcDbLine
 10
812.580078
 20
-926.7687609999997
 30
0.0
 11
813.580078
 21
-926.7687609999997
 31
0.0
  0
LINE
  5
10AA3
330
18
100
AcDbEntity
  8
0
100
AcDbLine
 10
813.2800779999998
 20
-923.8687609999995
 30
0.0
 11
814.1800779999998
 21
-923.8687609999995
 31
0.0
  0
ARC
  5
10AA4
330
18
100
AcDbEntity
  8
0
100
AcDbCircle
 10
814.1800779999998
 20
-924.2687609999997
 30
0.0
 40
0.4
100
AcDbArc
 50
0.0
 51
89.9999820000008
  0
ARC
  5
10AA5
330
18
100
AcDbEntity
  8
0
100
AcDbCircle
 10
813.2800779999998
 20
-924.1687609999997
 30
0.0
 40
0.3
100
AcDbArc
 50
0.0
 51
89.9999820000008
  0
LINE
  5
10AA6
330
18
100
AcDbEntity
  8
0
100
AcDbLine
 10
817.9800789999999
 20
-926.7687609999997
 30
0.0
 11
821.080079
 21
-926.7687609999997
 31
0.0
  0
SOLID
  5
10AA7
330
18
100
AcDbEntity
  8
0
100
AcDbTrace
 10
817.9800789999999
 20
-925.8687609999995
 30
0.0
 11
817.9800789999999
 21
-926.7687609999997
 31
0.0
 12
820.0800789999998
 22
-925.8687609999995
 32
0.0
 13
821.080079
 23
-926.7687609999997
 33
0.0
  0
SOLID
  5
10AA8
330
18
100
AcDbEntity
  8
0
100
AcDbTrace
 10
820.0800789999998
 20
-924.1687609999997
 30
0.0
 11
821.080079
 21
-924.1687609999997
 31
0.0
 12
820.0800789999998
 22
-925.8687609999995
 32
0.0
 13
821.080079
 23
-926.7687609999997
 33
0.0
  0
LINE
  5
10AA9
330
18
100
AcDbEntity
  8
0
100
AcDbLine
 10
817.9800789999999
 20
-924.3687609999996
 30
0.0
 11
820.0800789999998
 21
-924.3687609999996
 31
0.0
  0
LINE
  5
10AAA
330
18
100
AcDbEntity
  8
0
100
AcDbLine
 10
817.9800789999999
 20
-925.2687609999997
 30
0.0
 11
820.0800789999998
 21
-925.2687609999997
 31
0.0
  0
LINE
  5
10AAB
330
18
100
AcDbEntity
  8
0
100
AcDbLine
 10
817.9800789999999
 20
-925.8687609999995
 30
0.0
 11
820.0800789999998
 21
-925.8687609999995
 31
0.0
  0
SOLID
  5
10AAC
330
18
100
AcDbEntity
  8
0
100
AcDbTrace
 10
817.9800789999999
 20
-924.3687609999996
 30
0.0
 11
817.9800789999999
 21
-925.2687609999997
 31
0.0
 12
820.0800789999998
 22
-924.3687609999996
 32
0.0
 13
820.0800789999998
 23
-925.2687609999997
 33
0.0
  0
ARC
  5
10AAD
330
18
100
AcDbEntity
  8
0
100
AcDbCircle
 10
817.9800789999999
 20
-925.5687609999997
 30
0.0
 40
0.3
100
AcDbArc
 50
89.9999820000008
 51
270.0
  0
ARC
  5
10AAE
330
18
100
AcDbEntity
  8
0
100
AcDbCircle
 10
817.9800789999999
 20
-925.5687609999997
 30
0.0
 40
1.199999999999999
100
AcDbArc
 50
89.9999820000008
 51
270.0
  0
LINE
  5
10AAF
330
18
100
AcDbEntity
  8
0
100
AcDbLine
 10
817.3800789999999
 20
-922.9687609999997
 30
0.0
 11
819.8800789999999
 21
-922.9687609999997
 31
0.0
  0
LINE
  5
10AB0
330
18
100
AcDbEntity
  8
0
100
AcDbLine
 10
817.3800789999999
 20
-923.8687609999995
 30
0.0
 11
819.7800789999998
 21
-923.8687609999995
 31
0.0
  0
SOLID
  5
10AB2
330
18
100
AcDbEntity
  8
0
100
AcDbTrace
 10
817.3800789999999
 20
-922.9687609999997
 30
0.0
 11
817.3800789999999
 21
-923.8687609999995
 31
0.0
 12
819.7800789999998
 22
-922.9687609999997
 32
0.0
 13
819.7800789999998
 23
-923.8687609999995
 33
0.0
  0
LINE
  5
10AB4
330
18
100
AcDbEntity
  8
0
100
AcDbLine
 10
817.3800789999999
 20
-922.9687609999997
 30
0.0
 11
817.3800789999999
 21
-923.8687609999995
 31
0.0
  0
LINE
  5
10AB5
330
18
100
AcDbEntity
  8
0
100
AcDbLine
 10
815.5800779999999
 20
-924.3687609999996
 30
0.0
 11
815.5800779999999
 21
-926.7687609999997
 31
0.0
  0
ARC
  5
10AB6
330
18
100
AcDbEntity
  8
0
100
AcDbCircle
 10
819.7800789999998
 20
-924.1687609999997
 30
0.0
 40
0.3
100
AcDbArc
 50
0.0
 51
89.9999820000008
  0
LINE
  5
10AB7
330
18
100
AcDbEntity
  8
0
100
AcDbLine
 10
820.0800789999998
 20
-925.2687609999997
 30
0.0
 11
820.0800789999998
 21
-925.8687609999995
 31
0.0
  0
LINE
  5
10AB8
330
18
100
AcDbEntity
  8
0
100
AcDbLine
 10
820.0800789999998
 20
-924.1687609999997
 30
0.0
 11
820.0800789999998
 21
-924.3687609999996
 31
0.0
  0
SOLID
  5
10AB9
330
18
100
AcDbEntity
  8
0
100
AcDbTrace
 10
819.7800789999998
 20
-922.9687609999997
 30
0.0
 11
819.8800789999999
 21
-922.9687609999997
 31
0.0
 12
819.7800789999998
 22
-923.5437609999996
 32
0.0
 13
819.9870329999999
 23
-923.2996749999996
 33
0.0
  0
LINE
  5
10ABB
330
18
100
AcDbEntity
  8
0
100
AcDbLine
 10
823.2800769999998
 20
-925.7687609999997
 30
0.0
 11
824.5800759999999
 21
-925.7687609999997
 31
0.0
  0
LINE
  5
10ABC
330
18
100
AcDbEntity
  8
0
100
AcDbLine
 10
823.2800769999998
 20
-923.9687609999997
 30
0.0
 11
824.5800759999999
 21
-923.9687609999997
 31
0.0
  0
LINE
  5
10ABD
330
18
100
AcDbEntity
  8
0
100
AcDbLine
 10
822.2800769999999
 20
-922.9687609999997
 30
0.0
 11
824.5800759999999
 21
-922.9687609999997
 31
0.0
  0
LINE
  5
10ABE
330
18
100
AcDbEntity
  8
0
100
AcDbLine
 10
822.2800769999999
 20
-926.7687609999997
 30
0.0
 11
824.5800759999999
 21
-926.7687609999997
 31
0.0
  0
SOLID
  5
10ABF
330
18
100
AcDbEntity
  8
0
100
AcDbTrace
 10
824.5800759999999
 20
-922.9687609999997
 30
0.0
 11
824.5800759999999
 21
-923.9687609999997
 31
0.0
 12
822.2800769999999
 22
-922.9687609999997
 32
0.0
 13
823.2800769999998
 23
-923.9687609999997
 33
0.0
  0
SOLID
  5
10AC0
330
18
100
AcDbEntity
  8
0
100
AcDbTrace
 10
822.2800769999999
 20
-926.7687609999997
 30
0.0
 11
823.2800769999998
 21
-925.7687609999997
 31
0.0
 12
824.5800759999999
 22
-926.7687609999997
 32
0.0
 13
824.5800759999999
 23
-925.7687609999997
 33
0.0
  0
LINE
  5
10AC1
330
18
100
AcDbEntity
  8
0
100
AcDbLine
 10
821.080079
 20
-924.1687609999997
 30
0.0
 11
821.080079
 21
-926.7687609999997
 31
0.0
  0
LINE
  5
10AC2
330
18
100
AcDbEntity
  8
0
100
AcDbLine
 10
823.2800769999998
 20
-923.9687609999997
 30
0.0
 11
823.2800769999998
 21
-925.7687609999997
 31
0.0
  0
LINE
  5
10AC3
330
18
100
AcDbEntity
  8
0
100
AcDbLine
 10
822.2800769999999
 20
-922.9687609999997
 30
0.0
 11
822.2800769999999
 21
-926.7687609999997
 31
0.0
  0
SOLID
  5
10AC4
330
18
100
AcDbEntity
  8
0
100
AcDbTrace
 10
822.2800769999999
 20
-922.9687609999997
 30
0.0
 11
823.2800769999998
 21
-923.9687609999997
 31
0.0
 12
822.2800769999999
 22
-926.7687609999997
 32
0.0
 13
823.2800769999998
 23
-925.7687609999997
 33
0.0
  0
ARC
  5
10AC5
330
18
100
AcDbEntity
  8
0
100
AcDbCircle
 10
824.5800759999999
 20
-924.8687609999995
 30
0.0
 40
1.9
100
AcDbArc
 50
270.0000200000019
 51
89.9999820000008
  0
ARC
  5
10AC6
330
18
100
AcDbEntity
  8
0
100
AcDbCircle
 10
824.5800759999999
 20
-924.8687609999995
 30
0.0
 40
0.9
100
AcDbArc
 50
270.0000200000019
 51
89.9999820000008
  0
ARC
  5
10AC7
330
18
100
AcDbEntity
  8
0
100
AcDbCircle
 10
830.7800769999998
 20
-924.1687609999997
 30
0.0
 40
1.199999999999999
100
AcDbArc
 50
0.0
 51
89.9999820000008
  0
ARC
  5
10AC9
330
18
100
AcDbEntity
  8
0
100
AcDbCircle
 10
828.8800769999999
 20
-925.5687609999997
 30
0.0
 40
1.199999999999999
100
AcDbArc
 50
89.9999820000008
 51
270.0
  0
LINE
  5
10ACA
330
18
100
AcDbEntity
  8
0
100
AcDbLine
 10
828.8800769999999
 20
-924.3687609999996
 30
0.0
 11
830.9800769999998
 21
-924.3687609999996
 31
0.0
  0
LINE
  5
10ACB
330
18
100
AcDbEntity
  8
0
100
AcDbLine
 10
828.8800769999999
 20
-925.2687609999997
 30
0.0
 11
830.9800769999998
 21
-925.2687609999997
 31
0.0
  0
LINE
  5
10ACC
330
18
100
AcDbEntity
  8
0
100
AcDbLine
 10
828.2800769999999
 20
-922.9687609999997
 30
0.0
 11
830.7800769999998
 21
-922.9687609999997
 31
0.0
  0
LINE
  5
10ACD
330
18
100
AcDbEntity
  8
0
100
AcDbLine
 10
828.2800769999999
 20
-923.8687609999995
 30
0.0
 11
830.6800769999998
 21
-923.8687609999995
 31
0.0
  0
LINE
  5
10ACE
330
18
100
AcDbEntity
  8
0
100
AcDbLine
 10
828.8800769999999
 20
-925.8687609999995
 30
0.0
 11
830.9800769999998
 21
-925.8687609999995
 31
0.0
  0
SOLID
  5
10ACF
330
18
100
AcDbEntity
  8
0
100
AcDbTrace
 10
828.2800769999999
 20
-922.9687609999997
 30
0.0
 11
828.2800769999999
 21
-923.8687609999995
 31
0.0
 12
830.6800769999998
 22
-922.9687609999997
 32
0.0
 13
830.6800769999998
 23
-923.8687609999995
 33
0.0
  0
SOLID
  5
10AD0
330
18
100
AcDbEntity
  8
0
100
AcDbTrace
 10
828.8800769999999
 20
-924.3687609999996
 30
0.0
 11
828.8800769999999
 21
-925.2687609999997
 31
0.0
 12
830.9800769999998
 22
-924.3687609999996
 32
0.0
 13
830.9800769999998
 23
-925.2687609999997
 33
0.0
  0
LINE
  5
10AD1
330
18
100
AcDbEntity
  8
0
100
AcDbLine
 10
828.8800769999999
 20
-926.7687609999997
 30
0.0
 11
831.9800769999998
 21
-926.7687609999997
 31
0.0
  0
SOLID
  5
10AD2
330
18
100
AcDbEntity
  8
0
100
AcDbTrace
 10
828.8800769999999
 20
-925.8687609999995
 30
0.0
 11
828.8800769999999
 21
-926.7687609999997
 31
0.0
 12
830.9800769999998
 22
-925.8687609999995
 32
0.0
 13
831.9800769999998
 23
-926.7687609999997
 33
0.0
  0
LINE
  5
10AD3
330
18
100
AcDbEntity
  8
0
100
AcDbLine
 10
828.2800769999999
 20
-922.9687609999997
 30
0.0
 11
828.2800769999999
 21
-923.8687609999995
 31
0.0
  0
ARC
  5
10AD4
330
18
100
AcDbEntity
  8
0
100
AcDbCircle
 10
828.8800769999999
 20
-925.5687609999997
 30
0.0
 40
0.3
100
AcDbArc
 50
89.9999820000008
 51
270.0
  0
LINE
  5
10AD7
330
18
100
AcDbEntity
  8
0
100
AcDbLine
 10
831.9800769999998
 20
-924.1687609999997
 30
0.0
 11
831.9800769999998
 21
-926.7687609999997
 31
0.0
  0
ARC
  5
10AD8
330
18
100
AcDbEntity
  8
0
100
AcDbCircle
 10
830.6800769999998
 20
-924.1687609999997
 30
0.0
 40
0.3
100
AcDbArc
 50
0.0
 51
89.9999820000008
  0
LINE
  5
10AD9
330
18
100
AcDbEntity
  8
0
100
AcDbLine
 10
830.9800769999998
 20
-925.2687609999997
 30
0.0
 11
830.9800769999998
 21
-925.8687609999995
 31
0.0
  0
LINE
  5
10ADA
330
18
100
AcDbEntity
  8
0
100
AcDbLine
 10
830.9800769999998
 20
-924.1687609999997
 30
0.0
 11
830.9800769999998
 21
-924.3687609999996
 31
0.0
  0
SOLID
  5
10ADB
330
18
100
AcDbEntity
  8
0
100
AcDbTrace
 10
830.6800769999998
 20
-922.9687609999997
 30
0.0
 11
830.7800769999998
 21
-922.9687609999997
 31
0.0
 12
830.6800769999998
 22
-923.5437609999996
 32
0.0
 13
830.8870309999999
 23
-923.2996749999996
 33
0.0
  0
SOLID
  5
10ADC
330
18
100
AcDbEntity
  8
0
100
AcDbTrace
 10
830.9800769999998
 20
-924.1687609999997
 30
0.0
 11
831.9800769999998
 21
-924.1687609999997
 31
0.0
 12
830.9800769999998
 22
-925.8687609999995
 32
0.0
 13
831.9800769999998
 23
-926.7687609999997
 33
0.0
  0
ARC
  5
10B39
330
18
100
AcDbEntity
  8
0
100
AcDbCircle
 10
830.6800774669218
 20
-924.1687605330776
 30
0.0
 40
0.6249995330782138
100
AcDbArc
 50
359.9999571957052
 51
90.00004280428429
  0
ARC
  5
10B3A
330
18
100
AcDbEntity
  8
0
100
AcDbCircle
 10
828.8800764396935
 20
-925.568761560306
 30
0.0
 40
0.749999439693834
100
AcDbArc
 50
179.9999571957139
 51
270.000042804286
  0
ARC
  5
10B3B
330
18
100
AcDbEntity
  8
0
100
AcDbCircle
 10
828.8800764396935
 20
-925.5687604396932
 30
0.0
 40
0.749999439693834
100
AcDbArc
 50
89.99995719571394
 51
180.000042804286
  0
ARC
  5
10B3C
330
18
100
AcDbEntity
  8
0
100
AcDbCircle
 10
830.7800775603062
 20
-924.1687604396933
 30
0.0
 40
0.749999439693834
100
AcDbArc
 50
359.9999571957139
 51
90.00004280428605
  0
ARC
  5
10B3D
330
18
100
AcDbEntity
  8
0
100
AcDbCircle
 10
819.7800794669218
 20
-924.1687605330776
 30
0.0
 40
0.6249995330782138
100
AcDbArc
 50
359.9999571957052
 51
90.00004280428429
  0
ARC
  5
10B3E
330
18
100
AcDbEntity
  8
0
100
AcDbCircle
 10
817.9800784396935
 20
-925.568761560306
 30
0.0
 40
0.749999439693834
100
AcDbArc
 50
179.9999571957139
 51
270.000042804286
  0
ARC
  5
10B3F
330
18
100
AcDbEntity
  8
0
100
AcDbCircle
 10
817.9800784396935
 20
-925.5687604396932
 30
0.0
 40
0.749999439693834
100
AcDbArc
 50
89.99995719571394
 51
180.000042804286
  0
ARC
  5
10B40
330
18
100
AcDbEntity
  8
0
100
AcDbCircle
 10
813.2800781120611
 20
-924.1687608879383
 30
0.0
 40
0.1499998879387895
100
AcDbArc
 50
359.9999571956879
 51
90.00004280426868
  0
ARC
  5
10B41
330
18
100
AcDbEntity
  8
0
100
AcDbCircle
 10
808.0800774669219
 20
-924.1687605330776
 30
0.0
 40
0.6249995330782138
100
AcDbArc
 50
359.9999571957052
 51
90.00004280428429
  0
ARC
  5
10B42
330
18
100
AcDbEntity
  8
0
100
AcDbCircle
 10
806.2800769396934
 20
-925.5687610603068
 30
0.0
 40
0.7499999396935689
100
AcDbArc
 50
179.9999953928753
 51
270.0000810014511
  0
ARC
  5
10B43
330
18
100
AcDbEntity
  8
0
100
AcDbCircle
 10
806.2800764396936
 20
-925.5687604396932
 30
0.0
 40
0.749999439693834
100
AcDbArc
 50
89.99995719571394
 51
180.000042804286
  0
ARC
  5
10B44
330
18
100
AcDbEntity
  8
0
100
AcDbCircle
 10
814.1800784855988
 20
-924.2687605144007
 30
0.0
 40
0.6499995144013833
100
AcDbArc
 50
359.9999571957113
 51
90.00004280428873
  0
ARC
  5
10B45
330
18
100
AcDbEntity
  8
0
100
AcDbCircle
 10
808.1800775603062
 20
-924.1687604396933
 30
0.0
 40
0.749999439693834
100
AcDbArc
 50
359.9999571957139
 51
90.00004280428605
  0
ARC
  5
10B46
330
18
100
AcDbEntity
  8
0
100
AcDbCircle
 10
814.1800787097213
 20
-924.3687602902783
 30
0.0
 40
0.9499992902788484
100
AcDbArc
 50
359.9999571957176
 51
90.00004280428923
  0
ARC
  5
10B47
330
18
100
AcDbEntity
  8
0
100
AcDbCircle
 10
819.8800795603062
 20
-924.1687604396933
 30
0.0
 40
0.749999439693834
100
AcDbArc
 50
359.9999571957139
 51
90.00004280428605
  0
ARC
  5
10B48
330
18
100
AcDbEntity
  8
0
100
AcDbCircle
 10
812.1800785866405
 20
-924.2687604133589
 30
0.0
 40
0.7852494133595574
100
AcDbArc
 50
359.9999571957125
 51
90.00004280427916
  0
ARC
  5
10B49
330
18
100
AcDbEntity
  8
0
100
AcDbCircle
 10
802.5800771120611
 20
-924.9687611120609
 30
0.0
 40
0.1499998879386758
100
AcDbArc
 50
269.9999571957313
 51
0.0000428043121018
  0
LINE
  5
10B4A
330
18
100
AcDbEntity
  8
0
100
AcDbLine
 10
799.8800769999999
 20
-924.0687609999996
 30
0.0
 11
799.8800769999999
 21
-922.9687609999997
 31
0.0
  0
ARC
  5
10B4B
330
18
100
AcDbEntity
  8
0
100
AcDbCircle
 10
800.6800765891084
 20
-924.068761410891
 30
0.0
 40
0.5499995891087054
100
AcDbArc
 50
179.9999571957076
 51
270.0000428042923
  0
ARC
  5
10B4C
330
18
100
AcDbEntity
  8
0
100
AcDbCircle
 10
800.5800762902785
 20
-924.068761709721
 30
0.0
 40
0.9499992902788484
100
AcDbArc
 50
179.9999571957175
 51
270.0000428042891
  0
ARC
  5
10B4D
330
18
100
AcDbEntity
  8
0
100
AcDbCircle
 10
802.5800774664736
 20
-924.0687614664734
 30
0.0
 40
0.6243995335264041
100
AcDbArc
 50
269.9999571957176
 51
0.0000428042927121
  0
ARC
  5
10B4E
330
18
100
AcDbEntity
  8
0
100
AcDbCircle
 10
802.7800776318013
 20
-925.6687616318011
 30
0.0
 40
0.8456993681987883
100
AcDbArc
 50
269.99995719571
 51
0.0000428042822479
  0
ARC
  5
10B4F
330
18
100
AcDbEntity
  8
0
100
AcDbCircle
 10
802.5800774855987
 20
-925.5687614855984
 30
0.0
 40
0.6499995144012696
100
AcDbArc
 50
269.9999571957212
 51
0.000042804288719
  0
ARC
  5
10B50
330
18
100
AcDbEntity
  8
0
100
AcDbCircle
 10
824.5800770459052
 20
-924.8687620459049
 30
0.0
 40
1.399998954095103
100
AcDbArc
 50
269.9999571957127
 51
0.0000428042919401
  0
ARC
  5
10B51
330
18
100
AcDbEntity
  8
0
100
AcDbCircle
 10
824.5800770459052
 20
-924.8687599540943
 30
0.0
 40
1.399998954095103
100
AcDbArc
 50
359.9999571957127
 51
90.00004280428727
  0
VIEWPORT
  5
37
330
15
100
AcDbEntity
 67
     1
  8
0
100
AcDbViewport
 10
319.7983459167545
 20
210.0072899999999
 30
0.0
 40
655.9978488335088
 41
423.2100329999998
 68
     1
 69
     1
 12
319.7983459167545
 22
210.0072899999999
 13
0.0
 23
0.0
 14
10.0
 24
10.0
 15
10.0
 25
10.0
 16
0.0
 26
0.0
 36
1.0
 17
0.0
 27
0.0
 37
0.0
 42
50.0
 43
0.0
 44
0.0
 45
423.2100329999998
 50
0.0
 51
0.0
 72
   100
 90
    32768
  1

281
     0
 71
     1
 74
     0
110
0.0
120
0.0
130
0.0
111
1.0
121
0.0
131
0.0
112
0.0
122
1.0
132
0.0
 79
     0
146
0.0
  0
ENDSEC
  0
SECTION
  2
OBJECTS
  0
DICTIONARY
  5
C
330
0
100
AcDbDictionary
281
     1
  3
ACAD_GROUP
350
D
  3
ACAD_IMAGE_VARS
350
7A9
  3
ACAD_LAYOUT
350
1AD
  3
ACAD_MLINESTYLE
350
1B
  3
ACAD_PLOTSETTINGS
350
1AE
  3
ACAD_PLOTSTYLENAME
350
1AB
  3
AcDbVariableDictionary
350
10521
  0
DICTIONARY
  5
D
102
{ACAD_REACTORS
330
C
102
}
330
C
100
AcDbDictionary
281
     1
  3
*A1
350
7F42
  3
*A2
350
7F47
  3
*A3
350
7F48
  3
*A4
350
7F49
  3
*A5
350
7F4A
  3
*A6
350
FC93
  3
*A7
350
FC94
  3
*A8
350
FC95
  3
*A9
350
FC96
  3
*A10
350
FC97
  3
*A11
350
7F43
  3
*A12
350
7F44
  3
*A13
350
7F45
  3
*A14
350
7F46
  0
RASTERVARIABLES
  5
7A9
102
{ACAD_REACTORS
330
C
102
}
330
C
100
AcDbRasterVariables
 90
        0
 70
     1
 71
     1
 72
     0
  0
DICTIONARY
  5
1AD
102
{ACAD_REACTORS
330
C
102
}
330
C
100
AcDbDictionary
281
     1
  3
Model
350
1AF
  3
ﾚｲｱｳﾄ1
350
1B0
  0
DICTIONARY
  5
1B
102
{ACAD_REACTORS
330
C
102
}
330
C
100
AcDbDictionary
281
     1
  3
STANDARD
350
1C
  0
DICTIONARY
  5
1AE
102
{ACAD_REACTORS
330
C
102
}
330
C
100
AcDbDictionary
281
     1
  3
トレース紙Ａ２_LP-2150_WinNT40
350
CDE
  3
普通紙Ａ２からＡ３_NX610
350
CDF
  0
ACDBDICTIONARYWDFLT
  5
1AB
102
{ACAD_REACTORS
330
C
102
}
330
C
100
AcDbDictionary
281
     1
  3
Normal
350
1AC
100
AcDbDictionaryWithDefault
340
1AC
  0
DICTIONARY
  5
10521
102
{ACAD_REACTORS
330
C
102
}
330
C
100
AcDbDictionary
281
     1
  3
SORTENTS
350
10522
  0
GROUP
  5
7F42
102
{ACAD_REACTORS
330
D
102
}
330
D
100
AcDbGroup
300

 70
     1
 71
     1
  0
GROUP
  5
7F47
102
{ACAD_REACTORS
330
D
102
}
330
D
100
AcDbGroup
300

 70
     1
 71
     1
  0
GROUP
  5
7F48
102
{ACAD_REACTORS
330
D
102
}
330
D
100
AcDbGroup
300

 70
     1
 71
     1
  0
GROUP
  5
7F49
102
{ACAD_REACTORS
330
D
102
}
330
D
100
AcDbGroup
300

 70
     1
 71
     1
  0
GROUP
  5
7F4A
102
{ACAD_REACTORS
330
D
102
}
330
D
100
AcDbGroup
300

 70
     1
 71
     1
  0
GROUP
  5
FC93
102
{ACAD_REACTORS
330
D
102
}
330
D
100
AcDbGroup
300

 70
     1
 71
     1
  0
GROUP
  5
FC94
102
{ACAD_REACTORS
330
D
102
}
330
D
100
AcDbGroup
300

 70
     1
 71
     1
  0
GROUP
  5
FC95
102
{ACAD_REACTORS
330
D
102
}
330
D
100
AcDbGroup
300

 70
     1
 71
     1
  0
GROUP
  5
FC96
102
{ACAD_REACTORS
330
D
102
}
330
D
100
AcDbGroup
300

 70
     1
 71
     1
  0
GROUP
  5
FC97
102
{ACAD_REACTORS
330
D
102
}
330
D
100
AcDbGroup
300

 70
     1
 71
     1
  0
GROUP
  5
7F43
102
{ACAD_REACTORS
330
D
102
}
330
D
100
AcDbGroup
300

 70
     1
 71
     1
  0
GROUP
  5
7F44
102
{ACAD_REACTORS
330
D
102
}
330
D
100
AcDbGroup
300

 70
     1
 71
     1
  0
GROUP
  5
7F45
102
{ACAD_REACTORS
330
D
102
}
330
D
100
AcDbGroup
300

 70
     1
 71
     1
  0
GROUP
  5
7F46
102
{ACAD_REACTORS
330
D
102
}
330
D
100
AcDbGroup
300

 70
     1
 71
     1
  0
LAYOUT
  5
1AF
102
{ACAD_REACTORS
330
1AD
102
}
330
1AD
100
AcDbPlotSettings
  1
モデル
  2
FUJITSU XL-5800
  4
モデル
  6

 40
5.87375
 41
5.704405999999998
 42
5.873749
 43
5.873749
 44
210.057999
 45
296.925995
 46
-934.06
 47
-482.3299999999998
 48
0.0
 49
0.0
140
0.0
141
0.0
142
1.0
143
1.0
 70
 11956
 72
     1
 73
     0
 74
     0
  7
LineScale_10.ctb
 75
    16
147
1.0
148
1033.210332
149
625.0
100
AcDbLayout
  1
Model
 70
     0
 71
     0
 10
0.0
 20
0.0
 11
12.0
 21
9.0
 12
0.0
 22
0.0
 32
0.0
 14
0.0
 24
0.0
 34
0.0
 15
0.0
 25
0.0
 35
0.0
146
0.0
 13
0.0
 23
0.0
 33
0.0
 16
1.0
 26
0.0
 36
0.0
 17
0.0
 27
1.0
 37
0.0
 76
     0
330
18
  0
LAYOUT
  5
1B0
102
{ACAD_REACTORS
330
1AD
102
}
330
1AD
100
AcDbPlotSettings
  1

  2
SII LP-2150 (D-SCAN)
  4

  6
A1
 40
3.174999999999998
 41
3.174999999999998
 42
3.174987999999998
 43
3.174987999999998
 44
593.979004
 45
419.988983
 46
-0.8100000000000001
 47
-3.799999999999998
 48
0.0
 49
0.0
140
841.0
141
594.0
142
1.0
143
1.0
 70
   688
 72
     1
 73
     0
 74
     4
  7
LineScale_10.ctb
 75
    16
147
1.0
148
0.0
149
0.0
100
AcDbLayout
  1
ﾚｲｱｳﾄ1
 70
     1
 71
     1
 10
-0.027002
 20
-0.030288
 11
593.927183
 21
419.94639
 12
0.0
 22
0.0
 32
0.0
 14
0.0
 24
0.0
 34
0.0
 15
594.0
 25
420.0
 35
0.0
146
0.0
 13
0.0
 23
0.0
 33
0.0
 16
1.0
 26
0.0
 36
0.0
 17
0.0
 27
1.0
 37
0.0
 76
     0
330
15
331
37
  0
MLINESTYLE
  5
1C
102
{ACAD_REACTORS
330
1B
102
}
330
1B
100
AcDbMlineStyle
  2
STANDARD
 70
     0
  3

 62
   256
 51
90.0
 52
90.0
 71
     2
 49
0.5
 62
   256
  6
BYLAYER
 49
-0.5
 62
   256
  6
BYLAYER
  0
PLOTSETTINGS
  5
CDE
102
{ACAD_REACTORS
330
1AE
102
}
330
1AE
100
AcDbPlotSettings
  1
トレース紙Ａ２_LP-2150_WinNT40
  2
SII LP-2150 (D-SCAN)
  4
User118
  6
A1
 40
3.174999952316283
 41
3.174999952316283
 42
3.17498779296875
 43
3.17498779296875
 44
593.97900390625
 45
419.9889831542968
 46
-0.8100000000000001
 47
-3.799999999999998
 48
0.0
 49
0.0
140
841.0
141
594.0
142
1.0
143
1.0
 70
   688
 72
     1
 73
     0
 74
     4
  7
LineScale_10.ctb
 75
    16
147
1.0
148
0.0
149
0.0
  0
PLOTSETTINGS
  5
CDF
102
{ACAD_REACTORS
330
1AE
102
}
330
1AE
100
AcDbPlotSettings
  1
普通紙Ａ２からＡ３_NX610
  2
RICOH IPSiO NX610
  4
A3
  6
A1
 40
5.831416606903076
 41
4.307413101196288
 42
8.244415283203125
 43
5.789093017578125
 44
296.9683227539062
 45
419.9889831542968
 46
-5.809999999999998
 47
-5.769999999999998
 48
0.0
 49
0.0
140
594.0
141
420.0
142
0.7071066999999999
143
1.0
 70
   672
 72
     1
 73
     1
 74
     4
  7
LineScale_07.ctb
 75
     0
147
0.7071066999999999
148
0.0
149
0.0
  0
ACDBPLACEHOLDER
  5
1AC
102
{ACAD_REACTORS
330
1AB
102
}
330
1AB
  0
DICTIONARYVAR
  5
10522
102
{ACAD_REACTORS
330
10521
102
}
330
10521
100
DictionaryVariables
280
     0
  1
96
  0
ENDSEC
  0
EOF
