  0
SECTION
  2
HEADER
  9
$ACADVER
  1
AC1015
  9
$ACADMAINTVER
 70
     6
  9
$DWGCODEPAGE
  3
ANSI_932
  9
$INSBASE
 10
0.0
 20
0.0
 30
0.0
  9
$EXTMIN
 10
-973.535047
 20
-96.53200599999999
 30
0.0
  9
$EXTMAX
 10
440.0917269999998
 20
1753.305123999999
 30
0.0
  9
$LIMMIN
 10
-841.0
 20
-594.0
  9
$LIMMAX
 10
841.0
 20
594.0
  9
$ORTHOMODE
 70
     0
  9
$REGENMODE
 70
     1
  9
$FILLMODE
 70
     1
  9
$QTEXTMODE
 70
     0
  9
$MIRRTEXT
 70
     0
  9
$LTSCALE
 40
7.0
  9
$ATTMODE
 70
     1
  9
$TEXTSIZE
 40
3.2
  9
$TRACEWID
 40
1.0
  9
$TEXTSTYLE
  7
DIMFONT
  9
$CLAYER
  8
0
  9
$CELTYPE
  6
ByLayer
  9
$CECOLOR
 62
   256
  9
$CELTSCALE
 40
1.0
  9
$DISPSILH
 70
     0
  9
$DIMSCALE
 40
5.0
  9
$DIMASZ
 40
3.0
  9
$DIMEXO
 40
0.0
  9
$DIMDLI
 40
10.0
  9
$DIMRND
 40
0.0
  9
$DIMDLE
 40
0.0
  9
$DIMEXE
 40
1.0
  9
$DIMTP
 40
0.0
  9
$DIMTM
 40
0.0
  9
$DIMTXT
 40
3.2
  9
$DIMCEN
 40
0.0
  9
$DIMTSZ
 40
0.0
  9
$DIMTOL
 70
     0
  9
$DIMLIM
 70
     0
  9
$DIMTIH
 70
     0
  9
$DIMTOH
 70
     0
  9
$DIMSE1
 70
     0
  9
$DIMSE2
 70
     0
  9
$DIMTAD
 70
     3
  9
$DIMZIN
 70
     8
  9
$DIMBLK
  1

  9
$DIMASO
 70
     1
  9
$DIMSHO
 70
     1
  9
$DIMPOST
  1

  9
$DIMAPOST
  1

  9
$DIMALT
 70
     0
  9
$DIMALTD
 70
     2
  9
$DIMALTF
 40
25.4
  9
$DIMLFAC
 40
1.0
  9
$DIMTOFL
 70
     1
  9
$DIMTVP
 40
0.0
  9
$DIMTIX
 70
     0
  9
$DIMSOXD
 70
     0
  9
$DIMSAH
 70
     1
  9
$DIMBLK1
  1
OPEN
  9
$DIMBLK2
  1
OPEN
  9
$DIMSTYLE
  2
1_5
  9
$DIMCLRD
 70
     0
  9
$DIMCLRE
 70
     0
  9
$DIMCLRT
 70
     0
  9
$DIMTFAC
 40
0.75
  9
$DIMGAP
 40
1.0
  9
$DIMJUST
 70
     0
  9
$DIMSD1
 70
     0
  9
$DIMSD2
 70
     0
  9
$DIMTOLJ
 70
     1
  9
$DIMTZIN
 70
     8
  9
$DIMALTZ
 70
     0
  9
$DIMALTTZ
 70
     0
  9
$DIMUPT
 70
     0
  9
$DIMDEC
 70
     4
  9
$DIMTDEC
 70
     4
  9
$DIMALTU
 70
     2
  9
$DIMALTTD
 70
     2
  9
$DIMTXSTY
  7
DIMFONT
  9
$DIMAUNIT
 70
     0
  9
$DIMADEC
 70
     2
  9
$DIMALTRND
 40
0.0
  9
$DIMAZIN
 70
     2
  9
$DIMDSEP
 70
    46
  9
$DIMATFIT
 70
     1
  9
$DIMFRAC
 70
     0
  9
$DIMLDRBLK
  1

  9
$DIMLUNIT
 70
     2
  9
$DIMLWD
 70
    -2
  9
$DIMLWE
 70
    -2
  9
$DIMTMOVE
 70
     0
  9
$LUNITS
 70
     2
  9
$LUPREC
 70
     4
  9
$SKETCHINC
 40
1.0
  9
$FILLETRAD
 40
0.7693
  9
$AUNITS
 70
     0
  9
$AUPREC
 70
     4
  9
$MENU
  1
acad
  9
$ELEVATION
 40
0.0
  9
$PELEVATION
 40
0.0
  9
$THICKNESS
 40
0.0
  9
$LIMCHECK
 70
     0
  9
$CHAMFERA
 40
0.0
  9
$CHAMFERB
 40
0.0
  9
$CHAMFERC
 40
0.0
  9
$CHAMFERD
 40
0.0
  9
$SKPOLY
 70
     0
  9
$TDCREATE
 40
2453365.412152407
  9
$TDUCREATE
 40
2453365.037152407
  9
$TDUPDATE
 40
2453634.447191470
  9
$TDUUPDATE
 40
2453634.072191470
  9
$TDINDWG
 40
1.2178763773
  9
$TDUSRTIMER
 40
1.2178758565
  9
$USRTIMER
 70
     1
  9
$ANGBASE
 50
0.0
  9
$ANGDIR
 70
     0
  9
$PDMODE
 70
    35
  9
$PDSIZE
 40
0.5
  9
$PLINEWID
 40
0.0
  9
$SPLFRAME
 70
     0
  9
$SPLINETYPE
 70
     6
  9
$SPLINESEGS
 70
     8
  9
$HANDSEED
  5
3A1B
  9
$SURFTAB1
 70
     6
  9
$SURFTAB2
 70
     6
  9
$SURFTYPE
 70
     6
  9
$SURFU
 70
     6
  9
$SURFV
 70
     6
  9
$UCSBASE
  2

  9
$UCSNAME
  2

  9
$UCSORG
 10
0.0
 20
0.0
 30
0.0
  9
$UCSXDIR
 10
1.0
 20
0.0
 30
0.0
  9
$UCSYDIR
 10
0.0
 20
1.0
 30
0.0
  9
$UCSORTHOREF
  2

  9
$UCSORTHOVIEW
 70
     0
  9
$UCSORGTOP
 10
0.0
 20
0.0
 30
0.0
  9
$UCSORGBOTTOM
 10
0.0
 20
0.0
 30
0.0
  9
$UCSORGLEFT
 10
0.0
 20
0.0
 30
0.0
  9
$UCSORGRIGHT
 10
0.0
 20
0.0
 30
0.0
  9
$UCSORGFRONT
 10
0.0
 20
0.0
 30
0.0
  9
$UCSORGBACK
 10
0.0
 20
0.0
 30
0.0
  9
$PUCSBASE
  2

  9
$PUCSNAME
  2

  9
$PUCSORG
 10
0.0
 20
0.0
 30
0.0
  9
$PUCSXDIR
 10
1.0
 20
0.0
 30
0.0
  9
$PUCSYDIR
 10
0.0
 20
1.0
 30
0.0
  9
$PUCSORTHOREF
  2

  9
$PUCSORTHOVIEW
 70
     0
  9
$PUCSORGTOP
 10
0.0
 20
0.0
 30
0.0
  9
$PUCSORGBOTTOM
 10
0.0
 20
0.0
 30
0.0
  9
$PUCSORGLEFT
 10
0.0
 20
0.0
 30
0.0
  9
$PUCSORGRIGHT
 10
0.0
 20
0.0
 30
0.0
  9
$PUCSORGFRONT
 10
0.0
 20
0.0
 30
0.0
  9
$PUCSORGBACK
 10
0.0
 20
0.0
 30
0.0
  9
$USERI1
 70
     0
  9
$USERI2
 70
     0
  9
$USERI3
 70
     0
  9
$USERI4
 70
     0
  9
$USERI5
 70
     0
  9
$USERR1
 40
0.0
  9
$USERR2
 40
0.0
  9
$USERR3
 40
0.0
  9
$USERR4
 40
0.0
  9
$USERR5
 40
0.0
  9
$WORLDVIEW
 70
     1
  9
$SHADEDGE
 70
     3
  9
$SHADEDIF
 70
    70
  9
$TILEMODE
 70
     1
  9
$MAXACTVP
 70
    48
  9
$PINSBASE
 10
0.0
 20
0.0
 30
0.0
  9
$PLIMCHECK
 70
     0
  9
$PEXTMIN
 10
1.000000000000000E+20
 20
1.000000000000000E+20
 30
1.000000000000000E+20
  9
$PEXTMAX
 10
-1.000000000000000E+20
 20
-1.000000000000000E+20
 30
-1.000000000000000E+20
  9
$PLIMMIN
 10
1.592759999999999
 20
-1.235669
  9
$PLIMMAX
 10
595.726569
 20
418.681148
  9
$UNITMODE
 70
     0
  9
$VISRETAIN
 70
     0
  9
$PLINEGEN
 70
     1
  9
$PSLTSCALE
 70
     1
  9
$TREEDEPTH
 70
  3020
  9
$CMLSTYLE
  2
STANDARD
  9
$CMLJUST
 70
     0
  9
$CMLSCALE
 40
20.0
  9
$PROXYGRAPHICS
 70
     1
  9
$MEASUREMENT
 70
     1
  9
$CELWEIGHT
370
    -1
  9
$ENDCAPS
280
     0
  9
$JOINSTYLE
280
     0
  9
$LWDISPLAY
290
     0
  9
$INSUNITS
 70
     0
  9
$HYPERLINKBASE
  1

  9
$STYLESHEET
  1

  9
$XEDIT
290
     1
  9
$CEPSNTYPE
380
     0
  9
$PSTYLEMODE
290
     1
  9
$FINGERPRINTGUID
  2
{7FD28A7C-F8BA-11D3-9BCC-00A0C977751D}
  9
$VERSIONGUID
  2
{4BA42DAB-C441-4E67-A577-B8FC92A67D4F}
  9
$EXTNAMES
290
     1
  9
$PSVPSCALE
 40
0.0
  9
$OLESTARTUP
290
     0
  0
ENDSEC
  0
SECTION
  2
CLASSES
  0
CLASS
  1
LWPOLYLINE
  2
AcDbPolyline
  3
AutoCAD 2000
 90
    32768
280
     0
281
     1
  0
CLASS
  1
ACDBDICTIONARYWDFLT
  2
AcDbDictionaryWithDefault
  3
AutoCAD 2000
 90
        0
280
     0
281
     0
  0
CLASS
  1
ACDBPLACEHOLDER
  2
AcDbPlaceHolder
  3
AutoCAD 2000
 90
        0
280
     0
281
     0
  0
CLASS
  1
LAYOUT
  2
AcDbLayout
  3
AutoCAD 2000
 90
        0
280
     0
281
     0
  0
CLASS
  1
PLOTSETTINGS
  2
AcDbPlotSettings
  3
AutoCAD 2000
 90
        0
280
     0
281
     0
  0
CLASS
  1
RASTERVARIABLES
  2
AcDbRasterVariables
  3
ISM
 90
        0
280
     0
281
     0
  0
CLASS
  1
IMAGE
  2
AcDbRasterImage
  3
ISM
 90
    32895
280
     0
281
     1
  0
CLASS
  1
OLE2FRAME
  2
AcDbOle2Frame
  3
AutoCAD 2000
 90
    32768
280
     0
281
     1
  0
CLASS
  1
HATCH
  2
AcDbHatch
  3
AutoCAD 2000
 90
    32768
280
     0
281
     1
  0
CLASS
  1
DICTIONARYVAR
  2
AcDbDictionaryVar
  3
AutoCAD 2000
 90
    32768
280
     0
281
     0
  0
CLASS
  1
IMAGEDEF
  2
AcDbRasterImageDef
  3
ISM
 90
    32768
280
     0
281
     0
  0
CLASS
  1
IMAGEDEF_REACTOR
  2
AcDbRasterImageDefReactor
  3
ISM
 90
    32769
280
     0
281
     0
  0
CLASS
  1
IDBUFFER
  2
AcDbIdBuffer
  3
AutoCAD 2000
 90
    32768
280
     0
281
     0
  0
CLASS
  1
SPATIAL_FILTER
  2
AcDbSpatialFilter
  3
AutoCAD 2000
 90
    32768
280
     0
281
     0
  0
CLASS
  1
XRECORD
  2
AcDbXrecord
  3
AutoCAD 2000
 90
    32768
280
     0
281
     0
  0
CLASS
  1
SORTENTSTABLE
  2
AcDbSortentsTable
  3
AutoCAD 2000
 90
    32768
280
     0
281
     0
  0
CLASS
  1
LAYER_INDEX
  2
AcDbLayerIndex
  3
AutoCAD 2000
 90
    32768
280
     0
281
     0
  0
CLASS
  1
SPATIAL_INDEX
  2
AcDbSpatialIndex
  3
AutoCAD 2000
 90
    32768
280
     0
281
     0
  0
CLASS
  1
OBJECT_PTR
  2
CAseDLPNTableRecord
  3
"ASE-LPNTableRecord"
 90
    32769
280
     0
281
     0
  0
CLASS
  1
VBA_PROJECT
  2
AcDbVbaProject
  3
"acadvba"
 90
    32769
280
     0
281
     0
  0
CLASS
  1
WIPEOUT
  2
AcDbWipeout
  3
WipeOut|AutoCAD Express Tool|expresstools@autodesk.com
 90
    32895
280
     0
281
     1
  0
CLASS
  1
WIPEOUTVARIABLES
  2
AcDbWipeoutVariables
  3
WipeOut|AutoCAD Express Tool|expresstools@autodesk.com
 90
    32768
280
     0
281
     0
  0
CLASS
  1
RTEXT
  2
RText
  3
RText|AutoCAD Express Tool|expresstools@autodesk.com
 90
    32768
280
     0
281
     1
  0
CLASS
  1
ARCALIGNEDTEXT
  2
AcDbArcAlignedText
  3
ATEXT|AutoCAD Express Tool|expresstools@autodesk.com
 90
    32768
280
     0
281
     1
  0
ENDSEC
  0
SECTION
  2
TABLES
  0
TABLE
  2
VPORT
  5
8
330
0
100
AcDbSymbolTable
 70
     2
  0
VPORT
  5
3A1A
330
8
100
AcDbSymbolTableRecord
100
AcDbViewportTableRecord
  2
*Active
 70
     0
 10
0.0
 20
0.0
 11
1.0
 21
1.0
 12
-177.4923899118778
 22
857.4688977016792
 13
0.0
 23
0.0
 14
5.0
 24
5.0
 15
10.0
 25
10.0
 16
0.0
 26
0.0
 36
1.0
 17
0.0
 27
0.0
 37
0.0
 40
1924.998206237763
 41
1.593716143011917
 42
50.0
 43
0.0
 44
0.0
 50
0.0
 51
0.0
 71
     0
 72
   100
 73
     1
 74
     0
 75
     0
 76
     0
 77
     0
 78
     0
281
     0
 65
     1
110
0.0
120
0.0
130
0.0
111
1.0
121
0.0
131
0.0
112
0.0
122
1.0
132
0.0
 79
     0
146
0.0
  0
ENDTAB
  0
TABLE
  2
LTYPE
  5
5
330
0
100
AcDbSymbolTable
 70
     3
  0
LTYPE
  5
12
330
5
100
AcDbSymbolTableRecord
100
AcDbLinetypeTableRecord
  2
ByBlock
 70
     0
  3

 72
    65
 73
     0
 40
0.0
  0
LTYPE
  5
13
330
5
100
AcDbSymbolTableRecord
100
AcDbLinetypeTableRecord
  2
ByLayer
 70
     0
  3

 72
    65
 73
     0
 40
0.0
  0
LTYPE
  5
14
330
5
100
AcDbSymbolTableRecord
100
AcDbLinetypeTableRecord
  2
CONTINUOUS
 70
     0
  3
Solid line
 72
    65
 73
     0
 40
0.0
  0
ENDTAB
  0
TABLE
  2
LAYER
  5
2
330
0
100
AcDbSymbolTable
 70
    10
  0
LAYER
  5
E
330
2
100
AcDbSymbolTableRecord
100
AcDbLayerTableRecord
  2
0
 70
     0
 62
     7
  6
CONTINUOUS
370
    -3
390
1AC
  0
LAYER
  5
133
330
2
100
AcDbSymbolTableRecord
100
AcDbLayerTableRecord
  2
DEFPOINTS
 70
     0
 62
     7
  6
CONTINUOUS
290
     0
370
    -3
390
1AC
  0
ENDTAB
  0
TABLE
  2
STYLE
  5
3
330
0
100
AcDbSymbolTable
 70
     3
  0
STYLE
  5
F
330
3
100
AcDbSymbolTableRecord
100
AcDbTextStyleTableRecord
  2
STANDARD
 70
     0
 40
0.0
 41
1.0
 50
0.0
 71
     0
 42
2.5
  3
txt
  4

  0
STYLE
  5
30
330
3
100
AcDbSymbolTableRecord
100
AcDbTextStyleTableRecord
  2
DIMFONT
 70
     0
 40
0.0
 41
1.0
 50
10.0
 71
     0
 42
3.2
  3
romans.shx
  4
extfont.shx
  0
ENDTAB
  0
TABLE
  2
VIEW
  5
6
330
0
100
AcDbSymbolTable
 70
     4
  0
VIEW
  5
39
330
6
100
AcDbSymbolTableRecord
100
AcDbViewTableRecord
  2
A1
 70
     0
 40
660.0
 10
420.5
 20
297.0
 41
1136.871508
 11
0.0
 21
0.0
 31
1.0
 12
0.0
 22
0.0
 32
0.0
 42
50.0
 43
0.0
 44
0.0
 50
0.0
 71
     0
281
     1
 72
     0
  0
VIEW
  5
3A
330
6
100
AcDbSymbolTableRecord
100
AcDbViewTableRecord
  2
A2
 70
     0
 40
466.666667
 10
297.0
 20
210.0
 41
803.8485410000001
 11
0.0
 21
0.0
 31
1.0
 12
0.0
 22
0.0
 32
0.0
 42
50.0
 43
0.0
 44
0.0
 50
0.0
 71
     0
281
     1
 72
     0
  0
VIEW
  5
3B
330
6
100
AcDbSymbolTableRecord
100
AcDbViewTableRecord
  2
A3
 70
     0
 40
330.0
 10
210.0
 20
148.5
 41
568.4357539999998
 11
0.0
 21
0.0
 31
1.0
 12
0.0
 22
0.0
 32
0.0
 42
50.0
 43
0.0
 44
0.0
 50
0.0
 71
     0
281
     1
 72
     0
  0
VIEW
  5
3C
330
6
100
AcDbSymbolTableRecord
100
AcDbViewTableRecord
  2
A4
 70
     0
 40
330.0
 10
105.0
 20
148.5
 41
568.4357539999998
 11
0.0
 21
0.0
 31
1.0
 12
0.0
 22
0.0
 32
0.0
 42
50.0
 43
0.0
 44
0.0
 50
0.0
 71
     0
281
     1
 72
     0
  0
ENDTAB
  0
TABLE
  2
UCS
  5
7
330
0
100
AcDbSymbolTable
 70
     0
  0
ENDTAB
  0
TABLE
  2
APPID
  5
9
330
0
100
AcDbSymbolTable
 70
     1
  0
APPID
  5
10
330
9
100
AcDbSymbolTableRecord
100
AcDbRegAppTableRecord
  2
ACAD
 70
     0
  0
ENDTAB
  0
TABLE
  2
DIMSTYLE
  5
A
330
0
100
AcDbSymbolTable
 70
     3
100
AcDbDimStyleTable
 71
     0
  0
DIMSTYLE
105
4F
102
{ACAD_REACTORS
330
27A7
330
27C2
330
2871
330
2878
102
}
330
A
100
AcDbSymbolTableRecord
100
AcDbDimStyleTableRecord
  2
1_5
 70
     0
 40
5.0
 41
3.0
 42
0.0
 43
10.0
 44
1.0
 73
     0
 74
     0
 77
     3
 78
     8
 79
     2
140
3.2
141
0.0
146
0.75
147
1.0
172
     1
173
     1
179
     2
284
     8
340
30
341
125
343
125
344
125
  0
DIMSTYLE
105
C28
330
A
100
AcDbSymbolTableRecord
100
AcDbDimStyleTableRecord
  2
STANDARD
 70
     0
340
F
  0
ENDTAB
  0
TABLE
  2
BLOCK_RECORD
  5
1
330
0
100
AcDbSymbolTable
 70
     9
  0
BLOCK_RECORD
  5
18
330
1
100
AcDbSymbolTableRecord
100
AcDbBlockTableRecord
  2
*MODEL_SPACE
340
1AF
  0
BLOCK_RECORD
  5
15
330
1
100
AcDbSymbolTableRecord
100
AcDbBlockTableRecord
  2
*PAPER_SPACE
340
1B0
  0
BLOCK_RECORD
  5
125
330
1
100
AcDbSymbolTableRecord
100
AcDbBlockTableRecord
  2
_OPEN
340
0
102
{BLKREFS
331
2D54
331
2D55
331
2D5D
331
2D5E
331
2D30
331
2D31
331
2D4B
331
2D4C
331
399A
331
399B
331
39A6
331
39A7
331
39B2
331
39B3
331
39BE
331
39BF
331
39F8
331
39F9
331
3A01
331
3A02
331
3A0A
331
3A0B
331
3A13
331
3A14
102
}
  0
ENDTAB
  0
ENDSEC
  0
SECTION
  2
BLOCKS
  0
BLOCK
  5
19
330
18
100
AcDbEntity
  8
0
100
AcDbBlockBegin
  2
*MODEL_SPACE
 70
     0
 10
0.0
 20
0.0
 30
0.0
  3
*MODEL_SPACE
  1

  0
ENDBLK
  5
1A
330
18
100
AcDbEntity
  8
0
100
AcDbBlockEnd
  0
BLOCK
  5
16
330
15
100
AcDbEntity
 67
     1
  8
0
100
AcDbBlockBegin
  2
*PAPER_SPACE
 70
     0
 10
0.0
 20
0.0
 30
0.0
  3
*PAPER_SPACE
  1

  0
ENDBLK
  5
17
330
15
100
AcDbEntity
 67
     1
  8
0
100
AcDbBlockEnd
  0
BLOCK
  5
126
330
125
100
AcDbEntity
  8
0
100
AcDbBlockBegin
  2
_OPEN
 70
     0
 10
0.0
 20
0.0
 30
0.0
  3
_OPEN
  1

  0
LINE
  5
127
330
125
100
AcDbEntity
  8
0
  6
ByBlock
 62
     0
100
AcDbLine
 10
-1.0
 20
0.166667
 30
0.0
 11
0.0
 21
0.0
 31
0.0
  0
LINE
  5
128
330
125
100
AcDbEntity
  8
0
  6
ByBlock
 62
     0
100
AcDbLine
 10
0.0
 20
0.0
 30
0.0
 11
-1.0
 21
-0.166667
 31
0.0
  0
LINE
  5
129
330
125
100
AcDbEntity
  8
0
  6
ByBlock
 62
     0
100
AcDbLine
 10
0.0
 20
0.0
 30
0.0
 11
-1.0
 21
0.0
 31
0.0
  0
ENDBLK
  5
12A
330
125
100
AcDbEntity
  8
0
100
AcDbBlockEnd
  0
ENDSEC
  0
SECTION
  2
ENTITIES
  0
LINE
  5
273E
330
18
100
AcDbEntity
  8
0
100
AcDbLine
 10
-24.317167
 20
81.332684
 30
0.0
 11
-24.317167
 21
71.37247399999998
 31
0.0
  0
ARC
  5
273F
330
18
100
AcDbEntity
  8
0
100
AcDbCircle
 10
-476.652067
 20
78.756574
 30
0.0
 40
2.75
100
AcDbArc
 50
249.3022999999999
 51
74.74892
  0
LINE
  5
2741
330
18
100
AcDbEntity
  8
0
100
AcDbLine
 10
-126.3171669999999
 20
91.05833399999999
 30
0.0
 11
-126.3171669999999
 21
76.07072399999998
 31
0.0
  0
ARC
  5
2742
330
18
100
AcDbEntity
  8
0
100
AcDbCircle
 10
-594.8233769999998
 20
79.97373399999998
 30
0.0
 40
2.75
100
AcDbArc
 50
62.74891999999999
 51
248.1955599999999
  0
ARC
  5
2743
330
18
100
AcDbEntity
  8
0
100
AcDbCircle
 10
-840.550977
 20
81.563764
 30
0.0
 40
2.75
100
AcDbArc
 50
308.45237
 51
133.8990099999999
  0
ARC
  5
2744
330
18
100
AcDbEntity
  8
0
100
AcDbCircle
 10
-717.173777
 20
160.106064
 30
0.0
 40
251.0
100
AcDbArc
 50
196.7161399999999
 51
201.4611299999999
  0
LINE
  5
2745
330
18
100
AcDbEntity
  8
0
100
AcDbLine
 10
-926.6167170000001
 20
16.71647399999999
 30
0.0
 11
-842.048967
 21
83.869974
 31
0.0
  0
LINE
  5
2746
330
18
100
AcDbEntity
  8
0
100
AcDbLine
 10
-952.8407769999999
 20
65.82993399999999
 30
0.0
 11
-855.6662769999999
 21
112.930034
 31
0.0
  0
LINE
  5
2747
330
18
100
AcDbEntity
  8
0
100
AcDbLine
 10
-950.4472769999999
 20
60.891764
 30
0.0
 11
-853.2727769999997
 21
107.991864
 31
0.0
  0
LINE
  5
2748
330
18
100
AcDbEntity
  8
0
100
AcDbLine
 10
-941.079477
 20
40.551984
 30
0.0
 11
-849.6568769999999
 21
98.025494
 31
0.0
  0
LINE
  5
2749
330
18
100
AcDbEntity
  8
0
100
AcDbLine
 10
-938.1588269999999
 20
35.906114
 30
0.0
 11
-846.7362169999999
 21
93.379624
 31
0.0
  0
LINE
  5
274B
330
18
100
AcDbEntity
  8
0
100
AcDbLine
 10
-485.7196169999999
 20
56.71891399999999
 30
0.0
 11
-586.364147
 21
95.85960400000001
 31
0.0
  0
LINE
  5
274C
330
18
100
AcDbEntity
  8
0
100
AcDbLine
 10
-487.7086269999998
 20
51.60441399999999
 30
0.0
 11
-588.3531669999999
 21
90.745094
 31
0.0
  0
LINE
  5
274D
330
18
100
AcDbEntity
  8
0
100
AcDbLine
 10
-497.7944469999997
 20
33.091774
 30
0.0
 11
-593.7962769999997
 21
82.53825400000001
 31
0.0
  0
LINE
  5
274E
330
18
100
AcDbEntity
  8
0
100
AcDbLine
 10
-477.624267
 20
76.184434
 30
0.0
 11
-581.808667
 21
104.590494
 31
0.0
  0
ARC
  5
274F
330
18
100
AcDbEntity
  8
0
100
AcDbCircle
 10
-834.314467
 20
247.678224
 30
0.0
 40
2.75
100
AcDbArc
 50
239.19032
 51
64.63696
  0
ARC
  5
2750
330
18
100
AcDbEntity
  8
0
100
AcDbCircle
 10
-1451.012728
 20
1109.569424
 30
0.0
 40
949.0
100
AcDbArc
 50
310.381523
 51
311.2228379999999
  0
LINE
  5
2751
330
18
100
AcDbEntity
  8
0
100
AcDbLine
 10
-888.7901769999999
 20
347.121524
 30
0.0
 11
-810.332717
 21
272.920824
 31
0.0
  0
LINE
  5
2752
330
18
100
AcDbEntity
  8
0
100
AcDbLine
 10
-892.560867
 20
343.134424
 30
0.0
 11
-814.1034069999998
 21
268.933724
 31
0.0
  0
LINE
  5
2753
330
18
100
AcDbEntity
  8
0
100
AcDbLine
 10
-834.950757
 20
252.139124
 30
0.0
 11
-828.074907
 21
259.628824
 31
0.0
  0
LINE
  5
2754
330
18
100
AcDbEntity
  8
0
100
AcDbLine
 10
-908.265577
 20
327.171524
 30
0.0
 11
-822.1435669999998
 21
262.023224
 31
0.0
  0
LINE
  5
2755
330
18
100
AcDbEntity
  8
0
100
AcDbLine
 10
-911.5763069999999
 20
322.794924
 30
0.0
 11
-825.4542370000001
 21
257.646624
 31
0.0
  0
LINE
  5
2756
330
18
100
AcDbEntity
  8
0
100
AcDbLine
 10
-925.435747
 20
305.205724
 30
0.0
 11
-832.6881269999999
 21
249.895824
 31
0.0
  0
LINE
  5
2757
330
18
100
AcDbEntity
  8
0
100
AcDbLine
 10
-872.188797
 20
360.271124
 30
0.0
 11
-797.8435769999999
 21
282.671924
 31
0.0
  0
LINE
  5
2758
330
18
100
AcDbEntity
  8
0
100
AcDbLine
 10
-793.8810570000002
 20
286.468024
 30
0.0
 11
-868.587167
 21
364.444424
 31
0.0
  0
LINE
  5
2759
330
18
100
AcDbEntity
  8
0
100
AcDbLine
 10
-781.033037
 20
296.232624
 30
0.0
 11
-857.321607
 21
372.661324
 31
0.0
  0
LINE
  5
275A
330
18
100
AcDbEntity
  8
0
100
AcDbLine
 10
-777.1491269999998
 20
300.109424
 30
0.0
 11
-853.437697
 21
376.538124
 31
0.0
  0
LINE
  5
275B
330
18
100
AcDbEntity
  8
0
100
AcDbLine
 10
-764.5037969999998
 20
310.135224
 30
0.0
 11
-842.3428470000001
 21
384.984324
 31
0.0
  0
LINE
  5
275C
330
18
100
AcDbEntity
  8
0
100
AcDbLine
 10
-760.700147
 20
314.090724
 30
0.0
 11
-838.5391969999997
 21
388.939824
 31
0.0
  0
ARC
  5
275E
330
18
100
AcDbEntity
  8
0
100
AcDbCircle
 10
-890.860797
 20
345.312024
 30
0.0
 40
2.75
100
AcDbArc
 50
41.15059
 51
226.59722
  0
ARC
  5
275F
330
18
100
AcDbEntity
  8
0
100
AcDbCircle
 10
-717.173777
 20
160.106064
 30
0.0
 40
251.0
100
AcDbArc
 50
127.4540899999998
 51
132.1990899999998
  0
ARC
  5
2760
330
18
100
AcDbEntity
  8
0
100
AcDbCircle
 10
-1451.012728
 20
1109.569424
 30
0.0
 40
949.0
100
AcDbArc
 50
309.207123
 51
310.048439
  0
ARC
  5
2761
330
18
100
AcDbEntity
  8
0
100
AcDbCircle
 10
-840.257397
 20
386.776624
 30
0.0
 40
2.75
100
AcDbArc
 50
46.12181999999999
 51
231.56845
  0
ARC
  5
2762
330
18
100
AcDbEntity
  8
0
100
AcDbCircle
 10
-855.1997769999998
 20
374.410724
 30
0.0
 40
2.75
100
AcDbArc
 50
44.94742000000001
 51
230.39404
  0
ARC
  5
2763
330
18
100
AcDbEntity
  8
0
100
AcDbCircle
 10
-1451.012728
 20
1109.569424
 30
0.0
 40
949.0
100
AcDbArc
 50
308.0327229999998
 51
308.874039
  0
ARC
  5
2764
330
18
100
AcDbEntity
  8
0
100
AcDbCircle
 10
-870.3925869999999
 20
362.353424
 30
0.0
 40
2.75
100
AcDbArc
 50
43.77303
 51
229.21966
  0
LINE
  5
2765
330
18
100
AcDbEntity
  8
0
100
AcDbLine
 10
-858.4030869999997
 20
209.0526239999999
 30
0.0
 11
-854.3222769999998
 21
218.365124
 31
0.0
  0
ARC
  5
2766
330
18
100
AcDbEntity
  8
0
100
AcDbCircle
 10
-717.173777
 20
160.106064
 30
0.0
 40
251.0
100
AcDbArc
 50
165.2333899999999
 51
169.97838
  0
LINE
  5
2767
330
18
100
AcDbEntity
  8
0
100
AcDbLine
 10
-961.1950769999999
 20
229.967224
 30
0.0
 11
-855.5360869999999
 21
207.6627639999999
 31
0.0
  0
LINE
  5
2768
330
18
100
AcDbEntity
  8
0
100
AcDbLine
 10
-962.3285069999999
 20
224.597824
 30
0.0
 11
-856.6695070000001
 21
202.293434
 31
0.0
  0
LINE
  5
2769
330
18
100
AcDbEntity
  8
0
100
AcDbLine
 10
-940.093097
 20
281.489424
 30
0.0
 11
-841.8388769999998
 21
236.685224
 31
0.0
  0
LINE
  5
276A
330
18
100
AcDbEntity
  8
0
100
AcDbLine
 10
-942.369947
 20
276.496424
 30
0.0
 11
-844.1157369999999
 21
231.692224
 31
0.0
  0
LINE
  5
276B
330
18
100
AcDbEntity
  8
0
100
AcDbLine
 10
-952.0609869999999
 20
256.308624
 30
0.0
 11
-849.485607
 21
222.550624
 31
0.0
  0
LINE
  5
276C
330
18
100
AcDbEntity
  8
0
100
AcDbLine
 10
-953.776507
 20
251.096024
 30
0.0
 11
-851.2011269999996
 21
217.338024
 31
0.0
  0
ARC
  5
276D
330
18
100
AcDbEntity
  8
0
100
AcDbCircle
 10
-717.173777
 20
160.106064
 30
0.0
 40
251.0
100
AcDbArc
 50
146.34374
 51
151.08873
  0
ARC
  5
276E
330
18
100
AcDbEntity
  8
0
100
AcDbCircle
 10
-941.4665069999999
 20
279.107024
 30
0.0
 40
2.75
100
AcDbArc
 50
60.04024
 51
245.48687
  0
ARC
  5
276F
330
18
100
AcDbEntity
  8
0
100
AcDbCircle
 10
-717.173777
 20
160.106064
 30
0.0
 40
251.0
100
AcDbArc
 50
158.9368399999998
 51
163.6818399999999
  0
ARC
  5
2770
330
18
100
AcDbEntity
  8
0
100
AcDbCircle
 10
-953.1648070000001
 20
253.789924
 30
0.0
 40
2.75
100
AcDbArc
 50
66.33679
 51
251.78343
  0
ARC
  5
2771
330
18
100
AcDbEntity
  8
0
100
AcDbCircle
 10
-717.173777
 20
160.106064
 30
0.0
 40
251.0
100
AcDbArc
 50
152.6402899999999
 51
157.38528
  0
ARC
  5
2772
330
18
100
AcDbEntity
  8
0
100
AcDbCircle
 10
-962.015947
 20
227.342624
 30
0.0
 40
2.75
100
AcDbArc
 50
72.63334999999997
 51
258.07996
  0
LINE
  5
2773
330
18
100
AcDbEntity
  8
0
100
AcDbLine
 10
-928.2464769999997
 20
300.492424
 30
0.0
 11
-835.4988569999997
 21
245.182524
 31
0.0
  0
ARC
  5
2774
330
18
100
AcDbEntity
  8
0
100
AcDbCircle
 10
-717.173777
 20
160.106064
 30
0.0
 40
251.0
100
AcDbArc
 50
140.0472
 51
144.79218
  0
ARC
  5
2775
330
18
100
AcDbEntity
  8
0
100
AcDbCircle
 10
-717.173777
 20
160.106064
 30
0.0
 40
251.0
100
AcDbArc
 50
133.75064
 51
138.4956399999998
  0
ARC
  5
2776
330
18
100
AcDbEntity
  8
0
100
AcDbCircle
 10
-910.1254370000001
 20
325.145824
 30
0.0
 40
2.75
100
AcDbArc
 50
47.44715
 51
232.8937799999999
  0
ARC
  5
2777
330
18
100
AcDbEntity
  8
0
100
AcDbCircle
 10
-927.062087
 20
302.988324
 30
0.0
 40
2.75
100
AcDbArc
 50
53.74369
 51
239.19031
  0
ARC
  5
2778
330
18
100
AcDbEntity
  8
0
100
AcDbCircle
 10
-843.2122969999998
 20
234.3026239999999
 30
0.0
 40
2.75
100
AcDbArc
 50
245.48687
 51
70.9335
  0
ARC
  5
2779
330
18
100
AcDbEntity
  8
0
100
AcDbCircle
 10
-850.589427
 20
220.031824
 30
0.0
 40
2.75
100
AcDbArc
 50
251.78342
 51
77.23005
  0
LINE
  5
277A
330
18
100
AcDbEntity
  8
0
100
AcDbLine
 10
-852.182997
 20
224.246524
 30
0.0
 11
-847.1054869999997
 21
233.0553239999999
 31
0.0
  0
LINE
  5
277B
330
18
100
AcDbEntity
  8
0
100
AcDbLine
 10
-844.3339369999996
 20
238.666624
 30
0.0
 11
-838.3209969999997
 21
246.865524
 31
0.0
  0
LINE
  5
277C
330
18
100
AcDbEntity
  8
0
100
AcDbLine
 10
-970.5561669999999
 20
175.0836639999999
 30
0.0
 11
-862.576067
 21
176.352214
 31
0.0
  0
LINE
  5
277D
330
18
100
AcDbEntity
  8
0
100
AcDbLine
 10
-970.491647
 20
169.5964139999998
 30
0.0
 11
-862.511547
 21
170.864914
 31
0.0
  0
LINE
  5
277E
330
18
100
AcDbEntity
  8
0
100
AcDbLine
 10
-970.670237
 20
147.2036539999999
 30
0.0
 11
-863.4806670000001
 21
160.307174
 31
0.0
  0
LINE
  5
277F
330
18
100
AcDbEntity
  8
0
100
AcDbLine
 10
-970.004347
 20
141.7565139999998
 30
0.0
 11
-862.814767
 21
154.8600839999999
 31
0.0
  0
LINE
  5
2780
330
18
100
AcDbEntity
  8
0
100
AcDbLine
 10
-967.7260270000001
 20
119.479354
 30
0.0
 11
-862.6201269999997
 21
144.259804
 31
0.0
  0
LINE
  5
2781
330
18
100
AcDbEntity
  8
0
100
AcDbLine
 10
-966.4667470000001
 20
114.1381039999999
 30
0.0
 11
-861.360857
 21
138.9186239999999
 31
0.0
  0
LINE
  5
2782
330
18
100
AcDbEntity
  8
0
100
AcDbLine
 10
-961.758807
 20
92.245284
 30
0.0
 11
-860.0048369999997
 21
128.4036639999999
 31
0.0
  0
LINE
  5
2783
330
18
100
AcDbEntity
  8
0
100
AcDbLine
 10
-967.3849669999999
 20
202.782814
 30
0.0
 11
-859.9171269999997
 21
192.201034
 31
0.0
  0
LINE
  5
2784
330
18
100
AcDbEntity
  8
0
100
AcDbLine
 10
-967.922747
 20
197.3215139999999
 30
0.0
 11
-860.454907
 21
186.739724
 31
0.0
  0
LINE
  5
2785
330
18
100
AcDbEntity
  8
0
100
AcDbLine
 10
-959.9213369999999
 20
87.07438399999999
 30
0.0
 11
-858.167367
 21
123.2327739999999
 31
0.0
  0
ARC
  5
2786
330
18
100
AcDbEntity
  8
0
100
AcDbCircle
 10
-970.597247
 20
144.454754
 30
0.0
 40
2.75
100
AcDbArc
 50
91.52298999999999
 51
276.969621
  0
ARC
  5
2787
330
18
100
AcDbEntity
  8
0
100
AcDbCircle
 10
-717.173777
 20
160.106064
 30
0.0
 40
251.0
100
AcDbArc
 50
171.5299399999999
 51
176.2749399999999
  0
ARC
  5
2788
330
18
100
AcDbEntity
  8
0
100
AcDbCircle
 10
-967.913097
 20
200.084084
 30
0.0
 40
2.75
100
AcDbArc
 50
78.92989
 51
264.37652
  0
ARC
  5
2789
330
18
100
AcDbEntity
  8
0
100
AcDbCircle
 10
-970.785047
 20
172.343244
 30
0.0
 40
2.75
100
AcDbArc
 50
85.22643999999997
 51
270.673084
  0
ARC
  5
278A
330
18
100
AcDbEntity
  8
0
100
AcDbCircle
 10
-717.173777
 20
160.106064
 30
0.0
 40
251.0
100
AcDbArc
 50
177.8264899999999
 51
182.57148
  0
ARC
  5
278B
330
18
100
AcDbEntity
  8
0
100
AcDbCircle
 10
-717.173777
 20
160.106064
 30
0.0
 40
251.0
100
AcDbArc
 50
190.4195899999999
 51
195.16458
  0
ARC
  5
278C
330
18
100
AcDbEntity
  8
0
100
AcDbCircle
 10
-967.351947
 20
116.755044
 30
0.0
 40
2.75
100
AcDbArc
 50
97.81954
 51
283.2661709999998
  0
ARC
  5
278D
330
18
100
AcDbEntity
  8
0
100
AcDbCircle
 10
-717.173777
 20
160.106064
 30
0.0
 40
251.0
100
AcDbArc
 50
184.12304
 51
188.8680399999999
  0
ARC
  5
278E
330
18
100
AcDbEntity
  8
0
100
AcDbCircle
 10
-961.088267
 20
89.578354
 30
0.0
 40
2.75
100
AcDbArc
 50
104.1161
 51
289.562722
  0
LINE
  5
278F
330
18
100
AcDbEntity
  8
0
100
AcDbLine
 10
-865.806167
 20
144.297524
 30
0.0
 11
-866.0763669999999
 21
154.461224
 31
0.0
  0
LINE
  5
2790
330
18
100
AcDbEntity
  8
0
100
AcDbLine
 10
-865.6771369999999
 20
177.083534
 30
0.0
 11
-863.7249269999998
 21
187.061624
 31
0.0
  0
ARC
  5
2791
330
18
100
AcDbEntity
  8
0
100
AcDbCircle
 10
-856.356947
 20
205.0380039999999
 30
0.0
 40
2.75
100
AcDbArc
 50
258.07997
 51
83.52660999999997
  0
LINE
  5
2792
330
18
100
AcDbEntity
  8
0
100
AcDbLine
 10
-862.919327
 20
193.268044
 30
0.0
 11
-859.8845369999997
 21
202.9719039999998
 31
0.0
  0
ARC
  5
2793
330
18
100
AcDbEntity
  8
0
100
AcDbCircle
 10
-860.445207
 20
189.5022439999999
 30
0.0
 40
2.75
100
AcDbArc
 50
264.37652
 51
89.82316
  0
ARC
  5
2794
330
18
100
AcDbEntity
  8
0
100
AcDbCircle
 10
-863.4076669999997
 20
157.558084
 30
0.0
 40
2.75
100
AcDbArc
 50
276.969621
 51
102.41625
  0
ARC
  5
2795
330
18
100
AcDbEntity
  8
0
100
AcDbCircle
 10
-862.804947
 20
173.611614
 30
0.0
 40
2.75
100
AcDbArc
 50
270.6730709999999
 51
96.11969999999999
  0
LINE
  5
2796
330
18
100
AcDbEntity
  8
0
100
AcDbLine
 10
-866.643267
 20
160.6940139999998
 30
0.0
 11
-865.7971970000001
 21
170.826034
 31
0.0
  0
LINE
  5
2797
330
18
100
AcDbEntity
  8
0
100
AcDbLine
 10
-858.783767
 20
112.272134
 30
0.0
 11
-861.263437
 21
122.1324239999999
 31
0.0
  0
ARC
  5
2798
330
18
100
AcDbEntity
  8
0
100
AcDbCircle
 10
-859.334237
 20
125.7366739999999
 30
0.0
 40
2.75
100
AcDbArc
 50
289.56272
 51
115.00936
  0
LINE
  5
2799
330
18
100
AcDbEntity
  8
0
100
AcDbLine
 10
-863.1757369999997
 20
128.0916539999998
 30
0.0
 11
-864.5590369999997
 21
138.164474
 31
0.0
  0
ARC
  5
279A
330
18
100
AcDbEntity
  8
0
100
AcDbCircle
 10
-862.2460470000001
 20
141.535384
 30
0.0
 40
2.75
100
AcDbArc
 50
283.2661709999998
 51
108.71281
  0
ARC
  5
279B
330
18
100
AcDbEntity
  8
0
100
AcDbCircle
 10
-854.7071670000001
 20
110.3526439999999
 30
0.0
 40
2.75
100
AcDbArc
 50
295.85927
 51
121.3059
  0
ARC
  5
279C
330
18
100
AcDbEntity
  8
0
100
AcDbCircle
 10
-848.420847
 20
95.56889400000001
 30
0.0
 40
2.75
100
AcDbArc
 50
302.15582
 51
127.6024499999999
  0
LINE
  5
279D
330
18
100
AcDbEntity
  8
0
100
AcDbLine
 10
-852.683367
 20
97.02970399999999
 30
0.0
 11
-856.2295070000001
 21
106.5585139999999
 31
0.0
  0
LINE
  5
279E
330
18
100
AcDbEntity
  8
0
100
AcDbLine
 10
-844.9480070000001
 20
82.548264
 30
0.0
 11
-849.5178369999999
 21
91.63071399999999
 31
0.0
  0
LINE
  5
279F
330
18
100
AcDbEntity
  8
0
100
AcDbLine
 10
363.591627
 20
1159.617224
 30
0.0
 11
363.591627
 21
1144.629724
 31
0.0
  0
ARC
  5
27A0
330
18
100
AcDbEntity
  8
0
100
AcDbCircle
 10
258.8417269999999
 20
1152.379424
 30
0.0
 40
2.75
100
AcDbArc
 50
95.44662
 51
280.8932509999999
  0
LINE
  5
27A1
330
18
100
AcDbEntity
  8
0
100
AcDbLine
 10
366.341727
 20
1159.879424
 30
0.0
 11
258.841827
 21
1149.629424
 31
0.0
  0
ARC
  5
27A2
330
18
100
AcDbEntity
  8
0
100
AcDbCircle
 10
-397.262667
 20
1152.999823999999
 30
0.0
 40
2.75
100
AcDbArc
 50
270.0
 51
95.44662
  0
LINE
  5
27A3
330
18
100
AcDbEntity
  8
0
100
AcDbLine
 10
-502.012707
 20
1160.762024
 30
0.0
 11
-502.012707
 21
1145.774424
 31
0.0
  0
LINE
  5
27A4
330
18
100
AcDbEntity
  8
0
100
AcDbLine
 10
-397.783567
 20
1155.712524
 30
0.0
 11
-505.283517
 21
1145.462524
 31
0.0
  0
LINE
  5
27A9
330
18
100
AcDbEntity
  8
0
100
AcDbLine
 10
-181.012867
 20
1753.305123999999
 30
0.0
 11
-181.012867
 21
1490.305123999999
 31
0.0
  0
LINE
  5
27AA
330
18
100
AcDbEntity
  8
0
100
AcDbLine
 10
-149.0126669999999
 20
1753.305123999999
 30
0.0
 11
-149.0126669999999
 21
1490.305123999999
 31
0.0
  0
LINE
  5
27AB
330
18
100
AcDbEntity
  8
0
100
AcDbLine
 10
-181.012867
 20
1748.305123999999
 30
0.0
 11
-149.0126669999999
 21
1748.305123999999
 31
0.0
  0
LINE
  5
27AD
330
18
100
AcDbEntity
  8
0
100
AcDbLine
 10
-181.012867
 20
1753.305123999999
 30
0.0
 11
-149.0126669999999
 21
1753.305123999999
 31
0.0
  0
LINE
  5
27AE
330
18
100
AcDbEntity
  8
0
100
AcDbLine
 10
-396.999167
 20
1191.274924
 30
0.0
 11
-504.762707
 21
1180.999824
 31
0.0
  0
LINE
  5
27AF
330
18
100
AcDbEntity
  8
0
100
AcDbLine
 10
-397.5200669999998
 20
1196.737624
 30
0.0
 11
-505.283587
 21
1186.462424
 31
0.0
  0
LINE
  5
27B0
330
18
100
AcDbEntity
  8
0
100
AcDbLine
 10
-397.2625669999998
 20
1170.749723999999
 30
0.0
 11
-504.762707
 21
1160.499724
 31
0.0
  0
LINE
  5
27B1
330
18
100
AcDbEntity
  8
0
100
AcDbLine
 10
-397.783467
 20
1176.212524
 30
0.0
 11
-505.283587
 21
1165.962524
 31
0.0
  0
LINE
  5
27B2
330
18
100
AcDbEntity
  8
0
100
AcDbLine
 10
-503.0127669999997
 20
1198.805424
 30
0.0
 11
-399.0126669999998
 21
1198.805424
 31
0.0
  0
LINE
  5
27B3
330
18
100
AcDbEntity
  8
0
100
AcDbLine
 10
-460.197167
 20
1226.555424
 30
0.0
 11
-442.050067
 21
1226.555424
 31
0.0
  0
LINE
  5
27B4
330
18
100
AcDbEntity
  8
0
100
AcDbLine
 10
-460.505867
 20
1215.555424
 30
0.0
 11
-442.050067
 21
1215.555424
 31
0.0
  0
LINE
  5
27B5
330
18
100
AcDbEntity
  8
0
100
AcDbLine
 10
-461.0126669999998
 20
1212.055624
 30
0.0
 11
-441.0128669999998
 21
1212.055624
 31
0.0
  0
LINE
  5
27B6
330
18
100
AcDbEntity
  8
0
100
AcDbLine
 10
-461.0126669999998
 20
1230.055624
 30
0.0
 11
-441.0128669999998
 21
1230.055624
 31
0.0
  0
LINE
  5
27B7
330
18
100
AcDbEntity
  8
0
100
AcDbLine
 10
-399.0126669999998
 20
1243.305324
 30
0.0
 11
-502.012707
 21
1243.305324
 31
0.0
  0
LINE
  5
27B9
330
18
100
AcDbEntity
  8
0
100
AcDbLine
 10
-503.0127669999997
 20
1243.305324
 30
0.0
 11
-399.0126669999998
 21
1243.305324
 31
0.0
  0
LINE
  5
27BA
330
18
100
AcDbEntity
  8
0
100
AcDbLine
 10
-530.512707
 20
1275.305624
 30
0.0
 11
-371.5125669999998
 21
1275.305624
 31
0.0
  0
CIRCLE
  5
27BB
330
18
100
AcDbEntity
  8
0
100
AcDbCircle
 10
-451.012667
 20
1316.305323999999
 30
0.0
 40
6.5
  0
LINE
  5
27BC
330
18
100
AcDbEntity
  8
0
100
AcDbLine
 10
-451.012667
 20
1380.305324
 30
0.0
 11
-431.0126669999998
 21
1380.305324
 31
0.0
  0
LINE
  5
27BE
330
18
100
AcDbEntity
  8
0
100
AcDbLine
 10
-530.512707
 20
1325.305324
 30
0.0
 11
-371.5125669999998
 21
1325.305324
 31
0.0
  0
LINE
  5
27BF
330
18
100
AcDbEntity
  8
0
100
AcDbLine
 10
-523.6590669999998
 20
1446.305124
 30
0.0
 11
-377.8676669999998
 21
1446.305124
 31
0.0
  0
LINE
  5
27C0
330
18
100
AcDbEntity
  8
0
100
AcDbLine
 10
-520.374887
 20
1450.305123999999
 30
0.0
 11
-381.350367
 21
1450.305123999999
 31
0.0
  0
LINE
  5
27C1
330
18
100
AcDbEntity
  8
0
100
AcDbLine
 10
-524.261667
 20
1472.305124
 30
0.0
 11
-377.7637669999998
 21
1472.305124
 31
0.0
  0
LINE
  5
27C4
330
18
100
AcDbEntity
  8
0
100
AcDbLine
 10
-578.5127069999998
 20
1420.305124
 30
0.0
 11
-323.5126669999999
 21
1420.305124
 31
0.0
  0
LINE
  5
27C5
330
18
100
AcDbEntity
  8
0
100
AcDbLine
 10
-574.5127669999998
 20
1416.305324
 30
0.0
 11
-327.5126669999999
 21
1416.305324
 31
0.0
  0
LINE
  5
27C6
330
18
100
AcDbEntity
  8
0
100
AcDbLine
 10
-575.012647
 20
1412.305324
 30
0.0
 11
-327.0128669999998
 21
1412.305324
 31
0.0
  0
LINE
  5
27C7
330
18
100
AcDbEntity
  8
0
100
AcDbLine
 10
-575.012647
 20
1402.305124
 30
0.0
 11
-325.0126669999999
 21
1402.305124
 31
0.0
  0
LINE
  5
27C8
330
18
100
AcDbEntity
  8
0
100
AcDbLine
 10
-573.0125870000001
 20
1348.305124
 30
0.0
 11
-291.0125669999998
 21
1348.305124
 31
0.0
  0
LINE
  5
27C9
330
18
100
AcDbEntity
  8
0
100
AcDbLine
 10
-575.012647
 20
1380.305324
 30
0.0
 11
-431.0126669999998
 21
1380.305324
 31
0.0
  0
LINE
  5
27CA
330
18
100
AcDbEntity
  8
0
100
AcDbLine
 10
-578.512647
 20
1420.305124
 30
0.0
 11
-574.5127069999998
 21
1416.305123999999
 31
0.0
  0
LINE
  5
27CB
330
18
100
AcDbEntity
  8
0
100
AcDbLine
 10
-526.121537
 20
1451.148124
 30
0.0
 11
-525.0520169999998
 21
1471.555123999999
 31
0.0
  0
LWPOLYLINE
  5
27CC
330
18
100
AcDbEntity
  8
0
100
AcDbPolyline
 90
       17
 70
     0
 43
0.0
 10
-524.262167
 20
1472.305024
 42
0.024721
 10
-524.3369969999998
 20
1472.301324
 42
0.024352
 10
-524.4110969999998
 20
1472.290224
 42
0.024016
 10
-524.4837969999998
 20
1472.272024
 42
0.023723
 10
-524.554437
 20
1472.247024
 42
0.023479
 10
-524.6224070000002
 20
1472.215524
 42
0.023292
 10
-524.687137
 20
1472.177724
 42
0.023649
 10
-524.749317
 20
1472.133123999999
 42
0.023143
 10
-524.805977
 20
1472.083824
 42
0.02303
 10
-524.857577
 20
1472.029924
 42
0.022882
 10
-524.903597
 20
1471.971923999999
 42
0.023177
 10
-524.9443969999998
 20
1471.909523999999
 42
0.023886
 10
-524.979917
 20
1471.842124
 42
0.023726
 10
-525.0083769999998
 20
1471.772824
 42
0.024021
 10
-525.030107
 20
1471.701123999999
 42
0.02436
 10
-525.044807
 20
1471.627623999999
 42
0.024732
 10
-525.0522369999998
 20
1471.553024
  0
ARC
  5
27CD
330
18
100
AcDbEntity
  8
0
100
AcDbCircle
 10
-526.530347
 20
1445.891524
 30
0.0
 40
3.0
100
AcDbArc
 50
115.54292
 51
176.99999
  0
ARC
  5
27CE
330
18
100
AcDbEntity
  8
0
100
AcDbCircle
 10
-529.1174469999998
 20
1451.305124
 30
0.0
 40
3.0
100
AcDbArc
 50
295.542925
 51
356.9999989999998
  0
LINE
  5
27CF
330
18
100
AcDbEntity
  8
0
100
AcDbLine
 10
-530.875437
 20
1420.305124
 30
0.0
 11
-529.526257
 21
1446.048524
 31
0.0
  0
LINE
  5
27D0
330
18
100
AcDbEntity
  8
0
100
AcDbLine
 10
-530.512707
 20
1275.305324
 30
0.0
 11
-530.512707
 21
1325.305324
 31
0.0
  0
ARC
  5
27D1
330
18
100
AcDbEntity
  8
0
100
AcDbCircle
 10
-573.0125870000001
 20
1364.305124
 30
0.0
 40
16.0
100
AcDbArc
 50
90.00001000000002
 51
270.000001
  0
LINE
  5
27D2
330
18
100
AcDbEntity
  8
0
100
AcDbLine
 10
-575.012647
 20
1380.305324
 30
0.0
 11
-575.012647
 21
1412.305324
 31
0.0
  0
LINE
  5
27D3
330
18
100
AcDbEntity
  8
0
100
AcDbLine
 10
-574.512647
 20
1416.305324
 30
0.0
 11
-574.512647
 21
1412.305324
 31
0.0
  0
LINE
  5
27D4
330
18
100
AcDbEntity
  8
0
100
AcDbLine
 10
-509.692887
 20
1325.305324
 30
0.0
 11
-509.692887
 21
1348.305124
 31
0.0
  0
LINE
  5
27D5
330
18
100
AcDbEntity
  8
0
100
AcDbLine
 10
-507.571607
 20
1325.305324
 30
0.0
 11
-507.571607
 21
1348.305124
 31
0.0
  0
LINE
  5
27D6
330
18
100
AcDbEntity
  8
0
100
AcDbLine
 10
-505.096207
 20
1325.305324
 30
0.0
 11
-505.096207
 21
1348.305124
 31
0.0
  0
LINE
  5
27D7
330
18
100
AcDbEntity
  8
0
100
AcDbLine
 10
-529.0127669999998
 20
1325.305324
 30
0.0
 11
-529.0127669999998
 21
1348.305124
 31
0.0
  0
LINE
  5
27D8
330
18
100
AcDbEntity
  8
0
100
AcDbLine
 10
-446.2628669999999
 20
1313.562924
 30
0.0
 11
-446.2628669999999
 21
1319.047724
 31
0.0
  0
LINE
  5
27D9
330
18
100
AcDbEntity
  8
0
100
AcDbLine
 10
-455.762567
 20
1313.562924
 30
0.0
 11
-455.762567
 21
1319.047724
 31
0.0
  0
LINE
  5
27DA
330
18
100
AcDbEntity
  8
0
100
AcDbLine
 10
-446.262967
 20
1319.047524
 30
0.0
 11
-451.0128669999998
 21
1321.789923999999
 31
0.0
  0
LINE
  5
27DB
330
18
100
AcDbEntity
  8
0
100
AcDbLine
 10
-451.0125669999998
 20
1321.789923999999
 30
0.0
 11
-455.762467
 21
1319.047724
 31
0.0
  0
LINE
  5
27DC
330
18
100
AcDbEntity
  8
0
100
AcDbLine
 10
-461.0126669999998
 20
1325.305124
 30
0.0
 11
-461.6400669999999
 21
1348.305124
 31
0.0
  0
LINE
  5
27DD
330
18
100
AcDbEntity
  8
0
100
AcDbLine
 10
-451.012467
 20
1310.820524
 30
0.0
 11
-446.262567
 21
1313.562924
 31
0.0
  0
LINE
  5
27DE
330
18
100
AcDbEntity
  8
0
100
AcDbLine
 10
-451.0128669999998
 20
1310.820524
 30
0.0
 11
-455.7626669999998
 21
1313.562924
 31
0.0
  0
LINE
  5
27DF
330
18
100
AcDbEntity
  8
0
100
AcDbLine
 10
-461.0126669999998
 20
1230.055624
 30
0.0
 11
-461.0126669999998
 21
1212.055624
 31
0.0
  0
LINE
  5
27E0
330
18
100
AcDbEntity
  8
0
100
AcDbLine
 10
-503.012707
 20
1227.055624
 30
0.0
 11
-503.012707
 21
1215.055624
 31
0.0
  0
LINE
  5
27E1
330
18
100
AcDbEntity
  8
0
100
AcDbLine
 10
-505.0126469999998
 20
1235.305424
 30
0.0
 11
-505.0126469999998
 21
1206.805624
 31
0.0
  0
LINE
  5
27E2
330
18
100
AcDbEntity
  8
0
100
AcDbLine
 10
-503.0127669999997
 20
1243.305324
 30
0.0
 11
-503.0127669999997
 21
1198.805424
 31
0.0
  0
LINE
  5
27E3
330
18
100
AcDbEntity
  8
0
100
AcDbLine
 10
-503.012707
 20
1227.055624
 30
0.0
 11
-461.0126669999998
 21
1227.055624
 31
0.0
  0
LINE
  5
27E4
330
18
100
AcDbEntity
  8
0
100
AcDbLine
 10
-530.5127669999998
 20
1275.305324
 30
0.0
 11
-501.012707
 21
1243.305324
 31
0.0
  0
LINE
  5
27E5
330
18
100
AcDbEntity
  8
0
100
AcDbLine
 10
-499.748247
 20
1218.555424
 30
0.0
 11
-498.7445169999999
 21
1218.555424
 31
0.0
  0
LINE
  5
27E6
330
18
100
AcDbEntity
  8
0
100
AcDbLine
 10
-499.3108069999998
 20
1223.555424
 30
0.0
 11
-498.3070169999998
 21
1223.555424
 31
0.0
  0
LINE
  5
27E7
330
18
100
AcDbEntity
  8
0
100
AcDbLine
 10
-499.748247
 20
1218.555224
 30
0.0
 11
-499.3108069999998
 21
1223.555324
 31
0.0
  0
LINE
  5
27E8
330
18
100
AcDbEntity
  8
0
100
AcDbLine
 10
-498.744397
 20
1218.555323999999
 30
0.0
 11
-498.306957
 21
1223.555224
 31
0.0
  0
LINE
  5
27E9
330
18
100
AcDbEntity
  8
0
100
AcDbLine
 10
-496.748247
 20
1218.555424
 30
0.0
 11
-495.7444569999998
 21
1218.555424
 31
0.0
  0
LINE
  5
27EA
330
18
100
AcDbEntity
  8
0
100
AcDbLine
 10
-496.748307
 20
1218.555224
 30
0.0
 11
-496.3108669999998
 21
1223.555324
 31
0.0
  0
LINE
  5
27EB
330
18
100
AcDbEntity
  8
0
100
AcDbLine
 10
-495.7443969999998
 20
1218.555323999999
 30
0.0
 11
-495.306957
 21
1223.555324
 31
0.0
  0
LINE
  5
27EC
330
18
100
AcDbEntity
  8
0
100
AcDbLine
 10
-496.310807
 20
1223.555424
 30
0.0
 11
-495.307017
 21
1223.555424
 31
0.0
  0
LINE
  5
27ED
330
18
100
AcDbEntity
  8
0
100
AcDbLine
 10
-502.748307
 20
1218.555424
 30
0.0
 11
-502.310867
 21
1223.555324
 31
0.0
  0
LINE
  5
27EE
330
18
100
AcDbEntity
  8
0
100
AcDbLine
 10
-502.7482469999998
 20
1218.555424
 30
0.0
 11
-501.744457
 21
1218.555424
 31
0.0
  0
LINE
  5
27EF
330
18
100
AcDbEntity
  8
0
100
AcDbLine
 10
-501.744457
 20
1218.555323999999
 30
0.0
 11
-501.3070169999998
 21
1223.555224
 31
0.0
  0
LINE
  5
27F0
330
18
100
AcDbEntity
  8
0
100
AcDbLine
 10
-502.310807
 20
1223.555424
 30
0.0
 11
-501.3070769999997
 21
1223.555424
 31
0.0
  0
LINE
  5
27F1
330
18
100
AcDbEntity
  8
0
100
AcDbLine
 10
-505.012707
 20
1235.305123999999
 30
0.0
 11
-503.0125869999998
 21
1243.305424
 31
0.0
  0
LINE
  5
27F2
330
18
100
AcDbEntity
  8
0
100
AcDbLine
 10
-501.012767
 20
1227.055624
 30
0.0
 11
-501.012767
 21
1243.305324
 31
0.0
  0
LINE
  5
27F3
330
18
100
AcDbEntity
  8
0
100
AcDbLine
 10
-462.7443669999998
 20
1218.555424
 30
0.0
 11
-462.3069669999998
 21
1223.555324
 31
0.0
  0
LINE
  5
27F4
330
18
100
AcDbEntity
  8
0
100
AcDbLine
 10
-463.3108669999998
 20
1223.555424
 30
0.0
 11
-462.307067
 21
1223.555424
 31
0.0
  0
LINE
  5
27F5
330
18
100
AcDbEntity
  8
0
100
AcDbLine
 10
-493.7482469999998
 20
1218.555424
 30
0.0
 11
-492.744457
 21
1218.555424
 31
0.0
  0
LINE
  5
27F6
330
18
100
AcDbEntity
  8
0
100
AcDbLine
 10
-493.7483069999998
 20
1218.555424
 30
0.0
 11
-493.310867
 21
1223.555324
 31
0.0
  0
LINE
  5
27F7
330
18
100
AcDbEntity
  8
0
100
AcDbLine
 10
-492.744457
 20
1218.555323999999
 30
0.0
 11
-492.3070169999999
 21
1223.555324
 31
0.0
  0
LINE
  5
27F8
330
18
100
AcDbEntity
  8
0
100
AcDbLine
 10
-493.310867
 20
1223.555424
 30
0.0
 11
-492.3070169999999
 21
1223.555424
 31
0.0
  0
LINE
  5
27F9
330
18
100
AcDbEntity
  8
0
100
AcDbLine
 10
-490.748307
 20
1218.555424
 30
0.0
 11
-489.744457
 21
1218.555424
 31
0.0
  0
LINE
  5
27FA
330
18
100
AcDbEntity
  8
0
100
AcDbLine
 10
-490.7482469999997
 20
1218.555224
 30
0.0
 11
-490.310807
 21
1223.555123999998
 31
0.0
  0
LINE
  5
27FB
330
18
100
AcDbEntity
  8
0
100
AcDbLine
 10
-489.744397
 20
1218.555323999999
 30
0.0
 11
-489.306957
 21
1223.555324
 31
0.0
  0
LINE
  5
27FC
330
18
100
AcDbEntity
  8
0
100
AcDbLine
 10
-490.310807
 20
1223.555424
 30
0.0
 11
-489.3070169999998
 21
1223.555424
 31
0.0
  0
LINE
  5
27FD
330
18
100
AcDbEntity
  8
0
100
AcDbLine
 10
-487.748247
 20
1218.555424
 30
0.0
 11
-486.7444569999998
 21
1218.555424
 31
0.0
  0
LINE
  5
27FE
330
18
100
AcDbEntity
  8
0
100
AcDbLine
 10
-487.748307
 20
1218.555424
 30
0.0
 11
-487.3108669999998
 21
1223.555324
 31
0.0
  0
LINE
  5
27FF
330
18
100
AcDbEntity
  8
0
100
AcDbLine
 10
-486.744397
 20
1218.555323999999
 30
0.0
 11
-486.306957
 21
1223.555324
 31
0.0
  0
LINE
  5
2800
330
18
100
AcDbEntity
  8
0
100
AcDbLine
 10
-487.3108069999998
 20
1223.555424
 30
0.0
 11
-486.3070769999998
 21
1223.555424
 31
0.0
  0
LINE
  5
2801
330
18
100
AcDbEntity
  8
0
100
AcDbLine
 10
-484.748247
 20
1218.555424
 30
0.0
 11
-483.744567
 21
1218.555424
 31
0.0
  0
LINE
  5
2802
330
18
100
AcDbEntity
  8
0
100
AcDbLine
 10
-484.748307
 20
1218.555224
 30
0.0
 11
-484.3108669999998
 21
1223.555324
 31
0.0
  0
LINE
  5
2803
330
18
100
AcDbEntity
  8
0
100
AcDbLine
 10
-483.744467
 20
1218.555323999999
 30
0.0
 11
-483.307067
 21
1223.555324
 31
0.0
  0
LINE
  5
2804
330
18
100
AcDbEntity
  8
0
100
AcDbLine
 10
-484.310767
 20
1223.555424
 30
0.0
 11
-483.307067
 21
1223.555424
 31
0.0
  0
LINE
  5
2805
330
18
100
AcDbEntity
  8
0
100
AcDbLine
 10
-481.748267
 20
1218.555424
 30
0.0
 11
-480.7444669999998
 21
1218.555424
 31
0.0
  0
LINE
  5
2806
330
18
100
AcDbEntity
  8
0
100
AcDbLine
 10
-481.748267
 20
1218.555224
 30
0.0
 11
-481.3107669999998
 21
1223.555424
 31
0.0
  0
LINE
  5
2807
330
18
100
AcDbEntity
  8
0
100
AcDbLine
 10
-480.744367
 20
1218.555323999999
 30
0.0
 11
-480.306967
 21
1223.555324
 31
0.0
  0
LINE
  5
2808
330
18
100
AcDbEntity
  8
0
100
AcDbLine
 10
-481.3107669999998
 20
1223.555424
 30
0.0
 11
-480.307067
 21
1223.555424
 31
0.0
  0
LINE
  5
2809
330
18
100
AcDbEntity
  8
0
100
AcDbLine
 10
-478.748267
 20
1218.555424
 30
0.0
 11
-477.744467
 21
1218.555424
 31
0.0
  0
LINE
  5
280A
330
18
100
AcDbEntity
  8
0
100
AcDbLine
 10
-478.748267
 20
1218.555424
 30
0.0
 11
-478.3108669999998
 21
1223.555424
 31
0.0
  0
LINE
  5
280B
330
18
100
AcDbEntity
  8
0
100
AcDbLine
 10
-477.744367
 20
1218.555323999999
 30
0.0
 11
-477.3069669999999
 21
1223.555324
 31
0.0
  0
LINE
  5
280C
330
18
100
AcDbEntity
  8
0
100
AcDbLine
 10
-478.3108669999998
 20
1223.555424
 30
0.0
 11
-477.307067
 21
1223.555424
 31
0.0
  0
LINE
  5
280D
330
18
100
AcDbEntity
  8
0
100
AcDbLine
 10
-475.7482669999998
 20
1218.555424
 30
0.0
 11
-474.744467
 21
1218.555424
 31
0.0
  0
LINE
  5
280E
330
18
100
AcDbEntity
  8
0
100
AcDbLine
 10
-475.7482669999998
 20
1218.555224
 30
0.0
 11
-475.3108669999998
 21
1223.555224
 31
0.0
  0
LINE
  5
280F
330
18
100
AcDbEntity
  8
0
100
AcDbLine
 10
-474.744467
 20
1218.555323999999
 30
0.0
 11
-474.307067
 21
1223.555324
 31
0.0
  0
LINE
  5
2810
330
18
100
AcDbEntity
  8
0
100
AcDbLine
 10
-475.310767
 20
1223.555424
 30
0.0
 11
-474.307067
 21
1223.555424
 31
0.0
  0
LINE
  5
2811
330
18
100
AcDbEntity
  8
0
100
AcDbLine
 10
-472.7482669999998
 20
1218.555424
 30
0.0
 11
-471.7444669999999
 21
1218.555424
 31
0.0
  0
LINE
  5
2812
330
18
100
AcDbEntity
  8
0
100
AcDbLine
 10
-472.7481669999998
 20
1218.555424
 30
0.0
 11
-472.310767
 21
1223.555424
 31
0.0
  0
LINE
  5
2813
330
18
100
AcDbEntity
  8
0
100
AcDbLine
 10
-471.744367
 20
1218.555323999999
 30
0.0
 11
-471.306967
 21
1223.555324
 31
0.0
  0
LINE
  5
2814
330
18
100
AcDbEntity
  8
0
100
AcDbLine
 10
-472.310767
 20
1223.555424
 30
0.0
 11
-471.307067
 21
1223.555424
 31
0.0
  0
LINE
  5
2815
330
18
100
AcDbEntity
  8
0
100
AcDbLine
 10
-469.748267
 20
1218.555424
 30
0.0
 11
-468.744567
 21
1218.555424
 31
0.0
  0
LINE
  5
2816
330
18
100
AcDbEntity
  8
0
100
AcDbLine
 10
-469.748267
 20
1218.555224
 30
0.0
 11
-469.3107669999998
 21
1223.555424
 31
0.0
  0
LINE
  5
2817
330
18
100
AcDbEntity
  8
0
100
AcDbLine
 10
-468.744367
 20
1218.555323999999
 30
0.0
 11
-468.306967
 21
1223.555324
 31
0.0
  0
LINE
  5
2818
330
18
100
AcDbEntity
  8
0
100
AcDbLine
 10
-469.3107669999998
 20
1223.555424
 30
0.0
 11
-468.307067
 21
1223.555424
 31
0.0
  0
LINE
  5
2819
330
18
100
AcDbEntity
  8
0
100
AcDbLine
 10
-466.748267
 20
1218.555424
 30
0.0
 11
-465.744467
 21
1218.555424
 31
0.0
  0
LINE
  5
281A
330
18
100
AcDbEntity
  8
0
100
AcDbLine
 10
-466.748267
 20
1218.555224
 30
0.0
 11
-466.310767
 21
1223.555424
 31
0.0
  0
LINE
  5
281B
330
18
100
AcDbEntity
  8
0
100
AcDbLine
 10
-465.744467
 20
1218.555424
 30
0.0
 11
-465.3070669999998
 21
1223.555324
 31
0.0
  0
LINE
  5
281C
330
18
100
AcDbEntity
  8
0
100
AcDbLine
 10
-466.310767
 20
1223.555424
 30
0.0
 11
-465.3070669999998
 21
1223.555424
 31
0.0
  0
LINE
  5
281D
330
18
100
AcDbEntity
  8
0
100
AcDbLine
 10
-463.7482669999998
 20
1218.555424
 30
0.0
 11
-462.744467
 21
1218.555424
 31
0.0
  0
LINE
  5
281E
330
18
100
AcDbEntity
  8
0
100
AcDbLine
 10
-463.7481669999998
 20
1218.555424
 30
0.0
 11
-463.310767
 21
1223.555424
 31
0.0
  0
LINE
  5
281F
330
18
100
AcDbEntity
  8
0
100
AcDbLine
 10
-503.012707
 20
1215.055624
 30
0.0
 11
-461.0126669999998
 21
1215.055624
 31
0.0
  0
ARC
  5
2820
330
18
100
AcDbEntity
  8
0
100
AcDbCircle
 10
-504.762707
 20
1183.749924
 30
0.0
 40
2.75
100
AcDbArc
 50
95.44662
 51
280.8932509999999
  0
LINE
  5
2821
330
18
100
AcDbEntity
  8
0
100
AcDbLine
 10
-502.012707
 20
1198.805424
 30
0.0
 11
-502.012707
 21
1186.774424
 31
0.0
  0
LINE
  5
2822
330
18
100
AcDbEntity
  8
0
100
AcDbLine
 10
-505.012587
 20
1206.805624
 30
0.0
 11
-503.012527
 21
1198.805424
 31
0.0
  0
LINE
  5
2823
330
18
100
AcDbEntity
  8
0
100
AcDbLine
 10
-501.012767
 20
1198.805424
 30
0.0
 11
-501.012767
 21
1215.055624
 31
0.0
  0
ARC
  5
2824
330
18
100
AcDbEntity
  8
0
100
AcDbCircle
 10
-504.762707
 20
1163.249823999998
 30
0.0
 40
2.75
100
AcDbArc
 50
95.44662
 51
280.8932509999999
  0
LINE
  5
2825
330
18
100
AcDbEntity
  8
0
100
AcDbLine
 10
-502.012707
 20
1181.261924
 30
0.0
 11
-502.012707
 21
1166.274424
 31
0.0
  0
LINE
  5
2826
330
18
100
AcDbEntity
  8
0
100
AcDbLine
 10
-327.5126669999999
 20
1416.305123999999
 30
0.0
 11
-323.5126669999999
 21
1420.305124
 31
0.0
  0
ARC
  5
2828
330
18
100
AcDbEntity
  8
0
100
AcDbCircle
 10
-291.0125669999998
 20
1490.305123999999
 30
0.0
 40
142.0
100
AcDbArc
 50
270.0
 51
0.000003
  0
ARC
  5
2829
330
18
100
AcDbEntity
  8
0
100
AcDbCircle
 10
-291.0125669999998
 20
1490.305123999999
 30
0.0
 40
110.0
100
AcDbArc
 50
270.0
 51
0.000003
  0
LINE
  5
282A
330
18
100
AcDbEntity
  8
0
100
AcDbLine
 10
-375.9039669999998
 20
1451.148124
 30
0.0
 11
-376.973567
 21
1471.555324
 31
0.0
  0
LWPOLYLINE
  5
282B
330
18
100
AcDbEntity
  8
0
100
AcDbPolyline
 90
       17
 70
     0
 43
0.0
 10
-377.763367
 20
1472.305024
 42
-0.024731
 10
-377.6885669999998
 20
1472.301324
 42
-0.024361
 10
-377.6144669999998
 20
1472.290224
 42
-0.024023
 10
-377.5417669999998
 20
1472.272024
 42
-0.023727
 10
-377.471067
 20
1472.247024
 42
-0.023481
 10
-377.4031669999998
 20
1472.215424
 42
-0.02329
 10
-377.338367
 20
1472.177724
 42
-0.023643
 10
-377.276267
 20
1472.133123999999
 42
-0.023133
 10
-377.2195669999998
 20
1472.083824
 42
-0.023022
 10
-377.1679669999998
 20
1472.029823999999
 42
-0.022874
 10
-377.1219669999998
 20
1471.971923999999
 42
-0.023169
 10
-377.081167
 20
1471.909523999999
 42
-0.023879
 10
-377.0456669999998
 20
1471.842024
 42
-0.023718
 10
-377.0171669999998
 20
1471.772724
 42
-0.024015
 10
-376.995467
 20
1471.701123999999
 42
-0.024356
 10
-376.980767
 20
1471.627623999999
 42
-0.024729
 10
-376.9732669999998
 20
1471.553024
  0
ARC
  5
282C
330
18
100
AcDbEntity
  8
0
100
AcDbCircle
 10
-372.9079669999998
 20
1451.305124
 30
0.0
 40
3.0
100
AcDbArc
 50
183.00001
 51
244.45708
  0
ARC
  5
282D
330
18
100
AcDbEntity
  8
0
100
AcDbCircle
 10
-375.495267
 20
1445.891524
 30
0.0
 40
3.0
100
AcDbArc
 50
2.999999
 51
64.45708
  0
LINE
  5
282E
330
18
100
AcDbEntity
  8
0
100
AcDbLine
 10
-371.150167
 20
1420.304824
 30
0.0
 11
-372.4993669999998
 21
1446.048524
 31
0.0
  0
LINE
  5
2830
330
18
100
AcDbEntity
  8
0
100
AcDbLine
 10
-371.5125669999998
 20
1275.305624
 30
0.0
 11
-371.5125669999998
 21
1325.305324
 31
0.0
  0
LINE
  5
2831
330
18
100
AcDbEntity
  8
0
100
AcDbLine
 10
-347.5126669999998
 20
1346.705224
 30
0.0
 11
-365.5126669999998
 21
1346.705224
 31
0.0
  0
LWPOLYLINE
  5
2832
330
18
100
AcDbEntity
  8
0
100
AcDbPolyline
 90
        4
 70
     0
 43
0.0
 10
-343.0126669999999
 20
1386.305324
 42
-0.061698
 10
-351.906267
 20
1383.921524
 42
-0.068971
 10
-361.108267
 20
1383.948024
 42
-0.059729
 10
-370.0126669999998
 20
1386.305324
  0
LINE
  5
2833
330
18
100
AcDbEntity
  8
0
100
AcDbLine
 10
-370.0126669999998
 20
1393.305124
 30
0.0
 11
-345.0128669999998
 21
1393.305124
 31
0.0
  0
LINE
  5
2834
330
18
100
AcDbEntity
  8
0
100
AcDbLine
 10
-411.0128669999999
 20
1365.305324
 30
0.0
 11
-325.0126669999999
 21
1365.305324
 31
0.0
  0
LWPOLYLINE
  5
2835
330
18
100
AcDbEntity
  8
0
100
AcDbPolyline
 90
        4
 70
     0
 43
0.0
 10
-370.0126669999998
 20
1385.305323999999
 42
0.043828
 10
-382.4458669999998
 20
1381.085824
 42
0.0471
 10
-393.913067
 20
1374.694024
 42
0.044574
 10
-404.0126669999998
 20
1366.305324
  0
LINE
  5
2836
330
18
100
AcDbEntity
  8
0
100
AcDbLine
 10
-418.012867
 20
1401.305124
 30
0.0
 11
-403.6127669999998
 21
1365.305124
 31
0.0
  0
LINE
  5
2837
330
18
100
AcDbEntity
  8
0
100
AcDbLine
 10
-418.0126669999998
 20
1372.305124
 30
0.0
 11
-418.0126669999998
 21
1401.305323999999
 31
0.0
  0
LINE
  5
2838
330
18
100
AcDbEntity
  8
0
100
AcDbLine
 10
-431.0126669999998
 20
1380.305324
 30
0.0
 11
-431.0126669999998
 21
1401.305323999999
 31
0.0
  0
LWPOLYLINE
  5
2839
330
18
100
AcDbEntity
  8
0
100
AcDbPolyline
 90
        4
 70
     0
 43
0.0
 10
-431.0126669999998
 20
1379.305323999999
 42
-0.054832
 10
-423.218167
 20
1375.931724
 42
-0.061745
 10
-416.409667
 20
1370.861624
 42
-0.057234
 10
-411.0128669999999
 20
1364.305324
  0
LINE
  5
283A
330
18
100
AcDbEntity
  8
0
100
AcDbLine
 10
-370.0126669999998
 20
1386.305324
 30
0.0
 11
-370.0126669999998
 21
1393.305124
 31
0.0
  0
LINE
  5
283B
330
18
100
AcDbEntity
  8
0
100
AcDbLine
 10
-372.0125669999998
 20
1365.305324
 30
0.0
 11
-369.012567
 21
1365.305324
 31
0.0
  0
LINE
  5
283C
330
18
100
AcDbEntity
  8
0
100
AcDbLine
 10
-441.0126669999998
 20
1325.305324
 30
0.0
 11
-440.385467
 21
1348.305124
 31
0.0
  0
LINE
  5
283D
330
18
100
AcDbEntity
  8
0
100
AcDbLine
 10
-349.0071669999998
 20
1341.785824
 30
0.0
 11
-349.0071669999998
 21
1346.705224
 31
0.0
  0
LINE
  5
283E
330
18
100
AcDbEntity
  8
0
100
AcDbLine
 10
-351.862767
 20
1348.305124
 30
0.0
 11
-351.862767
 21
1346.705224
 31
0.0
  0
ARC
  5
283F
330
18
100
AcDbEntity
  8
0
100
AcDbCircle
 10
-356.5126669999998
 20
1353.624924
 30
0.0
 40
12.419868
100
AcDbArc
 50
252.4126399999999
 51
287.5873459999999
  0
ARC
  5
2840
330
18
100
AcDbEntity
  8
0
100
AcDbCircle
 10
-362.1419669999998
 20
1344.528024
 30
0.0
 40
3.322668
100
AcDbArc
 50
244.38553
 51
304.383145
  0
LINE
  5
2841
330
18
100
AcDbEntity
  8
0
100
AcDbLine
 10
-352.7600669999998
 20
1341.785824
 30
0.0
 11
-352.7600669999998
 21
1346.705224
 31
0.0
  0
LINE
  5
2842
330
18
100
AcDbEntity
  8
0
100
AcDbLine
 10
-360.265467
 20
1341.785824
 30
0.0
 11
-360.265467
 21
1346.705224
 31
0.0
  0
LINE
  5
2843
330
18
100
AcDbEntity
  8
0
100
AcDbLine
 10
-364.018167
 20
1341.785824
 30
0.0
 11
-364.018167
 21
1346.705224
 31
0.0
  0
LINE
  5
2844
330
18
100
AcDbEntity
  8
0
100
AcDbLine
 10
-361.1628669999998
 20
1348.305124
 30
0.0
 11
-361.1628669999998
 21
1346.705224
 31
0.0
  0
LINE
  5
2845
330
18
100
AcDbEntity
  8
0
100
AcDbLine
 10
-365.5126669999998
 20
1348.305124
 30
0.0
 11
-365.5126669999998
 21
1346.705224
 31
0.0
  0
LINE
  5
2846
330
18
100
AcDbEntity
  8
0
100
AcDbLine
 10
-373.0126669999998
 20
1325.305324
 30
0.0
 11
-373.0126669999998
 21
1348.305124
 31
0.0
  0
ARC
  5
2847
330
18
100
AcDbEntity
  8
0
100
AcDbCircle
 10
-350.883467
 20
1344.527724
 30
0.0
 40
3.322595999999998
100
AcDbArc
 50
235.61609
 51
295.6167939999999
  0
LINE
  5
2848
330
18
100
AcDbEntity
  8
0
100
AcDbLine
 10
-363.0128669999998
 20
1341.205224
 30
0.0
 11
-350.0126669999998
 21
1341.205224
 31
0.0
  0
LINE
  5
2849
330
18
100
AcDbEntity
  8
0
100
AcDbLine
 10
-392.332567
 20
1325.305324
 30
0.0
 11
-392.332567
 21
1348.305124
 31
0.0
  0
LINE
  5
284A
330
18
100
AcDbEntity
  8
0
100
AcDbLine
 10
-394.4539669999998
 20
1325.305324
 30
0.0
 11
-394.4539669999998
 21
1348.305124
 31
0.0
  0
LINE
  5
284B
330
18
100
AcDbEntity
  8
0
100
AcDbLine
 10
-396.929167
 20
1325.305324
 30
0.0
 11
-396.929167
 21
1348.305124
 31
0.0
  0
LINE
  5
284C
330
18
100
AcDbEntity
  8
0
100
AcDbLine
 10
-325.0126669999999
 20
1380.305324
 30
0.0
 11
-291.0125669999998
 21
1380.305324
 31
0.0
  0
LINE
  5
284D
330
18
100
AcDbEntity
  8
0
100
AcDbLine
 10
-325.0126669999999
 20
1365.305324
 30
0.0
 11
-325.0126669999999
 21
1402.305124
 31
0.0
  0
ARC
  5
284E
330
18
100
AcDbEntity
  8
0
100
AcDbCircle
 10
-341.0128669999998
 20
1388.305324
 30
0.0
 40
2.0
100
AcDbArc
 50
179.9999899999999
 51
270.000001
  0
ARC
  5
284F
330
18
100
AcDbEntity
  8
0
100
AcDbCircle
 10
-345.0128669999998
 20
1391.305324
 30
0.0
 40
2.0
100
AcDbArc
 50
0.000003
 51
90.00001000000002
  0
ARC
  5
2850
330
18
100
AcDbEntity
  8
0
100
AcDbCircle
 10
-328.0126669999999
 20
1403.305323999999
 30
0.0
 40
1.0
100
AcDbArc
 50
270.0
 51
0.000003
  0
LINE
  5
2851
330
18
100
AcDbEntity
  8
0
100
AcDbLine
 10
-343.0126669999999
 20
1388.305324
 30
0.0
 11
-343.0126669999999
 21
1391.305324
 31
0.0
  0
LINE
  5
2852
330
18
100
AcDbEntity
  8
0
100
AcDbLine
 10
-341.0128669999998
 20
1386.305324
 30
0.0
 11
-325.0126669999999
 21
1386.305324
 31
0.0
  0
LINE
  5
2853
330
18
100
AcDbEntity
  8
0
100
AcDbLine
 10
-327.5126669999999
 20
1416.305324
 30
0.0
 11
-327.5126669999999
 21
1412.305324
 31
0.0
  0
LINE
  5
2854
330
18
100
AcDbEntity
  8
0
100
AcDbLine
 10
-327.0128669999998
 20
1403.305323999999
 30
0.0
 11
-327.0128669999998
 21
1412.305324
 31
0.0
  0
LINE
  5
2855
330
18
100
AcDbEntity
  8
0
100
AcDbLine
 10
-347.5126669999998
 20
1348.305124
 30
0.0
 11
-347.5126669999998
 21
1346.705224
 31
0.0
  0
LINE
  5
2856
330
18
100
AcDbEntity
  8
0
100
AcDbLine
 10
-399.0126669999998
 20
1227.055624
 30
0.0
 11
-399.0126669999998
 21
1215.055624
 31
0.0
  0
LINE
  5
2857
330
18
100
AcDbEntity
  8
0
100
AcDbLine
 10
-397.0126669999998
 20
1235.305424
 30
0.0
 11
-397.0126669999998
 21
1206.805624
 31
0.0
  0
LINE
  5
2858
330
18
100
AcDbEntity
  8
0
100
AcDbLine
 10
-438.0128669999998
 20
1225.555624
 30
0.0
 11
-438.0128669999998
 21
1216.555424
 31
0.0
  0
LINE
  5
2859
330
18
100
AcDbEntity
  8
0
100
AcDbLine
 10
-431.0126669999998
 20
1224.555324
 30
0.0
 11
-431.0126669999998
 21
1217.555224
 31
0.0
  0
LINE
  5
285A
330
18
100
AcDbEntity
  8
0
100
AcDbLine
 10
-436.0126669999998
 20
1225.555624
 30
0.0
 11
-436.0126669999998
 21
1216.555424
 31
0.0
  0
LINE
  5
285B
330
18
100
AcDbEntity
  8
0
100
AcDbLine
 10
-441.0128669999998
 20
1230.055624
 30
0.0
 11
-441.0128669999998
 21
1212.055624
 31
0.0
  0
LINE
  5
285C
330
18
100
AcDbEntity
  8
0
100
AcDbLine
 10
-399.0126669999998
 20
1243.305324
 30
0.0
 11
-399.0126669999998
 21
1198.805424
 31
0.0
  0
LINE
  5
285D
330
18
100
AcDbEntity
  8
0
100
AcDbLine
 10
-399.0126669999998
 20
1243.305324
 30
0.0
 11
-397.0126669999998
 21
1235.305324
 31
0.0
  0
LINE
  5
285E
330
18
100
AcDbEntity
  8
0
100
AcDbLine
 10
-401.0125669999998
 20
1243.305224
 30
0.0
 11
-371.5125669999998
 21
1275.305123999999
 31
0.0
  0
LINE
  5
285F
330
18
100
AcDbEntity
  8
0
100
AcDbLine
 10
-401.012667
 20
1243.305324
 30
0.0
 11
-401.012667
 21
1227.055624
 31
0.0
  0
LWPOLYLINE
  5
2860
330
18
100
AcDbEntity
  8
0
100
AcDbPolyline
 90
        4
 70
     0
 43
0.0
 10
-438.0128669999998
 20
1225.555324
 42
0.044923
 10
-439.0703669999998
 20
1225.413024
 42
0.048299
 10
-440.083567
 20
1225.078024
 42
0.046813
 10
-441.0128669999998
 20
1224.555324
  0
LINE
  5
2861
330
18
100
AcDbEntity
  8
0
100
AcDbLine
 10
-436.0126669999998
 20
1221.055424
 30
0.0
 11
-431.0126669999998
 21
1221.055424
 31
0.0
  0
LINE
  5
2862
330
18
100
AcDbEntity
  8
0
100
AcDbLine
 10
-436.0126669999998
 20
1224.555324
 30
0.0
 11
-431.0126669999998
 21
1224.555324
 31
0.0
  0
LINE
  5
2863
330
18
100
AcDbEntity
  8
0
100
AcDbLine
 10
-438.0128669999998
 20
1225.555624
 30
0.0
 11
-436.0126669999998
 21
1225.555624
 31
0.0
  0
LINE
  5
2864
330
18
100
AcDbEntity
  8
0
100
AcDbLine
 10
-441.0128669999998
 20
1227.055624
 30
0.0
 11
-399.0126669999998
 21
1227.055624
 31
0.0
  0
ARC
  5
2865
330
18
100
AcDbEntity
  8
0
100
AcDbCircle
 10
-397.262667
 20
1173.499824
 30
0.0
 40
2.75
100
AcDbArc
 50
270.0
 51
95.44662
  0
ARC
  5
2866
330
18
100
AcDbEntity
  8
0
100
AcDbCircle
 10
-397.259567
 20
1194.006223999998
 30
0.0
 40
2.743743999999998
100
AcDbArc
 50
270.0
 51
95.44662
  0
LINE
  5
2867
330
18
100
AcDbEntity
  8
0
100
AcDbLine
 10
-399.0126669999998
 20
1198.805424
 30
0.0
 11
-397.0126669999998
 21
1206.805324
 31
0.0
  0
LINE
  5
2868
330
18
100
AcDbEntity
  8
0
100
AcDbLine
 10
-400.0126669999998
 20
1190.987624
 30
0.0
 11
-400.0126669999998
 21
1176.000024
 31
0.0
  0
LINE
  5
2869
330
18
100
AcDbEntity
  8
0
100
AcDbLine
 10
-400.0126669999998
 20
1198.805424
 30
0.0
 11
-400.0126669999998
 21
1196.499924
 31
0.0
  0
LWPOLYLINE
  5
286A
330
18
100
AcDbEntity
  8
0
100
AcDbPolyline
 90
        4
 70
     0
 43
0.0
 10
-438.0128669999998
 20
1216.555323999999
 42
-0.044943
 10
-439.070267
 20
1216.697724
 42
-0.048262
 10
-440.083567
 20
1217.032724
 42
-0.046849
 10
-441.0128669999998
 20
1217.555224
  0
LINE
  5
286B
330
18
100
AcDbEntity
  8
0
100
AcDbLine
 10
-436.0126669999998
 20
1217.555424
 30
0.0
 11
-431.0126669999998
 21
1217.555424
 31
0.0
  0
LINE
  5
286C
330
18
100
AcDbEntity
  8
0
100
AcDbLine
 10
-438.0128669999998
 20
1216.555424
 30
0.0
 11
-436.0126669999998
 21
1216.555424
 31
0.0
  0
LINE
  5
286D
330
18
100
AcDbEntity
  8
0
100
AcDbLine
 10
-441.0128669999998
 20
1215.055624
 30
0.0
 11
-399.0126669999998
 21
1215.055624
 31
0.0
  0
LINE
  5
286E
330
18
100
AcDbEntity
  8
0
100
AcDbLine
 10
-401.012667
 20
1215.055624
 30
0.0
 11
-401.012667
 21
1198.805424
 31
0.0
  0
LINE
  5
286F
330
18
100
AcDbEntity
  8
0
100
AcDbLine
 10
-401.012667
 20
1202.555424
 30
0.0
 11
-401.012667
 21
1215.055624
 31
0.0
  0
LINE
  5
2870
330
18
100
AcDbEntity
  8
0
100
AcDbLine
 10
-400.0126669999998
 20
1170.487724
 30
0.0
 11
-400.0126669999998
 21
1155.500023999999
 31
0.0
  0
LINE
  5
2872
330
18
100
AcDbEntity
  8
0
100
AcDbLine
 10
230.5916269999999
 20
1753.305123999999
 30
0.0
 11
230.5916269999999
 21
1364.305124
 31
0.0
  0
LINE
  5
2873
330
18
100
AcDbEntity
  8
0
100
AcDbLine
 10
198.5916269999999
 20
1753.305123999999
 30
0.0
 11
198.5916269999999
 21
1364.305124
 31
0.0
  0
LINE
  5
2874
330
18
100
AcDbEntity
  8
0
100
AcDbLine
 10
394.5917269999998
 20
1753.305123999999
 30
0.0
 11
394.5917269999998
 21
1364.305124
 31
0.0
  0
LINE
  5
2875
330
18
100
AcDbEntity
  8
0
100
AcDbLine
 10
426.5917269999998
 20
1753.305123999999
 30
0.0
 11
426.5917269999998
 21
1364.305124
 31
0.0
  0
LINE
  5
287C
330
18
100
AcDbEntity
  8
0
100
AcDbLine
 10
198.5916269999999
 20
1753.305123999999
 30
0.0
 11
230.5916269999999
 21
1753.305123999999
 31
0.0
  0
LINE
  5
2880
330
18
100
AcDbEntity
  8
0
100
AcDbLine
 10
198.5916269999999
 20
1748.305123999999
 30
0.0
 11
230.5916269999999
 21
1748.305123999999
 31
0.0
  0
CIRCLE
  5
2881
330
18
100
AcDbEntity
  8
0
100
AcDbCircle
 10
214.5917269999999
 20
1723.305123999999
 30
0.0
 40
4.75
  0
LINE
  5
2882
330
18
100
AcDbEntity
  8
0
100
AcDbLine
 10
394.5917269999998
 20
1753.305123999999
 30
0.0
 11
426.5917269999998
 21
1753.305123999999
 31
0.0
  0
LINE
  5
2884
330
18
100
AcDbEntity
  8
0
100
AcDbLine
 10
394.5917269999998
 20
1748.305123999999
 30
0.0
 11
426.5917269999998
 21
1748.305123999999
 31
0.0
  0
CIRCLE
  5
2885
330
18
100
AcDbEntity
  8
0
100
AcDbCircle
 10
410.5917269999998
 20
1723.305123999999
 30
0.0
 40
4.75
  0
LINE
  5
2886
330
18
100
AcDbEntity
  8
0
100
AcDbLine
 10
436.0916269999998
 20
1416.304824
 30
0.0
 11
440.0917269999998
 21
1420.305124
 31
0.0
  0
LINE
  5
2887
330
18
100
AcDbEntity
  8
0
100
AcDbLine
 10
185.091727
 20
1420.305124
 30
0.0
 11
189.0917269999999
 21
1416.305123999999
 31
0.0
  0
LINE
  5
2888
330
18
100
AcDbEntity
  8
0
100
AcDbLine
 10
230.5916269999999
 20
1420.305124
 30
0.0
 11
394.5917269999998
 21
1420.305124
 31
0.0
  0
LINE
  5
2889
330
18
100
AcDbEntity
  8
0
100
AcDbLine
 10
239.9452269999999
 20
1446.305124
 30
0.0
 11
385.7367269999998
 21
1446.305124
 31
0.0
  0
LINE
  5
288A
330
18
100
AcDbEntity
  8
0
100
AcDbLine
 10
243.229427
 20
1450.305123999999
 30
0.0
 11
382.2541269999998
 21
1450.305123999999
 31
0.0
  0
LINE
  5
288B
330
18
100
AcDbEntity
  8
0
100
AcDbLine
 10
239.342727
 20
1472.305124
 30
0.0
 11
385.840627
 21
1472.305124
 31
0.0
  0
LINE
  5
288D
330
18
100
AcDbEntity
  8
0
100
AcDbLine
 10
185.0916269999999
 20
1420.305124
 30
0.0
 11
198.5916269999999
 21
1420.305124
 31
0.0
  0
LINE
  5
288E
330
18
100
AcDbEntity
  8
0
100
AcDbLine
 10
237.483127
 20
1451.148124
 30
0.0
 11
238.552527
 21
1471.555324
 31
0.0
  0
LWPOLYLINE
  5
288F
330
18
100
AcDbEntity
  8
0
100
AcDbPolyline
 90
       17
 70
     0
 43
0.0
 10
239.342227
 20
1472.305024
 42
0.024724
 10
239.2673269999999
 20
1472.301324
 42
0.024355
 10
239.193227
 20
1472.290224
 42
0.024019
 10
239.1205269999999
 20
1472.272024
 42
0.023724
 10
239.0499269999998
 20
1472.247024
 42
0.02348
 10
238.981927
 20
1472.215524
 42
0.023291
 10
238.9172269999999
 20
1472.177724
 42
0.023647
 10
238.855027
 20
1472.133123999999
 42
0.02314
 10
238.798427
 20
1472.083824
 42
0.02303
 10
238.7468269999998
 20
1472.029823999999
 42
0.022881
 10
238.700727
 20
1471.971923999999
 42
0.023176
 10
238.660027
 20
1471.909523999999
 42
0.023885
 10
238.624427
 20
1471.842124
 42
0.023725
 10
238.5960269999999
 20
1471.772824
 42
0.024021
 10
238.574227
 20
1471.701123999999
 42
0.02436
 10
238.559527
 20
1471.627623999999
 42
0.024731
 10
238.552127
 20
1471.553024
  0
CIRCLE
  5
2890
330
18
100
AcDbEntity
  8
0
100
AcDbCircle
 10
214.5917269999999
 20
1473.305124
 30
0.0
 40
4.75
  0
ARC
  5
2891
330
18
100
AcDbEntity
  8
0
100
AcDbCircle
 10
237.074027
 20
1445.891524
 30
0.0
 40
3.0
100
AcDbArc
 50
115.54292
 51
176.99999
  0
ARC
  5
2892
330
18
100
AcDbEntity
  8
0
100
AcDbCircle
 10
234.486827
 20
1451.305124
 30
0.0
 40
3.0
100
AcDbArc
 50
295.542925
 51
356.9999989999998
  0
LINE
  5
2893
330
18
100
AcDbEntity
  8
0
100
AcDbLine
 10
232.729027
 20
1420.305124
 30
0.0
 11
234.078227
 21
1446.048724
 31
0.0
  0
LINE
  5
2895
330
18
100
AcDbEntity
  8
0
100
AcDbLine
 10
387.7006269999998
 20
1451.148124
 30
0.0
 11
386.6310269999998
 21
1471.555123999999
 31
0.0
  0
LWPOLYLINE
  5
2896
330
18
100
AcDbEntity
  8
0
100
AcDbPolyline
 90
       17
 70
     0
 43
0.0
 10
385.841127
 20
1472.305024
 42
-0.024731
 10
385.915927
 20
1472.301324
 42
-0.024361
 10
385.990027
 20
1472.290224
 42
-0.024023
 10
386.062727
 20
1472.272024
 42
-0.023727
 10
386.133327
 20
1472.247024
 42
-0.023481
 10
386.2013269999998
 20
1472.215424
 42
-0.02329
 10
386.266027
 20
1472.177724
 42
-0.023643
 10
386.328227
 20
1472.133123999999
 42
-0.023133
 10
386.384827
 20
1472.083824
 42
-0.023022
 10
386.4364269999999
 20
1472.029823999999
 42
-0.022874
 10
386.482427
 20
1471.971923999999
 42
-0.023169
 10
386.523227
 20
1471.909523999999
 42
-0.023879
 10
386.558827
 20
1471.842024
 42
-0.023718
 10
386.587227
 20
1471.772724
 42
-0.024015
 10
386.609027
 20
1471.701123999999
 42
-0.024356
 10
386.6237269999998
 20
1471.627623999999
 42
-0.024729
 10
386.631127
 20
1471.553024
  0
ARC
  5
2897
330
18
100
AcDbEntity
  8
0
100
AcDbCircle
 10
390.696427
 20
1451.305124
 30
0.0
 40
3.0
100
AcDbArc
 50
183.00001
 51
244.45708
  0
ARC
  5
2898
330
18
100
AcDbEntity
  8
0
100
AcDbCircle
 10
388.1092269999998
 20
1445.891524
 30
0.0
 40
3.0
100
AcDbArc
 50
2.999999
 51
64.45708
  0
LINE
  5
2899
330
18
100
AcDbEntity
  8
0
100
AcDbLine
 10
392.454327
 20
1420.305124
 30
0.0
 11
391.1051269999998
 21
1446.048724
 31
0.0
  0
CIRCLE
  5
289A
330
18
100
AcDbEntity
  8
0
100
AcDbCircle
 10
410.5917269999998
 20
1473.305124
 30
0.0
 40
4.75
  0
LINE
  5
289B
330
18
100
AcDbEntity
  8
0
100
AcDbLine
 10
426.5917269999998
 20
1420.305124
 30
0.0
 11
440.0917269999998
 21
1420.305124
 31
0.0
  0
ARC
  5
289C
330
18
100
AcDbEntity
  8
0
100
AcDbCircle
 10
258.8417269999999
 20
1172.879524
 30
0.0
 40
2.75
100
AcDbArc
 50
95.44662
 51
280.8932509999999
  0
ARC
  5
289D
330
18
100
AcDbEntity
  8
0
100
AcDbCircle
 10
258.8417269999999
 20
1193.379524
 30
0.0
 40
2.75
100
AcDbArc
 50
95.44662
 51
280.8932509999999
  0
LINE
  5
289E
330
18
100
AcDbEntity
  8
0
100
AcDbLine
 10
233.0916269999999
 20
1275.305324
 30
0.0
 11
262.5917269999999
 21
1243.305224
 31
0.0
  0
LINE
  5
289F
330
18
100
AcDbEntity
  8
0
100
AcDbLine
 10
233.091727
 20
1275.305624
 30
0.0
 11
392.091827
 21
1275.305624
 31
0.0
  0
ARC
  5
28A0
330
18
100
AcDbEntity
  8
0
100
AcDbCircle
 10
256.5081269999999
 20
1378.305124
 30
0.0
 40
2.0
100
AcDbArc
 50
0.000003
 51
90.00001000000002
  0
LINE
  5
28A1
330
18
100
AcDbEntity
  8
0
100
AcDbLine
 10
312.591527
 20
1407.305324
 30
0.0
 11
230.5916269999999
 21
1385.005323999999
 31
0.0
  0
LINE
  5
28A2
330
18
100
AcDbEntity
  8
0
100
AcDbLine
 10
312.591627
 20
1403.160124
 30
0.0
 11
233.5917269999999
 21
1381.675924
 31
0.0
  0
LINE
  5
28A3
330
18
100
AcDbEntity
  8
0
100
AcDbLine
 10
233.5916269999999
 20
1380.305324
 30
0.0
 11
391.5917269999998
 21
1380.305324
 31
0.0
  0
LINE
  5
28A4
330
18
100
AcDbEntity
  8
0
100
AcDbLine
 10
231.091527
 20
1325.305324
 30
0.0
 11
394.0917269999998
 21
1325.305324
 31
0.0
  0
LINE
  5
28A5
330
18
100
AcDbEntity
  8
0
100
AcDbLine
 10
230.5916269999999
 20
1416.305324
 30
0.0
 11
394.5917269999998
 21
1416.305324
 31
0.0
  0
LINE
  5
28A6
330
18
100
AcDbEntity
  8
0
100
AcDbLine
 10
230.5916269999999
 20
1412.305324
 30
0.0
 11
394.5917269999998
 21
1412.305324
 31
0.0
  0
LINE
  5
28A7
330
18
100
AcDbEntity
  8
0
100
AcDbLine
 10
233.091727
 20
1275.305324
 30
0.0
 11
233.091727
 21
1325.305324
 31
0.0
  0
LINE
  5
28A8
330
18
100
AcDbEntity
  8
0
100
AcDbLine
 10
253.911427
 20
1325.305324
 30
0.0
 11
253.911427
 21
1370.305324
 31
0.0
  0
LINE
  5
28A9
330
18
100
AcDbEntity
  8
0
100
AcDbLine
 10
256.032727
 20
1325.305324
 30
0.0
 11
256.032727
 21
1370.305324
 31
0.0
  0
ARC
  5
28AA
330
18
100
AcDbEntity
  8
0
100
AcDbCircle
 10
214.5917269999999
 20
1364.305124
 30
0.0
 40
16.0
100
AcDbArc
 50
179.9999899999999
 51
0.000003
  0
LINE
  5
28AB
330
18
100
AcDbEntity
  8
0
100
AcDbLine
 10
234.591627
 20
1325.305324
 30
0.0
 11
234.591627
 21
1380.305324
 31
0.0
  0
LINE
  5
28AC
330
18
100
AcDbEntity
  8
0
100
AcDbLine
 10
231.091527
 20
1325.305324
 30
0.0
 11
231.091527
 21
1365.305324
 31
0.0
  0
LINE
  5
28AD
330
18
100
AcDbEntity
  8
0
100
AcDbLine
 10
192.5916269999999
 20
1365.305324
 30
0.0
 11
192.5916269999999
 21
1402.305124
 31
0.0
  0
LINE
  5
28AE
330
18
100
AcDbEntity
  8
0
100
AcDbLine
 10
188.5916269999999
 20
1402.305124
 30
0.0
 11
198.5916269999999
 21
1402.305124
 31
0.0
  0
LINE
  5
28AF
330
18
100
AcDbEntity
  8
0
100
AcDbLine
 10
189.0917269999999
 20
1416.305324
 30
0.0
 11
189.0917269999999
 21
1412.305324
 31
0.0
  0
LINE
  5
28B0
330
18
100
AcDbEntity
  8
0
100
AcDbLine
 10
189.091527
 20
1416.305324
 30
0.0
 11
198.5916269999999
 21
1416.305324
 31
0.0
  0
LINE
  5
28B1
330
18
100
AcDbEntity
  8
0
100
AcDbLine
 10
188.5916269999999
 20
1412.305324
 30
0.0
 11
198.5916269999999
 21
1412.305324
 31
0.0
  0
LINE
  5
28B2
330
18
100
AcDbEntity
  8
0
100
AcDbLine
 10
188.5916269999999
 20
1402.305124
 30
0.0
 11
188.5916269999999
 21
1412.305324
 31
0.0
  0
LINE
  5
28B3
330
18
100
AcDbEntity
  8
0
100
AcDbLine
 10
198.5916269999999
 20
1365.305324
 30
0.0
 11
192.5916269999999
 21
1365.305324
 31
0.0
  0
LWPOLYLINE
  5
28B4
330
18
100
AcDbEntity
  8
0
100
AcDbPolyline
 90
        4
 70
     0
 43
0.0
 10
256.032727
 20
1370.305324
 42
0.085689
 10
255.2988269999999
 20
1374.648524
 42
0.132663
 10
252.862627
 20
1378.282723999999
 42
0.102443
 10
248.9606269999999
 20
1380.305324
  0
LINE
  5
28B5
330
18
100
AcDbEntity
  8
0
100
AcDbLine
 10
233.5916269999999
 20
1365.305324
 30
0.0
 11
230.5916269999999
 21
1365.305324
 31
0.0
  0
LINE
  5
28B6
330
18
100
AcDbEntity
  8
0
100
AcDbLine
 10
233.5916269999999
 20
1365.305324
 30
0.0
 11
233.5916269999999
 21
1381.675924
 31
0.0
  0
LINE
  5
28B7
330
18
100
AcDbEntity
  8
0
100
AcDbLine
 10
231.091527
 20
1365.305324
 30
0.0
 11
230.5916269999999
 21
1365.305324
 31
0.0
  0
LWPOLYLINE
  5
28B8
330
18
100
AcDbEntity
  8
0
100
AcDbPolyline
 90
        4
 70
     0
 43
0.0
 10
253.911427
 20
1370.305324
 42
0.085698
 10
253.1773269999999
 20
1374.648424
 42
0.132642
 10
250.7411269999999
 20
1378.282624
 42
0.102457
 10
246.8393269999999
 20
1380.305324
  0
LINE
  5
28B9
330
18
100
AcDbEntity
  8
0
100
AcDbLine
 10
392.091827
 20
1275.305624
 30
0.0
 11
392.091827
 21
1325.305324
 31
0.0
  0
LINE
  5
28BA
330
18
100
AcDbEntity
  8
0
100
AcDbLine
 10
312.591627
 20
1380.305324
 30
0.0
 11
391.5917269999998
 21
1380.305324
 31
0.0
  0
LINE
  5
28BB
330
18
100
AcDbEntity
  8
0
100
AcDbLine
 10
312.591627
 20
1403.160323999999
 30
0.0
 11
391.5915269999998
 21
1381.676224
 31
0.0
  0
LINE
  5
28BC
330
18
100
AcDbEntity
  8
0
100
AcDbLine
 10
312.591627
 20
1407.305324
 30
0.0
 11
394.591627
 21
1385.005323999999
 31
0.0
  0
LINE
  5
28BD
330
18
100
AcDbEntity
  8
0
100
AcDbLine
 10
322.591627
 20
1325.305124
 30
0.0
 11
324.0385269999998
 21
1378.359824
 31
0.0
  0
LINE
  5
28BE
330
18
100
AcDbEntity
  8
0
100
AcDbLine
 10
302.591627
 20
1325.305124
 30
0.0
 11
301.091627
 21
1380.305124
 31
0.0
  0
LINE
  5
28BF
330
18
100
AcDbEntity
  8
0
100
AcDbLine
 10
258.508227
 20
1325.305324
 30
0.0
 11
258.508227
 21
1378.305124
 31
0.0
  0
ARC
  5
28C0
330
18
100
AcDbEntity
  8
0
100
AcDbCircle
 10
299.1454269999998
 20
1378.305324
 30
0.0
 40
2.0
100
AcDbArc
 50
1.562224
 51
90.00001000000002
  0
ARC
  5
28C1
330
18
100
AcDbEntity
  8
0
100
AcDbCircle
 10
326.037927
 20
1378.305324
 30
0.0
 40
2.0
100
AcDbArc
 50
90.00001000000002
 51
178.43778
  0
CIRCLE
  5
28C2
330
18
100
AcDbEntity
  8
0
100
AcDbCircle
 10
312.591627
 20
1316.305323999999
 30
0.0
 40
6.5
  0
LINE
  5
28C4
330
18
100
AcDbEntity
  8
0
100
AcDbLine
 10
317.341527
 20
1313.562924
 30
0.0
 11
317.341527
 21
1319.047724
 31
0.0
  0
LINE
  5
28C5
330
18
100
AcDbEntity
  8
0
100
AcDbLine
 10
307.841727
 20
1313.562924
 30
0.0
 11
307.841727
 21
1319.047724
 31
0.0
  0
LINE
  5
28C6
330
18
100
AcDbEntity
  8
0
100
AcDbLine
 10
317.3417269999998
 20
1319.047724
 30
0.0
 11
312.591827
 21
1321.790224
 31
0.0
  0
LINE
  5
28C7
330
18
100
AcDbEntity
  8
0
100
AcDbLine
 10
312.5917269999998
 20
1321.789923999999
 30
0.0
 11
307.842027
 21
1319.047724
 31
0.0
  0
LINE
  5
28C8
330
18
100
AcDbEntity
  8
0
100
AcDbLine
 10
312.592027
 20
1310.820524
 30
0.0
 11
317.341827
 21
1313.562624
 31
0.0
  0
LINE
  5
28C9
330
18
100
AcDbEntity
  8
0
100
AcDbLine
 10
312.5917269999998
 20
1310.820724
 30
0.0
 11
307.841827
 21
1313.562924
 31
0.0
  0
LINE
  5
28CA
330
18
100
AcDbEntity
  8
0
100
AcDbLine
 10
371.271927
 20
1325.305324
 30
0.0
 11
371.271927
 21
1370.305324
 31
0.0
  0
LINE
  5
28CB
330
18
100
AcDbEntity
  8
0
100
AcDbLine
 10
369.150327
 20
1325.305324
 30
0.0
 11
369.150327
 21
1370.305324
 31
0.0
  0
LINE
  5
28CC
330
18
100
AcDbEntity
  8
0
100
AcDbLine
 10
366.6751269999998
 20
1325.305324
 30
0.0
 11
366.6751269999998
 21
1378.305124
 31
0.0
  0
LINE
  5
28CD
330
18
100
AcDbEntity
  8
0
100
AcDbLine
 10
390.591627
 20
1325.305324
 30
0.0
 11
390.591627
 21
1380.305324
 31
0.0
  0
LINE
  5
28CE
330
18
100
AcDbEntity
  8
0
100
AcDbLine
 10
394.0917269999998
 20
1325.305324
 30
0.0
 11
394.0917269999998
 21
1365.305324
 31
0.0
  0
ARC
  5
28CF
330
18
100
AcDbEntity
  8
0
100
AcDbCircle
 10
410.5916269999998
 20
1364.305124
 30
0.0
 40
16.0
100
AcDbArc
 50
179.9999899999999
 51
0.000003
  0
LWPOLYLINE
  5
28D0
330
18
100
AcDbEntity
  8
0
100
AcDbPolyline
 90
        4
 70
     0
 43
0.0
 10
369.150327
 20
1370.305324
 42
-0.085699
 10
369.884427
 20
1374.648424
 42
-0.132645
 10
372.3206269999998
 20
1378.282624
 42
-0.10245
 10
376.2226269999998
 20
1380.305324
  0
LWPOLYLINE
  5
28D1
330
18
100
AcDbEntity
  8
0
100
AcDbPolyline
 90
        4
 70
     0
 43
0.0
 10
371.271927
 20
1370.305324
 42
-0.085692
 10
372.005927
 20
1374.648424
 42
-0.132646
 10
374.4420269999998
 20
1378.282624
 42
-0.102463
 10
378.3438269999998
 20
1380.305324
  0
ARC
  5
28D2
330
18
100
AcDbEntity
  8
0
100
AcDbCircle
 10
368.6751269999998
 20
1378.305124
 30
0.0
 40
2.0
100
AcDbArc
 50
90.00001000000002
 51
180.0
  0
LINE
  5
28D3
330
18
100
AcDbEntity
  8
0
100
AcDbLine
 10
391.5917269999998
 20
1365.305324
 30
0.0
 11
394.5917269999998
 21
1365.305324
 31
0.0
  0
LINE
  5
28D4
330
18
100
AcDbEntity
  8
0
100
AcDbLine
 10
391.5917269999998
 20
1365.305324
 30
0.0
 11
391.5917269999998
 21
1381.675924
 31
0.0
  0
LINE
  5
28D5
330
18
100
AcDbEntity
  8
0
100
AcDbLine
 10
433.0672269999998
 20
1402.305124
 30
0.0
 11
433.0672269999998
 21
1365.305324
 31
0.0
  0
LINE
  5
28D6
330
18
100
AcDbEntity
  8
0
100
AcDbLine
 10
432.5916269999998
 20
1365.305324
 30
0.0
 11
432.5916269999998
 21
1402.305124
 31
0.0
  0
ARC
  5
28D7
330
18
100
AcDbEntity
  8
0
100
AcDbCircle
 10
435.5916269999998
 20
1403.305323999999
 30
0.0
 40
1.0
100
AcDbArc
 50
270.0
 51
0.000003
  0
LINE
  5
28D8
330
18
100
AcDbEntity
  8
0
100
AcDbLine
 10
426.5917269999998
 20
1402.305124
 30
0.0
 11
435.5916269999998
 21
1402.305124
 31
0.0
  0
LINE
  5
28D9
330
18
100
AcDbEntity
  8
0
100
AcDbLine
 10
436.0918269999998
 20
1416.305324
 30
0.0
 11
436.0918269999998
 21
1412.305324
 31
0.0
  0
LINE
  5
28DA
330
18
100
AcDbEntity
  8
0
100
AcDbLine
 10
426.5917269999998
 20
1416.305324
 30
0.0
 11
436.0918269999998
 21
1416.305324
 31
0.0
  0
LINE
  5
28DB
330
18
100
AcDbEntity
  8
0
100
AcDbLine
 10
426.5917269999998
 20
1412.305324
 30
0.0
 11
436.5917269999997
 21
1412.305324
 31
0.0
  0
LINE
  5
28DC
330
18
100
AcDbEntity
  8
0
100
AcDbLine
 10
436.5915269999998
 20
1403.305323999999
 30
0.0
 11
436.5915269999998
 21
1412.305324
 31
0.0
  0
LINE
  5
28DD
330
18
100
AcDbEntity
  8
0
100
AcDbLine
 10
426.5917269999998
 20
1365.305324
 30
0.0
 11
432.5916269999998
 21
1365.305324
 31
0.0
  0
LINE
  5
28DE
330
18
100
AcDbEntity
  8
0
100
AcDbLine
 10
428.560327
 20
1365.305324
 30
0.0
 11
433.0672269999998
 21
1365.305324
 31
0.0
  0
ARC
  5
28DF
330
18
100
AcDbEntity
  8
0
100
AcDbCircle
 10
412.591627
 20
1364.305124
 30
0.0
 40
20.5
100
AcDbArc
 50
2.796364
 51
46.92711
  0
LINE
  5
28E0
330
18
100
AcDbEntity
  8
0
100
AcDbLine
 10
366.342027
 20
1180.379523999999
 30
0.0
 11
258.841827
 21
1170.129423999998
 31
0.0
  0
LINE
  5
28E1
330
18
100
AcDbEntity
  8
0
100
AcDbLine
 10
365.8211269999998
 20
1185.842424
 30
0.0
 11
258.321027
 21
1175.592423999999
 31
0.0
  0
LINE
  5
28E2
330
18
100
AcDbEntity
  8
0
100
AcDbLine
 10
365.820827
 20
1165.342324
 30
0.0
 11
258.321027
 21
1155.092323999998
 31
0.0
  0
LINE
  5
28E3
330
18
100
AcDbEntity
  8
0
100
AcDbLine
 10
364.5917269999998
 20
1243.305324
 30
0.0
 11
261.591727
 21
1243.305324
 31
0.0
  0
LINE
  5
28E4
330
18
100
AcDbEntity
  8
0
100
AcDbLine
 10
260.591627
 20
1243.305324
 30
0.0
 11
364.5917269999998
 21
1243.305324
 31
0.0
  0
LINE
  5
28E5
330
18
100
AcDbEntity
  8
0
100
AcDbLine
 10
260.591627
 20
1198.805424
 30
0.0
 11
364.5917269999998
 21
1198.805424
 31
0.0
  0
LINE
  5
28E6
330
18
100
AcDbEntity
  8
0
100
AcDbLine
 10
258.591827
 20
1235.305424
 30
0.0
 11
258.591827
 21
1206.805624
 31
0.0
  0
LINE
  5
28E7
330
18
100
AcDbEntity
  8
0
100
AcDbLine
 10
260.591627
 20
1243.305324
 30
0.0
 11
260.591627
 21
1198.805424
 31
0.0
  0
LINE
  5
28E8
330
18
100
AcDbEntity
  8
0
100
AcDbLine
 10
258.591627
 20
1235.305123999999
 30
0.0
 11
260.5917269999999
 21
1243.305424
 31
0.0
  0
LINE
  5
28E9
330
18
100
AcDbEntity
  8
0
100
AcDbLine
 10
344.589127
 20
1198.805324
 30
0.0
 11
258.841827
 21
1190.629423999998
 31
0.0
  0
LINE
  5
28EA
330
18
100
AcDbEntity
  8
0
100
AcDbLine
 10
261.591727
 20
1190.891624
 30
0.0
 11
261.591727
 21
1175.904124
 31
0.0
  0
LINE
  5
28EB
330
18
100
AcDbEntity
  8
0
100
AcDbLine
 10
261.591727
 20
1198.805424
 30
0.0
 11
261.591727
 21
1196.404324
 31
0.0
  0
LINE
  5
28EC
330
18
100
AcDbEntity
  8
0
100
AcDbLine
 10
286.776427
 20
1198.805324
 30
0.0
 11
258.321027
 21
1196.092224
 31
0.0
  0
LINE
  5
28ED
330
18
100
AcDbEntity
  8
0
100
AcDbLine
 10
258.5917269999999
 20
1206.805624
 30
0.0
 11
260.5917269999999
 21
1198.805424
 31
0.0
  0
LINE
  5
28EE
330
18
100
AcDbEntity
  8
0
100
AcDbLine
 10
261.591727
 20
1170.391724
 30
0.0
 11
261.591727
 21
1155.404224
 31
0.0
  0
LINE
  5
28EF
330
18
100
AcDbEntity
  8
0
100
AcDbLine
 10
366.591727
 20
1235.305424
 30
0.0
 11
366.591727
 21
1206.805624
 31
0.0
  0
LINE
  5
28F0
330
18
100
AcDbEntity
  8
0
100
AcDbLine
 10
364.5917269999998
 20
1243.305324
 30
0.0
 11
364.5917269999998
 21
1198.805424
 31
0.0
  0
LINE
  5
28F1
330
18
100
AcDbEntity
  8
0
100
AcDbLine
 10
362.591827
 20
1243.305224
 30
0.0
 11
392.091827
 21
1275.305123999999
 31
0.0
  0
LINE
  5
28F2
330
18
100
AcDbEntity
  8
0
100
AcDbLine
 10
364.591627
 20
1243.305324
 30
0.0
 11
366.591627
 21
1235.305324
 31
0.0
  0
ARC
  5
28F3
330
18
100
AcDbEntity
  8
0
100
AcDbCircle
 10
366.341727
 20
1183.129424
 30
0.0
 40
2.75
100
AcDbArc
 50
270.0
 51
95.44662
  0
LINE
  5
28F4
330
18
100
AcDbEntity
  8
0
100
AcDbLine
 10
363.591627
 20
1198.805424
 30
0.0
 11
363.591627
 21
1185.629824
 31
0.0
  0
LINE
  5
28F5
330
18
100
AcDbEntity
  8
0
100
AcDbLine
 10
364.591627
 20
1198.805324
 30
0.0
 11
366.591627
 21
1206.805324
 31
0.0
  0
ARC
  5
28F6
330
18
100
AcDbEntity
  8
0
100
AcDbCircle
 10
366.341727
 20
1162.629523999999
 30
0.0
 40
2.75
100
AcDbArc
 50
270.0
 51
95.44662
  0
LINE
  5
28F7
330
18
100
AcDbEntity
  8
0
100
AcDbLine
 10
363.591627
 20
1180.117324
 30
0.0
 11
363.591627
 21
1165.129924
 31
0.0
  0
LINE
  5
28F8
330
18
100
AcDbEntity
  8
0
100
AcDbLine
 10
-129.0673669999998
 20
193.820354
 30
0.0
 11
-21.567267
 21
183.570354
 31
0.0
  0
LINE
  5
28F9
330
18
100
AcDbEntity
  8
0
100
AcDbLine
 10
-128.5465669999998
 20
199.2832439999999
 30
0.0
 11
-21.04636699999999
 21
189.0332439999999
 31
0.0
  0
LINE
  5
28FA
330
18
100
AcDbEntity
  8
0
100
AcDbLine
 10
-129.0672669999999
 20
173.3204139999999
 30
0.0
 11
-21.567267
 21
163.0704139999999
 31
0.0
  0
LINE
  5
28FB
330
18
100
AcDbEntity
  8
0
100
AcDbLine
 10
-128.546367
 20
178.783304
 30
0.0
 11
-21.04636699999999
 21
168.533304
 31
0.0
  0
LINE
  5
28FC
330
18
100
AcDbEntity
  8
0
100
AcDbLine
 10
-129.0673669999998
 20
132.3204739999999
 30
0.0
 11
-21.567367
 21
122.070474
 31
0.0
  0
LINE
  5
28FD
330
18
100
AcDbEntity
  8
0
100
AcDbLine
 10
-129.0673669999998
 20
111.820474
 30
0.0
 11
-21.567267
 21
101.570474
 31
0.0
  0
LINE
  5
28FE
330
18
100
AcDbEntity
  8
0
100
AcDbLine
 10
-128.5465669999998
 20
117.283124
 30
0.0
 11
-21.306267
 21
107.057904
 31
0.0
  0
LINE
  5
28FF
330
18
100
AcDbEntity
  8
0
100
AcDbLine
 10
-129.0673669999998
 20
152.8204139999999
 30
0.0
 11
-21.567167
 21
142.570414
 31
0.0
  0
LINE
  5
2900
330
18
100
AcDbEntity
  8
0
100
AcDbLine
 10
-128.5465669999998
 20
158.283304
 30
0.0
 11
-21.046267
 21
148.033304
 31
0.0
  0
LINE
  5
2901
330
18
100
AcDbEntity
  8
0
100
AcDbLine
 10
-128.5466669999999
 20
137.783304
 30
0.0
 11
-21.046567
 21
127.5332439999999
 31
0.0
  0
LINE
  5
2902
330
18
100
AcDbEntity
  8
0
100
AcDbLine
 10
-21.834267
 20
207.0950139999999
 30
0.0
 11
-129.7385669999999
 21
211.332524
 31
0.0
  0
LINE
  5
2903
330
18
100
AcDbEntity
  8
0
100
AcDbLine
 10
-21.618867
 20
212.578424
 30
0.0
 11
-129.5231669999999
 21
216.815924
 31
0.0
  0
LINE
  5
2904
330
18
100
AcDbEntity
  8
0
100
AcDbLine
 10
-23.486367
 20
233.577424
 30
0.0
 11
-131.2425669999998
 21
226.512624
 31
0.0
  0
LINE
  5
2905
330
18
100
AcDbEntity
  8
0
100
AcDbLine
 10
-23.84536699999999
 20
239.053224
 30
0.0
 11
-131.6015669999998
 21
231.988524
 31
0.0
  0
LINE
  5
2906
330
18
100
AcDbEntity
  8
0
100
AcDbLine
 10
-27.897467
 20
259.742024
 30
0.0
 11
-134.3249669999998
 21
241.452324
 31
0.0
  0
LINE
  5
2907
330
18
100
AcDbEntity
  8
0
100
AcDbLine
 10
-28.826967
 20
265.150424
 30
0.0
 11
-135.2543669999999
 21
246.860724
 31
0.0
  0
LINE
  5
2908
330
18
100
AcDbEntity
  8
0
100
AcDbLine
 10
-35.01946699999999
 20
285.302124
 30
0.0
 11
-138.952067
 21
255.988124
 31
0.0
  0
LINE
  5
2909
330
18
100
AcDbEntity
  8
0
100
AcDbLine
 10
-36.509067
 20
290.583824
 30
0.0
 11
-140.4416669999999
 21
261.269724
 31
0.0
  0
ARC
  5
290A
330
18
100
AcDbEntity
  8
0
100
AcDbCircle
 10
-275.3171669999999
 20
204.5749339999999
 30
0.0
 40
251.0
100
AcDbArc
 50
25.85266999999999
 51
30.59765999999999
  0
ARC
  5
290B
330
18
100
AcDbEntity
  8
0
100
AcDbCircle
 10
-58.103867
 20
336.054624
 30
0.0
 40
2.75
100
AcDbArc
 50
297.7510859999998
 51
123.1977
  0
LINE
  5
290C
330
18
100
AcDbEntity
  8
0
100
AcDbLine
 10
-44.77406699999998
 20
309.977924
 30
0.0
 11
-145.072967
 21
269.960524
 31
0.0
  0
LINE
  5
290D
330
18
100
AcDbEntity
  8
0
100
AcDbLine
 10
-46.80766699999998
 20
315.074824
 30
0.0
 11
-147.1065669999999
 21
275.057424
 31
0.0
  0
LINE
  5
290E
330
18
100
AcDbEntity
  8
0
100
AcDbLine
 10
-57.054467
 20
333.498924
 30
0.0
 11
-152.6213669999999
 21
283.216424
 31
0.0
  0
LINE
  5
2910
330
18
100
AcDbEntity
  8
0
100
AcDbLine
 10
-129.0672669999999
 20
91.32035399999999
 30
0.0
 11
-21.567267
 21
81.070354
 31
0.0
  0
LINE
  5
2911
330
18
100
AcDbEntity
  8
0
100
AcDbLine
 10
-128.546367
 20
96.78312400000001
 30
0.0
 11
-21.04636699999999
 21
86.533124
 31
0.0
  0
ARC
  5
2912
330
18
100
AcDbEntity
  8
0
100
AcDbCircle
 10
-521.098157
 20
613.934624
 30
0.0
 40
2.75
100
AcDbArc
 50
241.8144
 51
67.26102
  0
LWPOLYLINE
  5
2913
330
18
100
AcDbEntity
  8
0
100
AcDbPolyline
 90
        6
 70
     0
 43
0.0
 10
-401.9990669999998
 20
546.725624
 42
-0.038132
 10
-423.565767
 20
569.148424
 42
-0.067765
 10
-439.9747669999999
 20
595.504124
 42
-0.032623
 10
-449.601567
 20
625.093924
 42
0.056695
 10
-460.642567
 20
654.1398239999998
 42
0.043744
 10
-478.187967
 20
679.8187239999998
  0
LWPOLYLINE
  5
2914
330
18
100
AcDbEntity
  8
0
100
AcDbPolyline
 90
        7
 70
     0
 43
0.0
 10
-461.754667
 20
717.634324
 42
0.401391
 10
-452.1492669999998
 20
690.678824
 42
-0.04993
 10
-428.8719669999998
 20
669.3444239999998
 42
-0.108883
 10
-415.645467
 20
640.8695240000001
 42
-0.031761
 10
-410.941867
 20
609.601024
 42
0.021964
 10
-406.1054669999998
 20
578.338424
 42
-0.020467
 10
-401.0742669999998
 20
547.105624
  0
ARC
  5
2915
330
18
100
AcDbEntity
  8
0
100
AcDbCircle
 10
-1451.012728
 20
1109.569424
 30
0.0
 40
949.0
100
AcDbArc
 50
327.997527
 51
328.838835
  0
LINE
  5
2916
330
18
100
AcDbEntity
  8
0
100
AcDbLine
 10
-543.589187
 20
573.871624
 30
0.0
 11
-641.389047
 21
619.659124
 31
0.0
  0
LINE
  5
2917
330
18
100
AcDbEntity
  8
0
100
AcDbLine
 10
-541.2623469999998
 20
578.841624
 30
0.0
 11
-639.0622669999998
 21
624.628924
 31
0.0
  0
LINE
  5
2918
330
18
100
AcDbEntity
  8
0
100
AcDbLine
 10
-532.800307
 20
592.582424
 30
0.0
 11
-631.5180769999998
 21
636.355724
 31
0.0
  0
LINE
  5
2919
330
18
100
AcDbEntity
  8
0
100
AcDbLine
 10
-530.5758769999998
 20
597.5990239999998
 30
0.0
 11
-629.2936570000001
 21
641.372324
 31
0.0
  0
LINE
  5
291A
330
18
100
AcDbEntity
  8
0
100
AcDbLine
 10
-522.397107
 20
611.510524
 30
0.0
 11
-621.991347
 21
653.251424
 31
0.0
  0
ARC
  5
291B
330
18
100
AcDbEntity
  8
0
100
AcDbCircle
 10
-445.9620669999998
 20
792.918224
 30
0.0
 40
2.75
100
AcDbArc
 50
252.384
 51
77.83062
  0
LINE
  5
291C
330
18
100
AcDbEntity
  8
0
100
AcDbLine
 10
-428.2471669999998
 20
858.0376240000001
 30
0.0
 11
-535.007457
 21
874.271624
 31
0.0
  0
LINE
  5
291D
330
18
100
AcDbEntity
  8
0
100
AcDbLine
 10
-429.0721669999999
 20
852.612324
 30
0.0
 11
-535.832407
 21
868.8462239999999
 31
0.0
  0
LINE
  5
291E
330
18
100
AcDbEntity
  8
0
100
AcDbLine
 10
-423.306667
 20
879.052824
 30
0.0
 11
-530.377337
 21
893.0952239999998
 31
0.0
  0
LINE
  5
291F
330
18
100
AcDbEntity
  8
0
100
AcDbLine
 10
-424.020267
 20
873.611724
 30
0.0
 11
-531.0908969999998
 21
887.654224
 31
0.0
  0
ARC
  5
2920
330
18
100
AcDbEntity
  8
0
100
AcDbCircle
 10
-1451.012728
 20
1109.569424
 30
0.0
 40
1051.0
100
AcDbArc
 50
342.6490269999998
 51
343.522963
  0
LINE
  5
2921
330
18
100
AcDbEntity
  8
0
100
AcDbLine
 10
-414.722867
 20
921.3648239999999
 30
0.0
 11
-522.278947
 21
931.0075239999999
 31
0.0
  0
LINE
  5
2922
330
18
100
AcDbEntity
  8
0
100
AcDbLine
 10
-415.212867
 20
915.899124
 30
0.0
 11
-522.768997
 21
925.541624
 31
0.0
  0
LINE
  5
2923
330
18
100
AcDbEntity
  8
0
100
AcDbLine
 10
-411.083167
 20
942.643724
 30
0.0
 11
-518.8143469999999
 21
950.079924
 31
0.0
  0
LINE
  5
2924
330
18
100
AcDbEntity
  8
0
100
AcDbLine
 10
-411.461067
 20
937.169124
 30
0.0
 11
-519.1922769999998
 21
944.605224
 31
0.0
  0
LINE
  5
2925
330
18
100
AcDbEntity
  8
0
100
AcDbLine
 10
-407.880367
 20
963.9928240000001
 30
0.0
 11
-515.741287
 21
969.219424
 31
0.0
  0
LINE
  5
2926
330
18
100
AcDbEntity
  8
0
100
AcDbLine
 10
-408.145967
 20
958.5116239999999
 30
0.0
 11
-516.006907
 21
963.738224
 31
0.0
  0
LINE
  5
2927
330
18
100
AcDbEntity
  8
0
100
AcDbLine
 10
-405.1158669999998
 20
985.4033239999999
 30
0.0
 11
-513.0612269999998
 21
988.418124
 31
0.0
  0
LINE
  5
2928
330
18
100
AcDbEntity
  8
0
100
AcDbLine
 10
-405.269067
 20
979.917724
 30
0.0
 11
-513.214427
 21
982.9325239999999
 31
0.0
  0
LINE
  5
2929
330
18
100
AcDbEntity
  8
0
100
AcDbLine
 10
-402.790667
 20
1006.865724
 30
0.0
 11
-510.775157
 21
1007.667424
 31
0.0
  0
LINE
  5
292A
330
18
100
AcDbEntity
  8
0
100
AcDbLine
 10
-400.9058669999998
 20
1028.371224
 30
0.0
 11
-508.8841069999999
 21
1026.959624
 31
0.0
  0
LINE
  5
292B
330
18
100
AcDbEntity
  8
0
100
AcDbLine
 10
-400.834167
 20
1022.884124
 30
0.0
 11
-508.812387
 21
1021.472324
 31
0.0
  0
LINE
  5
292C
330
18
100
AcDbEntity
  8
0
100
AcDbLine
 10
-399.4621669999998
 20
1049.911224
 30
0.0
 11
-507.3889269999998
 21
1046.286624
 31
0.0
  0
LINE
  5
292D
330
18
100
AcDbEntity
  8
0
100
AcDbLine
 10
-399.277967
 20
1044.426524
 30
0.0
 11
-507.2047269999997
 21
1040.802124
 31
0.0
  0
LINE
  5
292E
330
18
100
AcDbEntity
  8
0
100
AcDbLine
 10
-398.460367
 20
1071.476024
 30
0.0
 11
-506.2901169999998
 21
1065.640224
 31
0.0
  0
LINE
  5
292F
330
18
100
AcDbEntity
  8
0
100
AcDbLine
 10
-398.1638669999998
 20
1065.996423999999
 30
0.0
 11
-505.993547
 21
1060.160524
 31
0.0
  0
LINE
  5
2930
330
18
100
AcDbEntity
  8
0
100
AcDbLine
 10
-397.900667
 20
1093.056824
 30
0.0
 11
-505.588147
 21
1085.012224
 31
0.0
  0
LINE
  5
2931
330
18
100
AcDbEntity
  8
0
100
AcDbLine
 10
-397.491867
 20
1087.584424
 30
0.0
 11
-505.179337
 21
1079.539824
 31
0.0
  0
LINE
  5
2932
330
18
100
AcDbEntity
  8
0
100
AcDbLine
 10
-402.831267
 20
1001.378224
 30
0.0
 11
-510.8158669999999
 21
1002.179923999998
 31
0.0
  0
LINE
  5
2933
330
18
100
AcDbEntity
  8
0
100
AcDbLine
 10
-397.7833669999998
 20
1114.644424
 30
0.0
 11
-505.283457
 21
1104.394424
 31
0.0
  0
LINE
  5
2934
330
18
100
AcDbEntity
  8
0
100
AcDbLine
 10
-397.2625669999998
 20
1129.749823999999
 30
0.0
 11
-504.7626469999998
 21
1119.499824
 31
0.0
  0
LINE
  5
2935
330
18
100
AcDbEntity
  8
0
100
AcDbLine
 10
-397.783567
 20
1135.212724
 30
0.0
 11
-505.283517
 21
1124.962724
 31
0.0
  0
LINE
  5
2936
330
18
100
AcDbEntity
  8
0
100
AcDbLine
 10
-397.262667
 20
1150.249724
 30
0.0
 11
-504.7626469999998
 21
1139.999724
 31
0.0
  0
LINE
  5
2937
330
18
100
AcDbEntity
  8
0
100
AcDbLine
 10
-397.262467
 20
1109.181524
 30
0.0
 11
-504.762587
 21
1098.931524
 31
0.0
  0
LINE
  5
2938
330
18
100
AcDbEntity
  8
0
100
AcDbLine
 10
-418.7979669999998
 20
900.1648240000001
 30
0.0
 11
-526.1338669999998
 21
912.009924
 31
0.0
  0
LINE
  5
2939
330
18
100
AcDbEntity
  8
0
100
AcDbLine
 10
-419.399867
 20
894.710324
 30
0.0
 11
-526.7357969999998
 21
906.5553239999999
 31
0.0
  0
LINE
  5
293A
330
18
100
AcDbEntity
  8
0
100
AcDbLine
 10
-445.637467
 20
795.661324
 30
0.0
 11
-551.1983769999998
 21
818.425324
 31
0.0
  0
LINE
  5
293B
330
18
100
AcDbEntity
  8
0
100
AcDbLine
 10
-439.4147669999998
 20
816.3331239999999
 30
0.0
 11
-545.420237
 21
836.928924
 31
0.0
  0
LINE
  5
293C
330
18
100
AcDbEntity
  8
0
100
AcDbLine
 10
-440.4614669999999
 20
810.946224
 30
0.0
 11
-546.466867
 21
831.541924
 31
0.0
  0
LINE
  5
293D
330
18
100
AcDbEntity
  8
0
100
AcDbLine
 10
-433.6173669999998
 20
837.128124
 30
0.0
 11
-540.022477
 21
855.5468239999999
 31
0.0
  0
LINE
  5
293E
330
18
100
AcDbEntity
  8
0
100
AcDbLine
 10
-434.5532669999998
 20
831.720724
 30
0.0
 11
-540.9584469999998
 21
850.139524
 31
0.0
  0
ARC
  5
293F
330
18
100
AcDbEntity
  8
0
100
AcDbCircle
 10
-1451.012728
 20
1109.569424
 30
0.0
 40
949.0
100
AcDbArc
 50
345.613527
 51
346.454836
  0
ARC
  5
2940
330
18
100
AcDbEntity
  8
0
100
AcDbCircle
 10
-1451.012728
 20
1109.569424
 30
0.0
 40
949.0
100
AcDbArc
 50
353.834322
 51
354.675638
  0
ARC
  5
2941
330
18
100
AcDbEntity
  8
0
100
AcDbCircle
 10
-505.123117
 20
1082.289324
 30
0.0
 40
2.75
100
AcDbArc
 50
94.27221999999998
 51
279.7188509999999
  0
LINE
  5
2942
330
18
100
AcDbEntity
  8
0
100
AcDbLine
 10
-502.012707
 20
1119.762024
 30
0.0
 11
-502.012707
 21
1104.774324
 31
0.0
  0
ARC
  5
2943
330
18
100
AcDbEntity
  8
0
100
AcDbCircle
 10
-504.762707
 20
1122.249724
 30
0.0
 40
2.75
100
AcDbArc
 50
95.44662
 51
280.8932509999999
  0
ARC
  5
2944
330
18
100
AcDbEntity
  8
0
100
AcDbCircle
 10
-504.762707
 20
1142.749824
 30
0.0
 40
2.75
100
AcDbArc
 50
95.44662
 51
280.8932509999999
  0
LINE
  5
2945
330
18
100
AcDbEntity
  8
0
100
AcDbLine
 10
-502.012707
 20
1140.262024
 30
0.0
 11
-502.012707
 21
1125.274624
 31
0.0
  0
ARC
  5
2946
330
18
100
AcDbEntity
  8
0
100
AcDbCircle
 10
-1451.012728
 20
1109.569424
 30
0.0
 40
949.0
100
AcDbArc
 50
358.531922
 51
359.373237
  0
ARC
  5
2947
330
18
100
AcDbEntity
  8
0
100
AcDbCircle
 10
-504.762707
 20
1101.681524
 30
0.0
 40
2.75
100
AcDbArc
 50
95.44662
 51
280.8932509999999
  0
ARC
  5
2948
330
18
100
AcDbEntity
  8
0
100
AcDbCircle
 10
-1451.012728
 20
1109.569424
 30
0.0
 40
949.0
100
AcDbArc
 50
356.183122
 51
357.024437
  0
ARC
  5
2949
330
18
100
AcDbEntity
  8
0
100
AcDbCircle
 10
-505.880937
 20
1062.908224
 30
0.0
 40
2.75
100
AcDbArc
 50
93.09780999999999
 51
278.544451
  0
ARC
  5
294A
330
18
100
AcDbEntity
  8
0
100
AcDbCircle
 10
-1451.012728
 20
1109.569424
 30
0.0
 40
949.0
100
AcDbArc
 50
357.357525
 51
358.198841
  0
ARC
  5
294B
330
18
100
AcDbEntity
  8
0
100
AcDbCircle
 10
-508.587357
 20
1024.213324
 30
0.0
 40
2.75
100
AcDbArc
 50
90.74902000000001
 51
276.195651
  0
ARC
  5
294C
330
18
100
AcDbEntity
  8
0
100
AcDbCircle
 10
-507.035837
 20
1043.546923999999
 30
0.0
 40
2.75
100
AcDbArc
 50
91.92342
 51
277.3700509999999
  0
ARC
  5
294D
330
18
100
AcDbEntity
  8
0
100
AcDbCircle
 10
-1451.012728
 20
1109.569424
 30
0.0
 40
949.0
100
AcDbArc
 50
355.0087259999998
 51
355.850034
  0
ARC
  5
294E
330
18
100
AcDbEntity
  8
0
100
AcDbCircle
 10
-518.7434869999998
 20
947.318324
 30
0.0
 40
2.75
100
AcDbArc
 50
86.05141999999998
 51
271.4980619999999
  0
ARC
  5
294F
330
18
100
AcDbEntity
  8
0
100
AcDbCircle
 10
-1451.012728
 20
1109.569424
 30
0.0
 40
949.0
100
AcDbArc
 50
350.311126
 51
351.152435
  0
ARC
  5
2950
330
18
100
AcDbEntity
  8
0
100
AcDbCircle
 10
-512.877207
 20
985.6618240000001
 30
0.0
 40
2.75
100
AcDbArc
 50
88.40021999999997
 51
273.8468549999999
  0
ARC
  5
2951
330
18
100
AcDbEntity
  8
0
100
AcDbCircle
 10
-510.5346769999998
 20
1004.915424
 30
0.0
 40
2.75
100
AcDbArc
 50
89.57461999999997
 51
275.0212649999999
  0
ARC
  5
2952
330
18
100
AcDbEntity
  8
0
100
AcDbCircle
 10
-1451.012728
 20
1109.569424
 30
0.0
 40
949.0
100
AcDbArc
 50
352.6599259999998
 51
353.501235
  0
ARC
  5
2953
330
18
100
AcDbEntity
  8
0
100
AcDbCircle
 10
-515.613847
 20
966.460024
 30
0.0
 40
2.75
100
AcDbArc
 50
87.22580999999998
 51
272.672445
  0
ARC
  5
2954
330
18
100
AcDbEntity
  8
0
100
AcDbCircle
 10
-1451.012728
 20
1109.569424
 30
0.0
 40
949.0
100
AcDbArc
 50
351.485523
 51
352.326838
  0
ARC
  5
2955
330
18
100
AcDbEntity
  8
0
100
AcDbCircle
 10
-1451.012728
 20
1109.569424
 30
0.0
 40
949.0
100
AcDbArc
 50
347.962327
 51
348.8036349999998
  0
ARC
  5
2956
330
18
100
AcDbEntity
  8
0
100
AcDbCircle
 10
-1451.012728
 20
1109.569424
 30
0.0
 40
949.0
100
AcDbArc
 50
349.136723
 51
349.978039
  0
ARC
  5
2957
330
18
100
AcDbEntity
  8
0
100
AcDbCircle
 10
-522.264727
 20
928.244924
 30
0.0
 40
2.75
100
AcDbArc
 50
84.87702
 51
270.3236519999999
  0
ARC
  5
2958
330
18
100
AcDbEntity
  8
0
100
AcDbCircle
 10
-530.476207
 20
890.334524
 30
0.0
 40
2.75
100
AcDbArc
 50
82.52822
 51
267.97486
  0
ARC
  5
2959
330
18
100
AcDbEntity
  8
0
100
AcDbCircle
 10
-526.1762169999998
 20
909.247724
 30
0.0
 40
2.75
100
AcDbArc
 50
83.70262999999999
 51
269.1492399999999
  0
ARC
  5
295A
330
18
100
AcDbEntity
  8
0
100
AcDbCircle
 10
-1451.012728
 20
1109.569424
 30
0.0
 40
949.0
100
AcDbArc
 50
346.787924
 51
347.629239
  0
ARC
  5
295B
330
18
100
AcDbEntity
  8
0
100
AcDbCircle
 10
-639.992077
 20
622.027724
 30
0.0
 40
2.75
100
AcDbArc
 50
64.91221
 51
250.3588399999999
  0
ARC
  5
295C
330
18
100
AcDbEntity
  8
0
100
AcDbCircle
 10
-459.7836669999998
 20
751.9945240000001
 30
0.0
 40
2.75
100
AcDbArc
 50
250.0352
 51
75.48182
  0
ARC
  5
295D
330
18
100
AcDbEntity
  8
0
100
AcDbCircle
 10
-1451.012728
 20
1109.569424
 30
0.0
 40
1051.0
100
AcDbArc
 50
339.1258309999999
 51
339.999767
  0
LINE
  5
295E
330
18
100
AcDbEntity
  8
0
100
AcDbLine
 10
-575.731397
 20
761.459924
 30
0.0
 11
-590.079417
 21
728.4428239999998
 31
0.0
  0
LINE
  5
295F
330
18
100
AcDbEntity
  8
0
100
AcDbLine
 10
-468.4255669999997
 20
714.828624
 30
0.0
 11
-575.731397
 21
761.459924
 31
0.0
  0
LINE
  5
2960
330
18
100
AcDbEntity
  8
0
100
AcDbLine
 10
-466.8281669999998
 20
734.471624
 30
0.0
 11
-570.7905969999997
 21
763.6796239999998
 31
0.0
  0
LINE
  5
2961
330
18
100
AcDbEntity
  8
0
100
AcDbLine
 10
-468.3123669999998
 20
729.188524
 30
0.0
 11
-562.111157
 21
755.541024
 31
0.0
  0
ARC
  5
2962
330
18
100
AcDbEntity
  8
0
100
AcDbCircle
 10
-545.688617
 20
834.179624
 30
0.0
 40
2.75
100
AcDbArc
 50
79.00503
 51
264.45166
  0
LINE
  5
2963
330
18
100
AcDbEntity
  8
0
100
AcDbLine
 10
-459.346967
 20
754.7221239999998
 30
0.0
 11
-563.886247
 21
781.793124
 31
0.0
  0
LINE
  5
2964
330
18
100
AcDbEntity
  8
0
100
AcDbLine
 10
-460.722667
 20
749.409624
 30
0.0
 11
-565.261977
 21
776.480724
 31
0.0
  0
LINE
  5
2965
330
18
100
AcDbEntity
  8
0
100
AcDbLine
 10
-452.282467
 20
775.121424
 30
0.0
 11
-557.3546269999998
 21
800.044124
 31
0.0
  0
LINE
  5
2966
330
18
100
AcDbEntity
  8
0
100
AcDbLine
 10
-453.548967
 20
769.781824
 30
0.0
 11
-558.6211669999999
 21
794.7046239999998
 31
0.0
  0
LINE
  5
2967
330
18
100
AcDbEntity
  8
0
100
AcDbLine
 10
-446.7943669999998
 20
790.296924
 30
0.0
 11
-552.3551769999998
 21
813.060924
 31
0.0
  0
ARC
  5
2968
330
18
100
AcDbEntity
  8
0
100
AcDbCircle
 10
-551.5230269999998
 20
815.682024
 30
0.0
 40
2.75
100
AcDbArc
 50
77.83062
 51
263.2772499999999
  0
ARC
  5
2969
330
18
100
AcDbEntity
  8
0
100
AcDbCircle
 10
-1451.012728
 20
1109.569424
 30
0.0
 40
949.0
100
AcDbArc
 50
342.090324
 51
342.93164
  0
ARC
  5
296A
330
18
100
AcDbEntity
  8
0
100
AcDbCircle
 10
-1451.012728
 20
1109.569424
 30
0.0
 40
949.0
100
AcDbArc
 50
339.741525
 51
340.5828399999998
  0
ARC
  5
296B
330
18
100
AcDbEntity
  8
0
100
AcDbCircle
 10
-1451.012728
 20
1109.569424
 30
0.0
 40
949.0
100
AcDbArc
 50
340.9159209999999
 51
341.757237
  0
ARC
  5
296C
330
18
100
AcDbEntity
  8
0
100
AcDbCircle
 10
-557.7354269999998
 20
797.308024
 30
0.0
 40
2.75
100
AcDbArc
 50
76.65621999999998
 51
262.10286
  0
ARC
  5
296D
330
18
100
AcDbEntity
  8
0
100
AcDbCircle
 10
-564.3231369999998
 20
779.065424
 30
0.0
 40
2.75
100
AcDbArc
 50
75.48182
 51
260.92845
  0
ARC
  5
296E
330
18
100
AcDbEntity
  8
0
100
AcDbCircle
 10
-1451.012728
 20
1109.569424
 30
0.0
 40
949.0
100
AcDbArc
 50
338.567122
 51
339.4084369999999
  0
ARC
  5
296F
330
18
100
AcDbEntity
  8
0
100
AcDbCircle
 10
-571.2833369999998
 20
760.961424
 30
0.0
 40
2.75
100
AcDbArc
 50
74.30743000000003
 51
185.09554
  0
ARC
  5
2970
330
18
100
AcDbEntity
  8
0
100
AcDbCircle
 10
-1451.012728
 20
1109.569424
 30
0.0
 40
949.0
100
AcDbArc
 50
343.264721
 51
344.1060359999998
  0
ARC
  5
2971
330
18
100
AcDbEntity
  8
0
100
AcDbCircle
 10
-1451.012728
 20
1109.569424
 30
0.0
 40
949.0
100
AcDbArc
 50
344.439124
 51
345.280439
  0
ARC
  5
2972
330
18
100
AcDbEntity
  8
0
100
AcDbCircle
 10
-540.2344469999998
 20
852.7926240000001
 30
0.0
 40
2.75
100
AcDbArc
 50
80.17941999999997
 51
265.6260399999999
  0
ARC
  5
2973
330
18
100
AcDbEntity
  8
0
100
AcDbCircle
 10
-535.1629769999998
 20
871.5136240000001
 30
0.0
 40
2.75
100
AcDbArc
 50
81.35382000000001
 51
266.80045
  0
ARC
  5
2974
330
18
100
AcDbEntity
  8
0
100
AcDbCircle
 10
-1451.012728
 20
1109.569424
 30
0.0
 40
1051.0
100
AcDbArc
 50
341.4746309999998
 51
342.348567
  0
ARC
  5
2975
330
18
100
AcDbEntity
  8
0
100
AcDbCircle
 10
-1451.012728
 20
1109.569424
 30
0.0
 40
1051.0
100
AcDbArc
 50
340.3002269999999
 51
341.174164
  0
ARC
  5
2976
330
18
100
AcDbEntity
  8
0
100
AcDbCircle
 10
-452.663067
 20
772.385524
 30
0.0
 40
2.75
100
AcDbArc
 50
251.2096
 51
76.65621999999998
  0
LINE
  5
2977
330
18
100
AcDbEntity
  8
0
100
AcDbLine
 10
-482.773567
 20
681.811524
 30
0.0
 11
-590.079417
 21
728.4428239999998
 31
0.0
  0
LINE
  5
2978
330
18
100
AcDbEntity
  8
0
100
AcDbLine
 10
-520.2758969999998
 20
616.571724
 30
0.0
 11
-619.8701869999998
 21
658.312424
 31
0.0
  0
LINE
  5
2979
330
18
100
AcDbEntity
  8
0
100
AcDbLine
 10
-512.384167
 20
630.647724
 30
0.0
 11
-612.8129969999998
 21
670.338524
 31
0.0
  0
LINE
  5
297A
330
18
100
AcDbEntity
  8
0
100
AcDbLine
 10
-510.3671369999998
 20
635.751224
 30
0.0
 11
-610.7959769999999
 21
675.442024
 31
0.0
  0
LINE
  5
297B
330
18
100
AcDbEntity
  8
0
100
AcDbLine
 10
-502.7653969999998
 20
649.9862239999998
 30
0.0
 11
-603.9866469999998
 21
687.610224
 31
0.0
  0
LINE
  5
297C
330
18
100
AcDbEntity
  8
0
100
AcDbLine
 10
-500.8534669999998
 20
655.130024
 30
0.0
 11
-602.074657
 21
692.754224
 31
0.0
  0
LINE
  5
297D
330
18
100
AcDbEntity
  8
0
100
AcDbLine
 10
-493.545057
 20
669.517824
 30
0.0
 11
-595.516187
 21
705.0595239999998
 31
0.0
  0
LINE
  5
297E
330
18
100
AcDbEntity
  8
0
100
AcDbLine
 10
-491.738907
 20
674.699824
 30
0.0
 11
-593.710037
 21
710.241424
 31
0.0
  0
ARC
  5
297F
330
18
100
AcDbEntity
  8
0
100
AcDbCircle
 10
-1451.012728
 20
1109.569424
 30
0.0
 40
949.0
100
AcDbArc
 50
332.6951259999999
 51
333.5364349999998
  0
ARC
  5
2980
330
18
100
AcDbEntity
  8
0
100
AcDbCircle
 10
-594.368907
 20
707.5586239999998
 30
0.0
 40
2.75
100
AcDbArc
 50
70.78421999999997
 51
256.23084
  0
ARC
  5
2981
330
18
100
AcDbEntity
  8
0
100
AcDbCircle
 10
-602.788287
 20
690.0855240000002
 30
0.0
 40
2.75
100
AcDbArc
 50
69.60981
 51
255.05646
  0
ARC
  5
2982
330
18
100
AcDbEntity
  8
0
100
AcDbCircle
 10
-1451.012728
 20
1109.569424
 30
0.0
 40
949.0
100
AcDbArc
 50
333.869522
 51
334.7108379999998
  0
ARC
  5
2983
330
18
100
AcDbEntity
  8
0
100
AcDbCircle
 10
-1451.012728
 20
1109.569424
 30
0.0
 40
949.0
100
AcDbArc
 50
335.0439259999999
 51
335.8852339999998
  0
LINE
  5
2984
330
18
100
AcDbEntity
  8
0
100
AcDbLine
 10
-545.1228169999998
 20
708.9061239999998
 30
0.0
 11
-587.4052269999999
 21
722.678424
 31
0.0
  0
ARC
  5
2985
330
18
100
AcDbEntity
  8
0
100
AcDbCircle
 10
-586.3092769999998
 20
725.2005239999999
 30
0.0
 40
2.75
100
AcDbArc
 50
124.17575
 51
257.40525
  0
ARC
  5
2986
330
18
100
AcDbEntity
  8
0
100
AcDbCircle
 10
-1451.012728
 20
1109.569424
 30
0.0
 40
949.0
100
AcDbArc
 50
330.346326
 51
331.1876349999999
  0
ARC
  5
2987
330
18
100
AcDbEntity
  8
0
100
AcDbCircle
 10
-620.6925769999998
 20
655.675224
 30
0.0
 40
2.75
100
AcDbArc
 50
67.26102
 51
252.7076399999999
  0
ARC
  5
2988
330
18
100
AcDbEntity
  8
0
100
AcDbCircle
 10
-1451.012728
 20
1109.569424
 30
0.0
 40
949.0
100
AcDbArc
 50
331.5207229999998
 51
332.3620379999998
  0
ARC
  5
2989
330
18
100
AcDbEntity
  8
0
100
AcDbCircle
 10
-611.5640969999998
 20
672.788724
 30
0.0
 40
2.75
100
AcDbArc
 50
68.43541999999999
 51
253.8820499999999
  0
ARC
  5
298A
330
18
100
AcDbEntity
  8
0
100
AcDbCircle
 10
-1451.012728
 20
1109.569424
 30
0.0
 40
949.0
100
AcDbArc
 50
329.1719229999998
 51
330.0132389999999
  0
ARC
  5
298B
330
18
100
AcDbEntity
  8
0
100
AcDbCircle
 10
-630.1698769999998
 20
638.7526239999998
 30
0.0
 40
2.75
100
AcDbArc
 50
66.08661999999999
 51
251.5332499999999
  0
ARC
  5
298C
330
18
100
AcDbEntity
  8
0
100
AcDbCircle
 10
-1451.012728
 20
1109.569424
 30
0.0
 40
1051.0
100
AcDbArc
 50
335.602628
 51
336.162178
  0
LINE
  5
298D
330
18
100
AcDbEntity
  8
0
100
AcDbLine
 10
-461.754667
 20
717.634324
 30
0.0
 11
-480.2730669999998
 21
675.020424
 31
0.0
  0
LINE
  5
298E
330
18
100
AcDbEntity
  8
0
100
AcDbLine
 10
-466.340367
 20
719.6271239999998
 30
0.0
 11
-484.8588369999998
 21
677.013224
 31
0.0
  0
ARC
  5
298F
330
18
100
AcDbEntity
  8
0
100
AcDbCircle
 10
-467.3206669999998
 20
731.753724
 30
0.0
 40
2.75
100
AcDbArc
 50
248.8608
 51
74.30741000000002
  0
ARC
  5
2990
330
18
100
AcDbEntity
  8
0
100
AcDbCircle
 10
-1451.012728
 20
1109.569424
 30
0.0
 40
1051.0
100
AcDbArc
 50
338.124949
 51
338.825364
  0
LINE
  5
2991
330
18
100
AcDbEntity
  8
0
100
AcDbLine
 10
-461.754667
 20
717.634324
 30
0.0
 11
-466.340367
 21
719.6271239999998
 31
0.0
  0
ARC
  5
2992
330
18
100
AcDbEntity
  8
0
100
AcDbCircle
 10
-492.3975969999998
 20
672.0172240000001
 30
0.0
 40
2.75
100
AcDbArc
 50
245.3376
 51
70.78421
  0
ARC
  5
2993
330
18
100
AcDbEntity
  8
0
100
AcDbCircle
 10
-1451.012728
 20
1109.569424
 30
0.0
 40
1051.0
100
AcDbArc
 50
333.253829
 51
334.127765
  0
ARC
  5
2994
330
18
100
AcDbEntity
  8
0
100
AcDbCircle
 10
-1451.012728
 20
1109.569424
 30
0.0
 40
1051.0
100
AcDbArc
 50
334.428232
 51
335.3021679999999
  0
ARC
  5
2995
330
18
100
AcDbEntity
  8
0
100
AcDbCircle
 10
-501.566907
 20
652.461624
 30
0.0
 40
2.75
100
AcDbArc
 50
244.1632
 51
69.60981
  0
ARC
  5
2996
330
18
100
AcDbEntity
  8
0
100
AcDbCircle
 10
-511.1350869999998
 20
633.098024
 30
0.0
 40
2.75
100
AcDbArc
 50
242.9888
 51
68.43541999999999
  0
ARC
  5
2997
330
18
100
AcDbEntity
  8
0
100
AcDbCircle
 10
-1451.012728
 20
1109.569424
 30
0.0
 40
1051.0
100
AcDbArc
 50
332.079425
 51
332.953369
  0
LINE
  5
2998
330
18
100
AcDbEntity
  8
0
100
AcDbLine
 10
-480.2730669999998
 20
675.020424
 30
0.0
 11
-484.8588369999998
 21
677.013224
 31
0.0
  0
ARC
  5
2999
330
18
100
AcDbEntity
  8
0
100
AcDbCircle
 10
-1451.012728
 20
1109.569424
 30
0.0
 40
1051.0
100
AcDbArc
 50
347.3466259999998
 51
348.2205629999998
  0
ARC
  5
299A
330
18
100
AcDbEntity
  8
0
100
AcDbCircle
 10
-1451.012728
 20
1109.569424
 30
0.0
 40
1051.0
100
AcDbArc
 50
354.393032
 51
355.266968
  0
ARC
  5
299B
330
18
100
AcDbEntity
  8
0
100
AcDbCircle
 10
-1451.012728
 20
1109.569424
 30
0.0
 40
1051.0
100
AcDbArc
 50
357.9162279999998
 51
358.790164
  0
ARC
  5
299C
330
18
100
AcDbEntity
  8
0
100
AcDbCircle
 10
-397.4355669999998
 20
1090.334024
 30
0.0
 40
2.75
100
AcDbArc
 50
268.8255999999999
 51
94.27221999999998
  0
ARC
  5
299D
330
18
100
AcDbEntity
  8
0
100
AcDbCircle
 10
-397.262667
 20
1111.931824
 30
0.0
 40
2.75
100
AcDbArc
 50
270.0
 51
95.44662
  0
ARC
  5
299E
330
18
100
AcDbEntity
  8
0
100
AcDbCircle
 10
-397.262667
 20
1132.499923999998
 30
0.0
 40
2.75
100
AcDbArc
 50
270.0
 51
95.44662
  0
LINE
  5
299F
330
18
100
AcDbEntity
  8
0
100
AcDbLine
 10
-400.0126669999998
 20
1129.487624
 30
0.0
 11
-400.0126669999998
 21
1114.500024
 31
0.0
  0
LINE
  5
29A0
330
18
100
AcDbEntity
  8
0
100
AcDbLine
 10
-400.0126669999998
 20
1149.987423999998
 30
0.0
 11
-400.0126669999998
 21
1135.000023999999
 31
0.0
  0
ARC
  5
29A1
330
18
100
AcDbEntity
  8
0
100
AcDbCircle
 10
-1451.012728
 20
1109.569424
 30
0.0
 40
1051.0
100
AcDbArc
 50
359.090631
 51
359.964567
  0
ARC
  5
29A2
330
18
100
AcDbEntity
  8
0
100
AcDbCircle
 10
-399.109167
 20
1047.171624
 30
0.0
 40
2.75
100
AcDbArc
 50
266.4768
 51
91.92341
  0
ARC
  5
29A3
330
18
100
AcDbEntity
  8
0
100
AcDbCircle
 10
-398.051167
 20
1068.744224
 30
0.0
 40
2.75
100
AcDbArc
 50
267.6512
 51
93.09780999999999
  0
ARC
  5
29A4
330
18
100
AcDbEntity
  8
0
100
AcDbCircle
 10
-1451.012728
 20
1109.569424
 30
0.0
 40
1051.0
100
AcDbArc
 50
356.7418319999998
 51
357.615768
  0
ARC
  5
29A5
330
18
100
AcDbEntity
  8
0
100
AcDbCircle
 10
-1451.012728
 20
1109.569424
 30
0.0
 40
1051.0
100
AcDbArc
 50
355.567428
 51
356.441365
  0
ARC
  5
29A6
330
18
100
AcDbEntity
  8
0
100
AcDbCircle
 10
-400.6088669999998
 20
1025.625124
 30
0.0
 40
2.75
100
AcDbArc
 50
265.3023999999999
 51
90.74902000000001
  0
ARC
  5
29A7
330
18
100
AcDbEntity
  8
0
100
AcDbCircle
 10
-1451.012728
 20
1109.569424
 30
0.0
 40
1051.0
100
AcDbArc
 50
350.8698289999998
 51
351.743765
  0
ARC
  5
29A8
330
18
100
AcDbEntity
  8
0
100
AcDbCircle
 10
-404.931667
 20
982.647124
 30
0.0
 40
2.75
100
AcDbArc
 50
262.9535999999999
 51
88.40021
  0
ARC
  5
29A9
330
18
100
AcDbEntity
  8
0
100
AcDbCircle
 10
-1451.012728
 20
1109.569424
 30
0.0
 40
1051.0
100
AcDbArc
 50
353.218629
 51
354.0925649999998
  0
ARC
  5
29AA
330
18
100
AcDbEntity
  8
0
100
AcDbCircle
 10
-402.5501669999998
 20
1004.113924
 30
0.0
 40
2.75
100
AcDbArc
 50
264.128
 51
89.57461999999997
  0
ARC
  5
29AB
330
18
100
AcDbEntity
  8
0
100
AcDbCircle
 10
-407.7528669999998
 20
961.233724
 30
0.0
 40
2.75
100
AcDbArc
 50
261.7792
 51
87.22580999999998
  0
ARC
  5
29AC
330
18
100
AcDbEntity
  8
0
100
AcDbCircle
 10
-1451.012728
 20
1109.569424
 30
0.0
 40
1051.0
100
AcDbArc
 50
352.0442249999998
 51
352.9181689999998
  0
ARC
  5
29AD
330
18
100
AcDbEntity
  8
0
100
AcDbCircle
 10
-414.7084669999999
 20
918.602624
 30
0.0
 40
2.75
100
AcDbArc
 50
259.4304
 51
84.87702
  0
ARC
  5
29AE
330
18
100
AcDbEntity
  8
0
100
AcDbCircle
 10
-411.0120669999998
 20
939.882324
 30
0.0
 40
2.75
100
AcDbArc
 50
260.6048
 51
86.05141999999998
  0
ARC
  5
29AF
330
18
100
AcDbEntity
  8
0
100
AcDbCircle
 10
-1451.012728
 20
1109.569424
 30
0.0
 40
1051.0
100
AcDbArc
 50
349.6954259999998
 51
350.569362
  0
ARC
  5
29B0
330
18
100
AcDbEntity
  8
0
100
AcDbCircle
 10
-418.840267
 20
897.402924
 30
0.0
 40
2.75
100
AcDbArc
 50
258.2559999999999
 51
83.70260999999997
  0
ARC
  5
29B1
330
18
100
AcDbEntity
  8
0
100
AcDbCircle
 10
-1451.012728
 20
1109.569424
 30
0.0
 40
1051.0
100
AcDbArc
 50
348.5210289999998
 51
349.394966
  0
ARC
  5
29B2
330
18
100
AcDbEntity
  8
0
100
AcDbCircle
 10
-439.683167
 20
813.584024
 30
0.0
 40
2.75
100
AcDbArc
 50
253.5583999999999
 51
79.00501
  0
ARC
  5
29B3
330
18
100
AcDbEntity
  8
0
100
AcDbCircle
 10
-1451.012728
 20
1109.569424
 30
0.0
 40
1051.0
100
AcDbArc
 50
344.997827
 51
345.8717629999998
  0
ARC
  5
29B4
330
18
100
AcDbEntity
  8
0
100
AcDbCircle
 10
-423.4053669999998
 20
876.292424
 30
0.0
 40
2.75
100
AcDbArc
 50
257.0815999999999
 51
82.52822
  0
ARC
  5
29B5
330
18
100
AcDbEntity
  8
0
100
AcDbCircle
 10
-1451.012728
 20
1109.569424
 30
0.0
 40
1051.0
100
AcDbArc
 50
346.1722299999998
 51
347.046166
  0
ARC
  5
29B6
330
18
100
AcDbEntity
  8
0
100
AcDbCircle
 10
-428.4024669999998
 20
855.2798240000001
 30
0.0
 40
2.75
100
AcDbArc
 50
255.9072
 51
81.35382000000001
  0
ARC
  5
29B7
330
18
100
AcDbEntity
  8
0
100
AcDbCircle
 10
-433.829267
 20
834.374024
 30
0.0
 40
2.75
100
AcDbArc
 50
254.7327999999999
 51
80.17941999999997
  0
ARC
  5
29B8
330
18
100
AcDbEntity
  8
0
100
AcDbCircle
 10
-1451.012728
 20
1109.569424
 30
0.0
 40
1051.0
100
AcDbArc
 50
343.8234299999998
 51
344.6973669999998
  0
LINE
  5
29B9
330
18
100
AcDbEntity
  8
0
100
AcDbLine
 10
-445.5651669999999
 20
172.526474
 30
0.0
 11
-450.691267
 21
158.442854
 31
0.0
  0
LINE
  5
29BA
330
18
100
AcDbEntity
  8
0
100
AcDbLine
 10
-514.9830469999998
 20
288.1644239999999
 30
0.0
 11
-415.7899669999998
 21
245.479124
 31
0.0
  0
LINE
  5
29BB
330
18
100
AcDbEntity
  8
0
100
AcDbLine
 10
-421.857067
 20
229.623324
 30
0.0
 11
-526.379777
 21
256.758624
 31
0.0
  0
LINE
  5
29BC
330
18
100
AcDbEntity
  8
0
100
AcDbLine
 10
-420.478167
 20
234.934724
 30
0.0
 11
-524.748307
 21
262.004424
 31
0.0
  0
LINE
  5
29BD
330
18
100
AcDbEntity
  8
0
100
AcDbLine
 10
-428.8685669999998
 20
210.359624
 30
0.0
 11
-533.391187
 21
237.494924
 31
0.0
  0
LINE
  5
29BE
330
18
100
AcDbEntity
  8
0
100
AcDbLine
 10
-427.489667
 20
215.670924
 30
0.0
 11
-532.0122769999998
 21
242.806324
 31
0.0
  0
LINE
  5
29BF
330
18
100
AcDbEntity
  8
0
100
AcDbLine
 10
-471.3295669999998
 20
365.320624
 30
0.0
 11
-391.2977669999998
 21
292.820724
 31
0.0
  0
ARC
  5
29C0
330
18
100
AcDbEntity
  8
0
100
AcDbCircle
 10
-275.3171669999999
 20
204.5749339999999
 30
0.0
 40
251.0
100
AcDbArc
 50
129.63196
 51
134.3769599999999
  0
LINE
  5
29C1
330
18
100
AcDbEntity
  8
0
100
AcDbLine
 10
-456.625467
 20
382.210024
 30
0.0
 11
-385.027867
 21
301.370124
 31
0.0
  0
LINE
  5
29C2
330
18
100
AcDbEntity
  8
0
100
AcDbLine
 10
-452.517367
 20
385.848424
 30
0.0
 11
-380.9197669999998
 21
305.008624
 31
0.0
  0
LINE
  5
29C3
330
18
100
AcDbEntity
  8
0
100
AcDbLine
 10
-501.6607169999998
 20
318.717824
 30
0.0
 11
-407.7474669999999
 21
265.411024
 31
0.0
  0
LINE
  5
29C4
330
18
100
AcDbEntity
  8
0
100
AcDbLine
 10
-504.3696469999998
 20
313.945324
 30
0.0
 11
-410.456467
 21
260.638724
 31
0.0
  0
LINE
  5
29C5
330
18
100
AcDbEntity
  8
0
100
AcDbLine
 10
-512.8138569999999
 20
293.205224
 30
0.0
 11
-413.620767
 21
250.519924
 31
0.0
  0
LINE
  5
29C6
330
18
100
AcDbEntity
  8
0
100
AcDbLine
 10
-490.9927469999998
 20
338.406924
 30
0.0
 11
-403.4924669999998
 21
275.121824
 31
0.0
  0
LINE
  5
29C7
330
18
100
AcDbEntity
  8
0
100
AcDbLine
 10
-487.776747
 20
342.853424
 30
0.0
 11
-400.276367
 21
279.568424
 31
0.0
  0
LINE
  5
29C8
330
18
100
AcDbEntity
  8
0
100
AcDbLine
 10
-475.0137669999999
 20
361.253624
 30
0.0
 11
-394.9820669999998
 21
288.753724
 31
0.0
  0
LINE
  5
29C9
330
18
100
AcDbEntity
  8
0
100
AcDbLine
 10
-435.8800669999998
 20
191.095924
 30
0.0
 11
-540.402597
 21
218.231224
 31
0.0
  0
LINE
  5
29CA
330
18
100
AcDbEntity
  8
0
100
AcDbLine
 10
-434.5010669999998
 20
196.407514
 30
0.0
 11
-539.023697
 21
223.542724
 31
0.0
  0
LINE
  5
29CB
330
18
100
AcDbEntity
  8
0
100
AcDbLine
 10
-442.891367
 20
171.8321939999999
 30
0.0
 11
-547.4140769999998
 21
198.9675139999999
 31
0.0
  0
LINE
  5
29CC
330
18
100
AcDbEntity
  8
0
100
AcDbLine
 10
-441.5124669999998
 20
177.143784
 30
0.0
 11
-546.035107
 21
204.2790939999999
 31
0.0
  0
ARC
  5
29CD
330
18
100
AcDbEntity
  8
0
100
AcDbCircle
 10
-275.3171669999999
 20
204.5749339999999
 30
0.0
 40
251.0
100
AcDbArc
 50
142.22507
 51
146.97006
  0
ARC
  5
29CE
330
18
100
AcDbEntity
  8
0
100
AcDbCircle
 10
-1451.012728
 20
1109.569424
 30
0.0
 40
1051.0
100
AcDbArc
 50
313.2890290000001
 51
314.162965
  0
LINE
  5
29CF
330
18
100
AcDbEntity
  8
0
100
AcDbLine
 10
-748.263077
 20
324.373424
 30
0.0
 11
-827.6198869999998
 21
397.611524
 31
0.0
  0
LINE
  5
29D0
330
18
100
AcDbEntity
  8
0
100
AcDbLine
 10
-744.5412769999998
 20
328.406124
 30
0.0
 11
-823.898087
 21
401.6442239999998
 31
0.0
  0
LINE
  5
29D1
330
18
100
AcDbEntity
  8
0
100
AcDbLine
 10
-732.3175169999998
 20
338.9418239999999
 30
0.0
 11
-813.158707
 21
410.538024
 31
0.0
  0
LINE
  5
29D2
330
18
100
AcDbEntity
  8
0
100
AcDbLine
 10
-728.679217
 20
343.049924
 30
0.0
 11
-809.520397
 21
414.646124
 31
0.0
  0
ARC
  5
29D3
330
18
100
AcDbEntity
  8
0
100
AcDbCircle
 10
-641.445387
 20
435.035924
 30
0.0
 40
2.75
100
AcDbArc
 50
230.0704
 51
55.51701999999999
  0
ARC
  5
29D4
330
18
100
AcDbEntity
  8
0
100
AcDbCircle
 10
-1451.012728
 20
1109.569424
 30
0.0
 40
1051.0
100
AcDbArc
 50
320.3354269999998
 51
321.2093639999999
  0
LINE
  5
29D5
330
18
100
AcDbEntity
  8
0
100
AcDbLine
 10
-590.5092269999999
 20
501.356124
 30
0.0
 11
-684.230727
 21
554.999324
 31
0.0
  0
LINE
  5
29D6
330
18
100
AcDbEntity
  8
0
100
AcDbLine
 10
-587.783217
 20
506.118924
 30
0.0
 11
-681.504717
 21
559.762024
 31
0.0
  0
LINE
  5
29D7
330
18
100
AcDbEntity
  8
0
100
AcDbLine
 10
-578.2242570000001
 20
519.120524
 30
0.0
 11
-673.0255869999998
 21
570.8314239999999
 31
0.0
  0
LINE
  5
29D8
330
18
100
AcDbEntity
  8
0
100
AcDbLine
 10
-575.596447
 20
523.938124
 30
0.0
 11
-670.3977169999998
 21
575.649124
 31
0.0
  0
LINE
  5
29D9
330
18
100
AcDbEntity
  8
0
100
AcDbLine
 10
-566.305857
 20
537.1330239999998
 30
0.0
 11
-662.147107
 21
586.890024
 31
0.0
  0
LINE
  5
29DA
330
18
100
AcDbEntity
  8
0
100
AcDbLine
 10
-563.777357
 20
542.0034239999998
 30
0.0
 11
-659.6186069999999
 21
591.760524
 31
0.0
  0
LINE
  5
29DB
330
18
100
AcDbEntity
  8
0
100
AcDbLine
 10
-554.7592869999999
 20
555.385924
 30
0.0
 11
-651.6002369999998
 21
603.168124
 31
0.0
  0
LINE
  5
29DC
330
18
100
AcDbEntity
  8
0
100
AcDbLine
 10
-552.3310669999998
 20
560.307024
 30
0.0
 11
-649.1720669999998
 21
608.089424
 31
0.0
  0
LINE
  5
29DD
330
18
100
AcDbEntity
  8
0
100
AcDbLine
 10
-640.1035870000002
 20
437.450224
 30
0.0
 11
-729.1171369999998
 21
498.588624
 31
0.0
  0
LINE
  5
29DE
330
18
100
AcDbEntity
  8
0
100
AcDbLine
 10
-629.511917
 20
449.6254239999998
 30
0.0
 11
-719.759837
 21
508.926524
 31
0.0
  0
LINE
  5
29DF
330
18
100
AcDbEntity
  8
0
100
AcDbLine
 10
-626.498367
 20
454.211624
 30
0.0
 11
-716.746287
 21
513.512724
 31
0.0
  0
LINE
  5
29E0
330
18
100
AcDbEntity
  8
0
100
AcDbLine
 10
-616.158457
 20
466.6012239999998
 30
0.0
 11
-707.602797
 21
524.0402239999998
 31
0.0
  0
LINE
  5
29E1
330
18
100
AcDbEntity
  8
0
100
AcDbLine
 10
-613.2395169999998
 20
471.248224
 30
0.0
 11
-704.6839169999998
 21
528.687224
 31
0.0
  0
LINE
  5
29E2
330
18
100
AcDbEntity
  8
0
100
AcDbLine
 10
-603.155717
 20
483.8473239999998
 30
0.0
 11
-695.7581269999998
 21
539.400024
 31
0.0
  0
LINE
  5
29E3
330
18
100
AcDbEntity
  8
0
100
AcDbLine
 10
-600.332657
 20
488.553124
 30
0.0
 11
-692.935077
 21
544.105924
 31
0.0
  0
ARC
  5
29E4
330
18
100
AcDbEntity
  8
0
100
AcDbCircle
 10
-743.182387
 20
481.534724
 30
0.0
 40
2.75
100
AcDbArc
 50
54.34262
 51
239.78926
  0
LINE
  5
29E5
330
18
100
AcDbEntity
  8
0
100
AcDbLine
 10
-654.0494469999998
 20
420.9712239999998
 30
0.0
 11
-741.791217
 21
483.921224
 31
0.0
  0
LINE
  5
29E6
330
18
100
AcDbEntity
  8
0
100
AcDbLine
 10
-643.210467
 20
432.926824
 30
0.0
 11
-732.224017
 21
494.065224
 31
0.0
  0
ARC
  5
29E7
330
18
100
AcDbEntity
  8
0
100
AcDbCircle
 10
-1451.012728
 20
1109.569424
 30
0.0
 40
949.0
100
AcDbArc
 50
318.602325
 51
319.443637
  0
ARC
  5
29E8
330
18
100
AcDbEntity
  8
0
100
AcDbCircle
 10
-1451.012728
 20
1109.569424
 30
0.0
 40
949.0
100
AcDbArc
 50
323.299924
 51
324.1412359999998
  0
ARC
  5
29E9
330
18
100
AcDbEntity
  8
0
100
AcDbCircle
 10
-1451.012728
 20
1109.569424
 30
0.0
 40
949.0
100
AcDbArc
 50
325.648724
 51
326.490039
  0
ARC
  5
29EA
330
18
100
AcDbEntity
  8
0
100
AcDbCircle
 10
-660.654187
 20
589.1995239999999
 30
0.0
 40
2.75
100
AcDbArc
 50
62.56342
 51
248.0100499999999
  0
ARC
  5
29EB
330
18
100
AcDbEntity
  8
0
100
AcDbCircle
 10
-650.1548569999998
 20
605.507824
 30
0.0
 40
2.75
100
AcDbArc
 50
63.73782
 51
249.1844599999998
  0
ARC
  5
29EC
330
18
100
AcDbEntity
  8
0
100
AcDbCircle
 10
-1451.012728
 20
1109.569424
 30
0.0
 40
949.0
100
AcDbArc
 50
326.8231239999999
 51
327.664439
  0
ARC
  5
29ED
330
18
100
AcDbEntity
  8
0
100
AcDbCircle
 10
-682.644487
 20
557.245524
 30
0.0
 40
2.75
100
AcDbArc
 50
60.21461999999999
 51
245.6612599999999
  0
ARC
  5
29EE
330
18
100
AcDbEntity
  8
0
100
AcDbCircle
 10
-1451.012728
 20
1109.569424
 30
0.0
 40
949.0
100
AcDbArc
 50
324.474324
 51
325.315636
  0
ARC
  5
29EF
330
18
100
AcDbEntity
  8
0
100
AcDbCircle
 10
-671.485607
 20
573.109824
 30
0.0
 40
2.75
100
AcDbArc
 50
61.38903
 51
246.8356399999999
  0
ARC
  5
29F0
330
18
100
AcDbEntity
  8
0
100
AcDbCircle
 10
-1451.012728
 20
1109.569424
 30
0.0
 40
949.0
100
AcDbArc
 50
320.9511249999998
 51
321.7924369999999
  0
ARC
  5
29F1
330
18
100
AcDbEntity
  8
0
100
AcDbCircle
 10
-705.9257969999999
 20
526.219624
 30
0.0
 40
2.75
100
AcDbArc
 50
57.86582
 51
243.31244
  0
ARC
  5
29F2
330
18
100
AcDbEntity
  8
0
100
AcDbCircle
 10
-1451.012728
 20
1109.569424
 30
0.0
 40
949.0
100
AcDbArc
 50
322.125524
 51
322.966836
  0
ARC
  5
29F3
330
18
100
AcDbEntity
  8
0
100
AcDbCircle
 10
-694.126117
 20
541.613324
 30
0.0
 40
2.75
100
AcDbArc
 50
59.04022
 51
244.48685
  0
ARC
  5
29F4
330
18
100
AcDbEntity
  8
0
100
AcDbCircle
 10
-718.0384669999998
 20
511.071224
 30
0.0
 40
2.75
100
AcDbArc
 50
56.69143
 51
242.13806
  0
ARC
  5
29F5
330
18
100
AcDbEntity
  8
0
100
AcDbCircle
 10
-1451.012728
 20
1109.569424
 30
0.0
 40
949.0
100
AcDbArc
 50
319.776725
 51
320.618037
  0
ARC
  5
29F6
330
18
100
AcDbEntity
  8
0
100
AcDbCircle
 10
-730.459057
 20
496.174024
 30
0.0
 40
2.75
100
AcDbArc
 50
55.51701999999999
 51
240.9636499999999
  0
LINE
  5
29F7
330
18
100
AcDbEntity
  8
0
100
AcDbLine
 10
-716.6739669999998
 20
353.833924
 30
0.0
 11
-798.965587
 21
423.7581239999998
 31
0.0
  0
LINE
  5
29F8
330
18
100
AcDbEntity
  8
0
100
AcDbLine
 10
-713.120617
 20
358.0156239999998
 30
0.0
 11
-795.4122469999998
 21
427.940024
 31
0.0
  0
LINE
  5
29F9
330
18
100
AcDbEntity
  8
0
100
AcDbLine
 10
-701.3388769999997
 20
369.043424
 30
0.0
 11
-785.0463369999999
 21
437.266324
 31
0.0
  0
LINE
  5
29FA
330
18
100
AcDbEntity
  8
0
100
AcDbLine
 10
-697.871957
 20
373.2971239999998
 30
0.0
 11
-781.579417
 21
441.520224
 31
0.0
  0
LINE
  5
29FB
330
18
100
AcDbEntity
  8
0
100
AcDbLine
 10
-686.318737
 20
384.564024
 30
0.0
 11
-771.4069369999998
 21
451.056924
 31
0.0
  0
LINE
  5
29FC
330
18
100
AcDbEntity
  8
0
100
AcDbLine
 10
-682.9397069999998
 20
388.888024
 30
0.0
 11
-768.027907
 21
455.380924
 31
0.0
  0
LINE
  5
29FD
330
18
100
AcDbEntity
  8
0
100
AcDbLine
 10
-671.619947
 20
400.3892239999998
 30
0.0
 11
-758.053117
 21
465.124324
 31
0.0
  0
LINE
  5
29FE
330
18
100
AcDbEntity
  8
0
100
AcDbLine
 10
-668.3302769999998
 20
404.781524
 30
0.0
 11
-754.763377
 21
469.516624
 31
0.0
  0
LINE
  5
29FF
330
18
100
AcDbEntity
  8
0
100
AcDbLine
 10
-657.248427
 20
416.512324
 30
0.0
 11
-744.9901869999998
 21
479.4623239999999
 31
0.0
  0
ARC
  5
2A00
330
18
100
AcDbEntity
  8
0
100
AcDbCircle
 10
-811.1484469999997
 20
412.414324
 30
0.0
 40
2.75
100
AcDbArc
 50
48.47062000000001
 51
233.9172399999999
  0
ARC
  5
2A01
330
18
100
AcDbEntity
  8
0
100
AcDbCircle
 10
-1451.012728
 20
1109.569424
 30
0.0
 40
949.0
100
AcDbArc
 50
312.7303229999999
 51
313.571638
  0
ARC
  5
2A02
330
18
100
AcDbEntity
  8
0
100
AcDbCircle
 10
-1451.012728
 20
1109.569424
 30
0.0
 40
949.0
100
AcDbArc
 50
313.9047259999998
 51
314.746038
  0
ARC
  5
2A03
330
18
100
AcDbEntity
  8
0
100
AcDbCircle
 10
-796.9941570000002
 20
425.675324
 30
0.0
 40
2.75
100
AcDbArc
 50
49.64502000000001
 51
235.0916499999999
  0
ARC
  5
2A04
330
18
100
AcDbEntity
  8
0
100
AcDbCircle
 10
-1451.012728
 20
1109.569424
 30
0.0
 40
949.0
100
AcDbArc
 50
315.0791259999998
 51
315.9204379999998
  0
ARC
  5
2A05
330
18
100
AcDbEntity
  8
0
100
AcDbCircle
 10
-756.2031369999998
 20
467.159124
 30
0.0
 40
2.75
100
AcDbArc
 50
53.16822
 51
238.61485
  0
ARC
  5
2A06
330
18
100
AcDbEntity
  8
0
100
AcDbCircle
 10
-1451.012728
 20
1109.569424
 30
0.0
 40
949.0
100
AcDbArc
 50
317.427925
 51
318.269237
  0
ARC
  5
2A07
330
18
100
AcDbEntity
  8
0
100
AcDbCircle
 10
-769.5156969999998
 20
453.053524
 30
0.0
 40
2.75
100
AcDbArc
 50
51.99380999999999
 51
237.4404399999999
  0
ARC
  5
2A08
330
18
100
AcDbEntity
  8
0
100
AcDbCircle
 10
-1451.012728
 20
1109.569424
 30
0.0
 40
949.0
100
AcDbArc
 50
316.253525
 51
317.094837
  0
ARC
  5
2A09
330
18
100
AcDbEntity
  8
0
100
AcDbCircle
 10
-783.1146369999999
 20
439.2235239999997
 30
0.0
 40
2.75
100
AcDbArc
 50
50.81942
 51
236.26606
  0
ARC
  5
2A0A
330
18
100
AcDbEntity
  8
0
100
AcDbCircle
 10
-825.571487
 20
399.4463239999998
 30
0.0
 40
2.75
100
AcDbArc
 50
47.29620999999999
 51
232.7428599999999
  0
ARC
  5
2A0B
330
18
100
AcDbEntity
  8
0
100
AcDbCircle
 10
-1451.012728
 20
1109.569424
 30
0.0
 40
949.0
100
AcDbArc
 50
311.555923
 51
312.397238
  0
ARC
  5
2A0C
330
18
100
AcDbEntity
  8
0
100
AcDbCircle
 10
-1451.012728
 20
1109.569424
 30
0.0
 40
1051.0
100
AcDbArc
 50
317.986628
 51
318.860564
  0
ARC
  5
2A0D
330
18
100
AcDbEntity
  8
0
100
AcDbCircle
 10
-655.4404469999998
 20
418.584924
 30
0.0
 40
2.75
100
AcDbArc
 50
228.8959999999999
 51
54.34262
  0
ARC
  5
2A0E
330
18
100
AcDbEntity
  8
0
100
AcDbCircle
 10
-1451.012728
 20
1109.569424
 30
0.0
 40
1051.0
100
AcDbArc
 50
319.1610279999999
 51
320.034964
  0
ARC
  5
2A0F
330
18
100
AcDbEntity
  8
0
100
AcDbCircle
 10
-1451.012728
 20
1109.569424
 30
0.0
 40
1051.0
100
AcDbArc
 50
315.6378279999998
 51
316.5117649999999
  0
ARC
  5
2A10
330
18
100
AcDbEntity
  8
0
100
AcDbCircle
 10
-714.7022869999998
 20
355.751224
 30
0.0
 40
2.75
100
AcDbArc
 50
224.1984
 51
49.64502000000001
  0
ARC
  5
2A11
330
18
100
AcDbEntity
  8
0
100
AcDbCircle
 10
-699.406937
 20
371.000824
 30
0.0
 40
2.75
100
AcDbArc
 50
225.3728
 51
50.81942
  0
ARC
  5
2A12
330
18
100
AcDbEntity
  8
0
100
AcDbCircle
 10
-1451.012728
 20
1109.569424
 30
0.0
 40
1051.0
100
AcDbArc
 50
314.4634279999999
 51
315.3373649999998
  0
ARC
  5
2A13
330
18
100
AcDbEntity
  8
0
100
AcDbCircle
 10
-669.769787
 20
402.424224
 30
0.0
 40
2.75
100
AcDbArc
 50
227.7216
 51
53.16821
  0
ARC
  5
2A14
330
18
100
AcDbEntity
  8
0
100
AcDbCircle
 10
-1451.012728
 20
1109.569424
 30
0.0
 40
1051.0
100
AcDbArc
 50
316.8122279999999
 51
317.686164
  0
ARC
  5
2A15
330
18
100
AcDbEntity
  8
0
100
AcDbCircle
 10
-684.427317
 20
386.560624
 30
0.0
 40
2.75
100
AcDbArc
 50
226.5471999999999
 51
51.99380999999999
  0
ARC
  5
2A16
330
18
100
AcDbEntity
  8
0
100
AcDbCircle
 10
-1451.012728
 20
1109.569424
 30
0.0
 40
1051.0
100
AcDbArc
 50
322.6842299999999
 51
323.5581669999999
  0
ARC
  5
2A17
330
18
100
AcDbEntity
  8
0
100
AcDbCircle
 10
-542.191967
 20
576.240524
 30
0.0
 40
2.75
100
AcDbArc
 50
239.4656
 51
64.91221
  0
ARC
  5
2A18
330
18
100
AcDbEntity
  8
0
100
AcDbCircle
 10
-1451.012728
 20
1109.569424
 30
0.0
 40
1051.0
100
AcDbArc
 50
329.7306259999998
 51
330.6045619999999
  0
ARC
  5
2A19
330
18
100
AcDbEntity
  8
0
100
AcDbCircle
 10
-1451.012728
 20
1109.569424
 30
0.0
 40
1051.0
100
AcDbArc
 50
327.381826
 51
328.2557629999999
  0
ARC
  5
2A1A
330
18
100
AcDbEntity
  8
0
100
AcDbCircle
 10
-553.313797
 20
557.725724
 30
0.0
 40
2.75
100
AcDbArc
 50
238.2912
 51
63.73782
  0
ARC
  5
2A1B
330
18
100
AcDbEntity
  8
0
100
AcDbCircle
 10
-1451.012728
 20
1109.569424
 30
0.0
 40
1051.0
100
AcDbArc
 50
328.556229
 51
329.430166
  0
ARC
  5
2A1C
330
18
100
AcDbEntity
  8
0
100
AcDbCircle
 10
-601.5235169999998
 20
486.060724
 30
0.0
 40
2.75
100
AcDbArc
 50
233.5936
 51
59.04022
  0
ARC
  5
2A1D
330
18
100
AcDbEntity
  8
0
100
AcDbCircle
 10
-1451.012728
 20
1109.569424
 30
0.0
 40
1051.0
100
AcDbArc
 50
323.85863
 51
324.732567
  0
ARC
  5
2A1E
330
18
100
AcDbEntity
  8
0
100
AcDbCircle
 10
-1451.012728
 20
1109.569424
 30
0.0
 40
1051.0
100
AcDbArc
 50
325.0330299999999
 51
325.906966
  0
ARC
  5
2A1F
330
18
100
AcDbEntity
  8
0
100
AcDbCircle
 10
-564.8128169999998
 20
539.442624
 30
0.0
 40
2.75
100
AcDbArc
 50
237.1168
 51
62.56342
  0
ARC
  5
2A20
330
18
100
AcDbEntity
  8
0
100
AcDbCircle
 10
-1451.012728
 20
1109.569424
 30
0.0
 40
1051.0
100
AcDbArc
 50
326.20743
 51
327.0813659999999
  0
ARC
  5
2A21
330
18
100
AcDbEntity
  8
0
100
AcDbCircle
 10
-576.6840969999998
 20
521.399124
 30
0.0
 40
2.75
100
AcDbArc
 50
235.9424
 51
61.38901
  0
ARC
  5
2A22
330
18
100
AcDbEntity
  8
0
100
AcDbCircle
 10
-588.9227469999998
 20
503.602624
 30
0.0
 40
2.75
100
AcDbArc
 50
234.7679999999999
 51
60.21461999999999
  0
ARC
  5
2A23
330
18
100
AcDbEntity
  8
0
100
AcDbCircle
 10
-1451.012728
 20
1109.569424
 30
0.0
 40
1051.0
100
AcDbArc
 50
330.905029
 51
331.7789649999998
  0
ARC
  5
2A24
330
18
100
AcDbEntity
  8
0
100
AcDbCircle
 10
-531.4519169999998
 20
594.9795239999998
 30
0.0
 40
2.75
100
AcDbArc
 50
240.64
 51
66.08660999999999
  0
ARC
  5
2A25
330
18
100
AcDbEntity
  8
0
100
AcDbCircle
 10
-1451.012728
 20
1109.569424
 30
0.0
 40
1051.0
100
AcDbArc
 50
321.509827
 51
322.383767
  0
ARC
  5
2A26
330
18
100
AcDbEntity
  8
0
100
AcDbCircle
 10
-627.7903570000002
 20
451.770024
 30
0.0
 40
2.75
100
AcDbArc
 50
231.2448
 51
56.69140999999999
  0
ARC
  5
2A27
330
18
100
AcDbEntity
  8
0
100
AcDbCircle
 10
-614.481217
 20
468.7809239999999
 30
0.0
 40
2.75
100
AcDbArc
 50
232.4192
 51
57.86582
  0
ARC
  5
2A28
330
18
100
AcDbEntity
  8
0
100
AcDbCircle
 10
-454.7492669999998
 20
384.220524
 30
0.0
 40
2.75
100
AcDbArc
 50
41.53037
 51
226.977
  0
ARC
  5
2A29
330
18
100
AcDbEntity
  8
0
100
AcDbCircle
 10
-473.369367
 20
363.457724
 30
0.0
 40
2.75
100
AcDbArc
 50
47.82693
 51
233.27356
  0
ARC
  5
2A2A
330
18
100
AcDbEntity
  8
0
100
AcDbCircle
 10
-275.3171669999999
 20
204.5749339999999
 30
0.0
 40
251.0
100
AcDbArc
 50
135.9285199999999
 51
140.67351
  0
ARC
  5
2A2B
330
18
100
AcDbEntity
  8
0
100
AcDbCircle
 10
-1451.012728
 20
1109.569424
 30
0.0
 40
1051.0
100
AcDbArc
 50
312.1146289999998
 51
312.9885649999998
  0
ARC
  5
2A2C
330
18
100
AcDbEntity
  8
0
100
AcDbCircle
 10
-1451.012728
 20
1109.569424
 30
0.0
 40
1051.0
100
AcDbArc
 50
307.4170299999999
 51
308.290966
  0
ARC
  5
2A2D
330
18
100
AcDbEntity
  8
0
100
AcDbCircle
 10
-1451.012728
 20
1109.569424
 30
0.0
 40
1051.0
100
AcDbArc
 50
308.591429
 51
309.465366
  0
ARC
  5
2A2E
330
18
100
AcDbEntity
  8
0
100
AcDbCircle
 10
-795.6862269999998
 20
284.377224
 30
0.0
 40
2.75
100
AcDbArc
 50
218.3264
 51
43.77301
  0
ARC
  5
2A2F
330
18
100
AcDbEntity
  8
0
100
AcDbCircle
 10
-762.418107
 20
311.927624
 30
0.0
 40
2.75
100
AcDbArc
 50
220.6751999999999
 51
46.12181999999999
  0
ARC
  5
2A30
330
18
100
AcDbEntity
  8
0
100
AcDbCircle
 10
-746.2144869999998
 20
326.208524
 30
0.0
 40
2.75
100
AcDbArc
 50
221.8496
 51
47.29620999999999
  0
ARC
  5
2A31
330
18
100
AcDbEntity
  8
0
100
AcDbCircle
 10
-1451.012728
 20
1109.569424
 30
0.0
 40
1051.0
100
AcDbArc
 50
310.9402289999998
 51
311.814165
  0
ARC
  5
2A32
330
18
100
AcDbEntity
  8
0
100
AcDbCircle
 10
-1451.012728
 20
1109.569424
 30
0.0
 40
1051.0
100
AcDbArc
 50
309.765829
 51
310.639766
  0
ARC
  5
2A33
330
18
100
AcDbEntity
  8
0
100
AcDbCircle
 10
-778.910967
 20
297.982024
 30
0.0
 40
2.75
100
AcDbArc
 50
219.5008
 51
44.94742000000001
  0
ARC
  5
2A34
330
18
100
AcDbEntity
  8
0
100
AcDbCircle
 10
-824.003427
 20
259.997324
 30
0.0
 40
2.75
100
AcDbArc
 50
232.89377
 51
58.34041
  0
ARC
  5
2A35
330
18
100
AcDbEntity
  8
0
100
AcDbCircle
 10
-812.403457
 20
271.111224
 30
0.0
 40
2.75
100
AcDbArc
 50
226.59722
 51
52.04385
  0
LINE
  5
2A36
330
18
100
AcDbEntity
  8
0
100
AcDbLine
 10
-824.1466769999997
 20
264.5009239999999
 30
0.0
 11
-816.4907969999998
 21
271.191424
 31
0.0
  0
ARC
  5
2A37
330
18
100
AcDbEntity
  8
0
100
AcDbCircle
 10
-730.3070169999998
 20
340.818424
 30
0.0
 40
2.75
100
AcDbArc
 50
223.024
 51
48.47061
  0
LINE
  5
2A39
330
18
100
AcDbEntity
  8
0
100
AcDbLine
 10
-537.7288969999998
 20
217.537124
 30
0.0
 11
-542.854937
 21
203.453474
 31
0.0
  0
LINE
  5
2A3A
330
18
100
AcDbEntity
  8
0
100
AcDbLine
 10
-512.423537
 20
287.063024
 30
0.0
 11
-521.8206969999998
 21
261.244524
 31
0.0
  0
ARC
  5
2A3B
330
18
100
AcDbEntity
  8
0
100
AcDbCircle
 10
-275.3171669999999
 20
204.5749339999999
 30
0.0
 40
251.0
100
AcDbArc
 50
148.2250999999999
 51
153.2666199999999
  0
ARC
  5
2A3C
330
18
100
AcDbEntity
  8
0
100
AcDbCircle
 10
-503.245377
 20
316.455024
 30
0.0
 40
2.75
100
AcDbArc
 50
60.42003
 51
245.8666599999999
  0
ARC
  5
2A3D
330
18
100
AcDbEntity
  8
0
100
AcDbCircle
 10
-275.3171669999999
 20
204.5749339999999
 30
0.0
 40
251.0
100
AcDbArc
 50
154.52166
 51
159.56316
  0
ARC
  5
2A3E
330
18
100
AcDbEntity
  8
0
100
AcDbCircle
 10
-514.140757
 20
290.782124
 30
0.0
 40
2.75
100
AcDbArc
 50
66.71656999999999
 51
252.16322
  0
ARC
  5
2A3F
330
18
100
AcDbEntity
  8
0
100
AcDbCircle
 10
-489.6000469999998
 20
340.778024
 30
0.0
 40
2.75
100
AcDbArc
 50
54.12348000000001
 51
239.5700999999998
  0
LINE
  5
2A40
330
18
100
AcDbEntity
  8
0
100
AcDbLine
 10
-523.7060669999998
 20
256.064624
 30
0.0
 11
-528.832047
 21
241.981024
 31
0.0
  0
ARC
  5
2A41
330
18
100
AcDbEntity
  8
0
100
AcDbCircle
 10
-525.439287
 20
259.342724
 30
0.0
 40
2.75
100
AcDbArc
 50
75.44661999999998
 51
260.89326
  0
LINE
  5
2A42
330
18
100
AcDbEntity
  8
0
100
AcDbLine
 10
-530.7174769999997
 20
236.800824
 30
0.0
 11
-535.843457
 21
222.717224
 31
0.0
  0
ARC
  5
2A43
330
18
100
AcDbEntity
  8
0
100
AcDbCircle
 10
-532.4506969999998
 20
240.079124
 30
0.0
 40
2.75
100
AcDbArc
 50
75.44661999999998
 51
260.89326
  0
ARC
  5
2A44
330
18
100
AcDbEntity
  8
0
100
AcDbCircle
 10
-539.462107
 20
220.8155239999999
 30
0.0
 40
2.75
100
AcDbArc
 50
75.44661999999998
 51
260.89326
  0
LINE
  5
2A45
330
18
100
AcDbEntity
  8
0
100
AcDbLine
 10
-449.902767
 20
152.568404
 30
0.0
 11
-554.4254269999998
 21
179.703714
 31
0.0
  0
LINE
  5
2A46
330
18
100
AcDbEntity
  8
0
100
AcDbLine
 10
-448.523867
 20
157.879984
 30
0.0
 11
-553.046457
 21
185.0153639999999
 31
0.0
  0
LINE
  5
2A47
330
18
100
AcDbEntity
  8
0
100
AcDbLine
 10
-456.914167
 20
133.304734
 30
0.0
 11
-561.436907
 21
160.440044
 31
0.0
  0
LINE
  5
2A48
330
18
100
AcDbEntity
  8
0
100
AcDbLine
 10
-455.5352669999998
 20
138.6163139999998
 30
0.0
 11
-560.057937
 21
165.7516339999999
 31
0.0
  0
LINE
  5
2A49
330
18
100
AcDbEntity
  8
0
100
AcDbLine
 10
-462.546667
 20
119.352584
 30
0.0
 11
-567.0693469999998
 21
146.487894
 31
0.0
  0
LINE
  5
2A4A
330
18
100
AcDbEntity
  8
0
100
AcDbLine
 10
-476.1806669999998
 20
81.478864
 30
0.0
 11
-580.3651269999997
 21
109.884934
 31
0.0
  0
LINE
  5
2A4B
330
18
100
AcDbEntity
  8
0
100
AcDbLine
 10
-463.9255669999998
 20
114.0411139999999
 30
0.0
 11
-568.448257
 21
141.1764339999999
 31
0.0
  0
LINE
  5
2A4C
330
18
100
AcDbEntity
  8
0
100
AcDbLine
 10
-470.937067
 20
94.77738399999999
 30
0.0
 11
-575.4596069999998
 21
121.912704
 31
0.0
  0
LINE
  5
2A4D
330
18
100
AcDbEntity
  8
0
100
AcDbLine
 10
-469.558167
 20
100.0888439999999
 30
0.0
 11
-574.080697
 21
127.2241639999998
 31
0.0
  0
LINE
  5
2A4E
330
18
100
AcDbEntity
  8
0
100
AcDbLine
 10
-558.763137
 20
159.746074
 30
0.0
 11
-563.8891769999998
 21
145.662394
 31
0.0
  0
ARC
  5
2A4F
330
18
100
AcDbEntity
  8
0
100
AcDbCircle
 10
-553.484937
 20
182.2880639999999
 30
0.0
 40
2.75
100
AcDbArc
 50
75.44661999999998
 51
260.89326
  0
ARC
  5
2A50
330
18
100
AcDbEntity
  8
0
100
AcDbCircle
 10
-546.473527
 20
201.5516739999999
 30
0.0
 40
2.75
100
AcDbArc
 50
75.44661999999998
 51
260.89326
  0
LINE
  5
2A51
330
18
100
AcDbEntity
  8
0
100
AcDbLine
 10
-544.7402469999998
 20
198.2736039999999
 30
0.0
 11
-549.866287
 21
184.189864
 31
0.0
  0
ARC
  5
2A52
330
18
100
AcDbEntity
  8
0
100
AcDbCircle
 10
-560.496347
 20
163.0244539999999
 30
0.0
 40
2.75
100
AcDbArc
 50
75.44661999999998
 51
260.89326
  0
LINE
  5
2A53
330
18
100
AcDbEntity
  8
0
100
AcDbLine
 10
-551.7517269999998
 20
179.0097439999999
 30
0.0
 11
-556.877697
 21
164.9261939999998
 31
0.0
  0
LINE
  5
2A54
330
18
100
AcDbEntity
  8
0
100
AcDbLine
 10
-572.7859669999998
 20
121.2186739999999
 30
0.0
 11
-577.911937
 21
107.135234
 31
0.0
  0
ARC
  5
2A55
330
18
100
AcDbEntity
  8
0
100
AcDbCircle
 10
-574.5191769999999
 20
124.496934
 30
0.0
 40
2.75
100
AcDbArc
 50
75.44661999999998
 51
260.89326
  0
ARC
  5
2A56
330
18
100
AcDbEntity
  8
0
100
AcDbCircle
 10
-567.5077669999998
 20
143.760664
 30
0.0
 40
2.75
100
AcDbArc
 50
75.44661999999998
 51
260.89326
  0
LINE
  5
2A57
330
18
100
AcDbEntity
  8
0
100
AcDbLine
 10
-565.774487
 20
140.482464
 30
0.0
 11
-570.900527
 21
126.398784
 31
0.0
  0
ARC
  5
2A58
330
18
100
AcDbEntity
  8
0
100
AcDbCircle
 10
-587.117507
 20
93.20176399999999
 30
0.0
 40
2.75
100
AcDbArc
 50
68.74892
 51
254.19555
  0
ARC
  5
2A59
330
18
100
AcDbEntity
  8
0
100
AcDbCircle
 10
-717.173777
 20
160.106064
 30
0.0
 40
149.0
100
AcDbArc
 50
333.950023
 51
337.828614
  0
ARC
  5
2A5A
330
18
100
AcDbEntity
  8
0
100
AcDbCircle
 10
-580.8366269999997
 20
107.162824
 30
0.0
 40
2.75
100
AcDbArc
 50
74.74892
 51
260.19555
  0
ARC
  5
2A5B
330
18
100
AcDbEntity
  8
0
100
AcDbCircle
 10
-717.173777
 20
160.106064
 30
0.0
 40
149.0
100
AcDbArc
 50
327.950023
 51
331.828614
  0
LINE
  5
2A5C
330
18
100
AcDbEntity
  8
0
100
AcDbLine
 10
-452.576667
 20
153.2627339999999
 30
0.0
 11
-457.702667
 21
139.179054
 31
0.0
  0
ARC
  5
2A5D
330
18
100
AcDbEntity
  8
0
100
AcDbCircle
 10
-448.962267
 20
155.152754
 30
0.0
 40
2.75
100
AcDbArc
 50
250.0
 51
75.44661999999998
  0
LINE
  5
2A5E
330
18
100
AcDbEntity
  8
0
100
AcDbLine
 10
-466.5994669999998
 20
114.735334
 30
0.0
 11
-471.725567
 21
100.651654
 31
0.0
  0
ARC
  5
2A5F
330
18
100
AcDbEntity
  8
0
100
AcDbCircle
 10
-455.9736669999998
 20
135.889024
 30
0.0
 40
2.75
100
AcDbArc
 50
250.0
 51
75.44661999999998
  0
ARC
  5
2A60
330
18
100
AcDbEntity
  8
0
100
AcDbCircle
 10
-462.985067
 20
116.6253439999999
 30
0.0
 40
2.75
100
AcDbArc
 50
250.0
 51
75.44661999999998
  0
LINE
  5
2A61
330
18
100
AcDbEntity
  8
0
100
AcDbLine
 10
-459.5880669999998
 20
133.999184
 30
0.0
 11
-464.7140669999997
 21
119.915444
 31
0.0
  0
ARC
  5
2A62
330
18
100
AcDbEntity
  8
0
100
AcDbCircle
 10
-469.9964669999998
 20
97.361734
 30
0.0
 40
2.75
100
AcDbArc
 50
250.0
 51
75.44661999999998
  0
LINE
  5
2A63
330
18
100
AcDbEntity
  8
0
100
AcDbLine
 10
-473.610867
 20
95.471664
 30
0.0
 11
-478.736967
 21
81.387984
 31
0.0
  0
ARC
  5
2A64
330
18
100
AcDbEntity
  8
0
100
AcDbCircle
 10
-275.3171669999999
 20
204.5749339999999
 30
0.0
 40
251.0
100
AcDbArc
 50
31.85266
 51
36.59767
  0
ARC
  5
2A65
330
18
100
AcDbEntity
  8
0
100
AcDbCircle
 10
-275.3171669999999
 20
204.5749339999999
 30
0.0
 40
149.0
100
AcDbArc
 50
70.67139
 51
74.54998
  0
LINE
  5
2A66
330
18
100
AcDbEntity
  8
0
100
AcDbLine
 10
-107.5767669999999
 20
394.635824
 30
0.0
 11
-182.927967
 21
317.282724
 31
0.0
  0
LINE
  5
2A67
330
18
100
AcDbEntity
  8
0
100
AcDbLine
 10
-111.507667
 20
398.465024
 30
0.0
 11
-186.858867
 21
321.111824
 31
0.0
  0
LINE
  5
2A68
330
18
100
AcDbEntity
  8
0
100
AcDbLine
 10
-128.3624669999998
 20
411.128224
 30
0.0
 11
-195.2152669999999
 21
326.322524
 31
0.0
  0
LINE
  5
2A69
330
18
100
AcDbEntity
  8
0
100
AcDbLine
 10
-132.6719669999999
 20
414.525524
 30
0.0
 11
-199.524867
 21
329.719924
 31
0.0
  0
LINE
  5
2A6A
330
18
100
AcDbEntity
  8
0
100
AcDbLine
 10
-150.7581669999999
 20
425.357824
 30
0.0
 11
-208.380167
 21
334.028724
 31
0.0
  0
LINE
  5
2A6B
330
18
100
AcDbEntity
  8
0
100
AcDbLine
 10
-155.3992669999999
 20
428.285924
 30
0.0
 11
-213.021267
 21
336.956924
 31
0.0
  0
LINE
  5
2A6C
330
18
100
AcDbEntity
  8
0
100
AcDbLine
 10
-174.5185669999999
 20
437.168224
 30
0.0
 11
-222.278467
 21
340.316124
 31
0.0
  0
LINE
  5
2A6D
330
18
100
AcDbEntity
  8
0
100
AcDbLine
 10
-179.4404669999999
 20
439.595224
 30
0.0
 11
-227.200367
 21
342.7432239999999
 31
0.0
  0
LINE
  5
2A6E
330
18
100
AcDbEntity
  8
0
100
AcDbLine
 10
-199.383467
 20
446.430324
 30
0.0
 11
-236.7578669999999
 21
345.116624
 31
0.0
  0
LINE
  5
2A6F
330
18
100
AcDbEntity
  8
0
100
AcDbLine
 10
-71.726567
 20
355.6073239999998
 30
0.0
 11
-161.513667
 21
295.611024
 31
0.0
  0
LINE
  5
2A70
330
18
100
AcDbEntity
  8
0
100
AcDbLine
 10
-74.775367
 20
360.170124
 30
0.0
 11
-164.562467
 21
300.173724
 31
0.0
  0
LINE
  5
2A71
330
18
100
AcDbEntity
  8
0
100
AcDbLine
 10
-88.62906700000001
 20
376.0609239999998
 30
0.0
 11
-171.653067
 21
307.008024
 31
0.0
  0
LINE
  5
2A72
330
18
100
AcDbEntity
  8
0
100
AcDbLine
 10
-92.13806700000001
 20
380.280024
 30
0.0
 11
-175.1621669999999
 21
311.227124
 31
0.0
  0
ARC
  5
2A73
330
18
100
AcDbEntity
  8
0
100
AcDbCircle
 10
-254.260967
 20
349.307324
 30
0.0
 40
2.75
100
AcDbArc
 50
160.30445
 51
345.75108
  0
LINE
  5
2A74
330
18
100
AcDbEntity
  8
0
100
AcDbLine
 10
-315.3311669999999
 20
343.797924
 30
0.0
 11
-280.117767
 21
351.282724
 31
0.0
  0
LINE
  5
2A75
330
18
100
AcDbEntity
  8
0
100
AcDbLine
 10
-389.352067
 20
431.3412239999998
 30
0.0
 11
-347.781967
 21
331.675624
 31
0.0
  0
LINE
  5
2A76
330
18
100
AcDbEntity
  8
0
100
AcDbLine
 10
-384.2872669999998
 20
433.4538239999998
 30
0.0
 11
-342.717267
 21
333.788024
 31
0.0
  0
LINE
  5
2A77
330
18
100
AcDbEntity
  8
0
100
AcDbLine
 10
-362.749567
 20
438.919724
 30
0.0
 11
-333.4052669999998
 21
338.856524
 31
0.0
  0
LINE
  5
2A78
330
18
100
AcDbEntity
  8
0
100
AcDbLine
 10
-357.3663669999998
 20
440.064024
 30
0.0
 11
-328.139267
 21
340.400724
 31
0.0
  0
LINE
  5
2A79
330
18
100
AcDbEntity
  8
0
100
AcDbLine
 10
-332.6783669999998
 20
425.409824
 30
0.0
 11
-318.327667
 21
344.417124
 31
0.0
  0
LINE
  5
2A7A
330
18
100
AcDbEntity
  8
0
100
AcDbLine
 10
-338.775167
 20
454.093524
 30
0.0
 11
-315.3311669999999
 21
343.797924
 31
0.0
  0
LINE
  5
2A7B
330
18
100
AcDbEntity
  8
0
100
AcDbLine
 10
-436.0496669999998
 20
401.0233239999998
 30
0.0
 11
-373.7501669999998
 21
312.818624
 31
0.0
  0
LINE
  5
2A7C
330
18
100
AcDbEntity
  8
0
100
AcDbLine
 10
-431.5673669999998
 20
404.189224
 30
0.0
 11
-369.267667
 21
315.984524
 31
0.0
  0
LINE
  5
2A7D
330
18
100
AcDbEntity
  8
0
100
AcDbLine
 10
-413.5345669999998
 20
417.466624
 30
0.0
 11
-361.284667
 21
322.961324
 31
0.0
  0
LINE
  5
2A7E
330
18
100
AcDbEntity
  8
0
100
AcDbLine
 10
-408.7320669999998
 20
420.121824
 30
0.0
 11
-356.4820669999998
 21
325.616524
 31
0.0
  0
ARC
  5
2A7F
330
18
100
AcDbEntity
  8
0
100
AcDbCircle
 10
-239.2476669999999
 20
346.313524
 30
0.0
 40
2.75
100
AcDbArc
 50
154.3044599999998
 51
339.75108
  0
LINE
  5
2A80
330
18
100
AcDbEntity
  8
0
100
AcDbLine
 10
-204.5318669999999
 20
448.329624
 30
0.0
 11
-241.9062669999999
 21
347.015924
 31
0.0
  0
ARC
  5
2A81
330
18
100
AcDbEntity
  8
0
100
AcDbCircle
 10
-254.011867
 20
457.585724
 30
0.0
 40
2.75
100
AcDbArc
 50
351.7510869999999
 51
177.1977099999999
  0
LINE
  5
2A82
330
18
100
AcDbEntity
  8
0
100
AcDbLine
 10
-251.3273669999999
 20
456.932624
 30
0.0
 11
-266.820767
 21
350.062424
 31
0.0
  0
ARC
  5
2A83
330
18
100
AcDbEntity
  8
0
100
AcDbCircle
 10
-275.3171669999999
 20
204.5749339999999
 30
0.0
 40
251.0
100
AcDbArc
 50
79.85266999999997
 51
84.59766999999997
  0
LINE
  5
2A84
330
18
100
AcDbEntity
  8
0
100
AcDbLine
 10
-225.0801669999999
 20
453.042624
 30
0.0
 11
-251.6596669999999
 21
348.377224
 31
0.0
  0
LINE
  5
2A85
330
18
100
AcDbEntity
  8
0
100
AcDbLine
 10
-230.399067
 20
454.393324
 30
0.0
 11
-256.9785669999999
 21
349.727924
 31
0.0
  0
ARC
  5
2A86
330
18
100
AcDbEntity
  8
0
100
AcDbCircle
 10
-306.2567669999999
 20
467.650724
 30
0.0
 40
13.5
100
AcDbArc
 50
287.839122
 51
102.00001
  0
LINE
  5
2A87
330
18
100
AcDbEntity
  8
0
100
AcDbLine
 10
-377.5471669999998
 20
502.972224
 30
0.0
 11
-357.964967
 21
461.348424
 31
0.0
  0
LINE
  5
2A88
330
18
100
AcDbEntity
  8
0
100
AcDbLine
 10
-382.071467
 20
500.843824
 30
0.0
 11
-362.489367
 21
459.220024
 31
0.0
  0
LINE
  5
2A89
330
18
100
AcDbEntity
  8
0
100
AcDbLine
 10
-376.9339669999998
 20
501.819024
 30
0.0
 11
-401.071867
 21
547.1066239999998
 31
0.0
  0
LINE
  5
2A8A
330
18
100
AcDbEntity
  8
0
100
AcDbLine
 10
-381.574067
 20
499.636024
 30
0.0
 11
-401.074067
 21
547.105624
 31
0.0
  0
LINE
  5
2A8B
330
18
100
AcDbEntity
  8
0
100
AcDbLine
 10
-382.4990669999998
 20
499.2561239999998
 30
0.0
 11
-401.999167
 21
546.725624
 31
0.0
  0
LINE
  5
2A8C
330
18
100
AcDbEntity
  8
0
100
AcDbLine
 10
-376.0513669999998
 20
502.289324
 30
0.0
 11
-400.1894669999998
 21
547.5770240000001
 31
0.0
  0
LINE
  5
2A8D
330
18
100
AcDbEntity
  8
0
100
AcDbLine
 10
-401.0941669999998
 20
547.151324
 30
0.0
 11
-400.1894669999998
 21
547.576924
 31
0.0
  0
ARC
  5
2A8E
330
18
100
AcDbEntity
  8
0
100
AcDbCircle
 10
-379.199367
 20
500.611524
 30
0.0
 40
2.567184
100
AcDbArc
 50
339.688714
 51
28.05725
  0
ARC
  5
2A8F
330
18
100
AcDbEntity
  8
0
100
AcDbCircle
 10
-379.199367
 20
500.611524
 30
0.0
 40
3.567183999999998
100
AcDbArc
 50
339.688714
 51
28.05725
  0
ARC
  5
2A90
330
18
100
AcDbEntity
  8
0
100
AcDbCircle
 10
-379.199367
 20
500.611524
 30
0.0
 40
3.567183999999998
100
AcDbArc
 50
202.33245
 51
250.7009899999999
  0
LINE
  5
2A91
330
18
100
AcDbEntity
  8
0
100
AcDbLine
 10
-377.5471669999998
 20
502.972224
 30
0.0
 11
-382.071467
 21
500.843824
 31
0.0
  0
ARC
  5
2A92
330
18
100
AcDbEntity
  8
0
100
AcDbCircle
 10
-330.7546669999998
 20
449.664224
 30
0.0
 40
26.000002
100
AcDbArc
 50
102.0
 51
135.0
  0
LINE
  5
2A93
330
18
100
AcDbEntity
  8
0
100
AcDbLine
 10
-352.2204669999998
 20
469.386924
 30
0.0
 11
-338.5671669999998
 21
453.115424
 31
0.0
  0
LINE
  5
2A94
330
18
100
AcDbEntity
  8
0
100
AcDbLine
 10
-356.816667
 20
465.530224
 30
0.0
 11
-344.7082669999998
 21
451.099924
 31
0.0
  0
ARC
  5
2A95
330
18
100
AcDbEntity
  8
0
100
AcDbCircle
 10
-275.3171669999999
 20
204.5749339999999
 30
0.0
 40
251.0
100
AcDbArc
 50
104.4457599999998
 51
109.19076
  0
ARC
  5
2A96
330
18
100
AcDbEntity
  8
0
100
AcDbCircle
 10
-275.3171669999999
 20
204.5749339999999
 30
0.0
 40
251.0
100
AcDbArc
 50
123.0389
 51
128.08042
  0
ARC
  5
2A97
330
18
100
AcDbEntity
  8
0
100
AcDbCircle
 10
-275.3171669999999
 20
204.5749339999999
 30
0.0
 40
251.0
100
AcDbArc
 50
116.74236
 51
121.78386
  0
ARC
  5
2A98
330
18
100
AcDbEntity
  8
0
100
AcDbCircle
 10
-411.265267
 20
419.0197239999998
 30
0.0
 40
2.75
100
AcDbArc
 50
28.93727999999999
 51
214.38391
  0
ARC
  5
2A99
330
18
100
AcDbEntity
  8
0
100
AcDbCircle
 10
-366.5828669999998
 20
449.350624
 30
0.0
 40
11.0
100
AcDbArc
 50
150.0
 51
281.9999989999999
  0
ARC
  5
2A9A
330
18
100
AcDbEntity
  8
0
100
AcDbCircle
 10
-366.5828669999998
 20
449.350624
 30
0.0
 40
5.0
100
AcDbArc
 50
150.0
 51
281.9999989999999
  0
LINE
  5
2A9B
330
18
100
AcDbEntity
  8
0
100
AcDbLine
 10
-350.2044669999998
 20
466.984024
 30
0.0
 11
-349.379567
 21
467.809024
 31
0.0
  0
ARC
  5
2A9C
330
18
100
AcDbEntity
  8
0
100
AcDbCircle
 10
-359.880967
 20
462.958924
 30
0.0
 40
4.0
100
AcDbArc
 50
40.0
 51
100.00548
  0
LINE
  5
2A9D
330
18
100
AcDbEntity
  8
0
100
AcDbLine
 10
-357.964967
 20
461.348424
 30
0.0
 11
-362.489367
 21
459.220024
 31
0.0
  0
LINE
  5
2A9E
330
18
100
AcDbEntity
  8
0
100
AcDbLine
 10
-370.913267
 20
451.850624
 30
0.0
 11
-364.3613669999998
 21
463.1987239999999
 31
0.0
  0
LINE
  5
2A9F
330
18
100
AcDbEntity
  8
0
100
AcDbLine
 10
-376.109267
 20
454.850624
 30
0.0
 11
-368.5411669999998
 21
467.958924
 31
0.0
  0
ARC
  5
2AA0
330
18
100
AcDbEntity
  8
0
100
AcDbCircle
 10
-359.880967
 20
462.958924
 30
0.0
 40
10.0
100
AcDbArc
 50
138.47304
 51
150.0
  0
ARC
  5
2AA1
330
18
100
AcDbEntity
  8
0
100
AcDbCircle
 10
-359.880967
 20
462.958924
 30
0.0
 40
10.0
100
AcDbArc
 50
40.0
 51
109.1789699999999
  0
ARC
  5
2AA2
330
18
100
AcDbEntity
  8
0
100
AcDbCircle
 10
-275.3171669999999
 20
204.5749339999999
 30
0.0
 40
251.0
100
AcDbArc
 50
111.34909
 51
115.4873499999999
  0
ARC
  5
2AA3
330
18
100
AcDbEntity
  8
0
100
AcDbCircle
 10
-386.926167
 20
432.636024
 30
0.0
 40
2.75
100
AcDbArc
 50
22.64072999999999
 51
208.08735
  0
LINE
  5
2AA4
330
18
100
AcDbEntity
  8
0
100
AcDbLine
 10
-364.2960669999998
 20
438.591024
 30
0.0
 11
-357.9156669999998
 21
439.947224
 31
0.0
  0
LINE
  5
2AA5
330
18
100
AcDbEntity
  8
0
100
AcDbLine
 10
-365.5434669999998
 20
444.459924
 30
0.0
 11
-359.163267
 21
445.8161239999998
 31
0.0
  0
LINE
  5
2AA6
330
18
100
AcDbEntity
  8
0
100
AcDbLine
 10
-359.163267
 20
445.8161239999998
 30
0.0
 11
-357.9007669999998
 21
439.877124
 31
0.0
  0
ARC
  5
2AA7
330
18
100
AcDbEntity
  8
0
100
AcDbCircle
 10
-433.964367
 20
402.8159239999998
 30
0.0
 40
2.75
100
AcDbArc
 50
35.23383
 51
220.68047
  0
LINE
  5
2AA8
330
18
100
AcDbEntity
  8
0
100
AcDbLine
 10
-256.7582669999999
 20
457.720024
 30
0.0
 11
-272.2517669999999
 21
350.8496239999998
 31
0.0
  0
LINE
  5
2AA9
330
18
100
AcDbEntity
  8
0
100
AcDbLine
 10
-277.8373669999999
 20
458.058024
 30
0.0
 11
-281.7322669999999
 21
358.878624
 31
0.0
  0
LINE
  5
2AAA
330
18
100
AcDbEntity
  8
0
100
AcDbLine
 10
-283.3207669999998
 20
458.273324
 30
0.0
 11
-286.3676669999998
 21
380.686824
 31
0.0
  0
LINE
  5
2AAB
330
18
100
AcDbEntity
  8
0
100
AcDbLine
 10
-303.561867
 20
461.578424
 30
0.0
 11
-280.117767
 21
351.282724
 31
0.0
  0
ARC
  5
2AAC
330
18
100
AcDbEntity
  8
0
100
AcDbCircle
 10
-275.3171669999999
 20
204.5749339999999
 30
0.0
 40
251.0
100
AcDbArc
 50
91.85267000000001
 51
96.09871
  0
ARC
  5
2AAD
330
18
100
AcDbEntity
  8
0
100
AcDbCircle
 10
-306.2567669999999
 20
467.650724
 30
0.0
 40
7.5
100
AcDbArc
 50
292.55203
 51
102.00001
  0
ARC
  5
2AAE
330
18
100
AcDbEntity
  8
0
100
AcDbCircle
 10
-337.0479669999998
 20
457.5276239999998
 30
0.0
 40
10.0
100
AcDbArc
 50
220.0
 51
268.0931399999999
  0
LINE
  5
2AAF
330
18
100
AcDbEntity
  8
0
100
AcDbLine
 10
-345.5079669999998
 20
463.195324
 30
0.0
 11
-344.8968669999998
 21
463.806424
 31
0.0
  0
ARC
  5
2AB0
330
18
100
AcDbEntity
  8
0
100
AcDbCircle
 10
-330.7546669999998
 20
449.664224
 30
0.0
 40
20.0
100
AcDbArc
 50
102.0
 51
135.0
  0
LINE
  5
2AB1
330
18
100
AcDbEntity
  8
0
100
AcDbLine
 10
-338.775167
 20
454.093524
 30
0.0
 11
-303.561867
 21
461.578424
 31
0.0
  0
LINE
  5
2AB2
330
18
100
AcDbEntity
  8
0
100
AcDbLine
 10
-336.160367
 20
475.096124
 30
0.0
 11
-309.0633669999998
 21
480.8557239999998
 31
0.0
  0
LINE
  5
2AB3
330
18
100
AcDbEntity
  8
0
100
AcDbLine
 10
-334.9129669999998
 20
469.227224
 30
0.0
 11
-307.815967
 21
474.986824
 31
0.0
  0
ARC
  5
2AB4
330
18
100
AcDbEntity
  8
0
100
AcDbCircle
 10
-275.3171669999999
 20
204.5749339999999
 30
0.0
 40
251.0
100
AcDbArc
 50
85.85266999999998
 51
90.59766000000001
  0
ARC
  5
2AB5
330
18
100
AcDbEntity
  8
0
100
AcDbCircle
 10
-280.5753669999999
 20
458.426824
 30
0.0
 40
2.75
100
AcDbArc
 50
357.751088
 51
183.1977
  0
ARC
  5
2AB6
330
18
100
AcDbEntity
  8
0
100
AcDbCircle
 10
-275.3171669999999
 20
204.5749339999999
 30
0.0
 40
149.0
100
AcDbArc
 50
82.67139
 51
86.54998
  0
ARC
  5
2AB7
330
18
100
AcDbEntity
  8
0
100
AcDbCircle
 10
-269.505067
 20
350.715424
 30
0.0
 40
2.75
100
AcDbArc
 50
166.30446
 51
351.751081
  0
ARC
  5
2AB8
330
18
100
AcDbEntity
  8
0
100
AcDbCircle
 10
-275.3171669999999
 20
204.5749339999999
 30
0.0
 40
149.0
100
AcDbArc
 50
88.6714
 51
92.02617
  0
ARC
  5
2AB9
330
18
100
AcDbEntity
  8
0
100
AcDbCircle
 10
-152.9448669999998
 20
427.0462239999998
 30
0.0
 40
2.75
100
AcDbArc
 50
327.7510869999998
 51
153.19771
  0
ARC
  5
2ABA
330
18
100
AcDbEntity
  8
0
100
AcDbCircle
 10
-201.8732669999999
 20
447.627224
 30
0.0
 40
2.75
100
AcDbArc
 50
339.751087
 51
165.1977
  0
ARC
  5
2ABB
330
18
100
AcDbEntity
  8
0
100
AcDbCircle
 10
-275.3171669999999
 20
204.5749339999999
 30
0.0
 40
251.0
100
AcDbArc
 50
73.85266999999998
 51
78.59766
  0
ARC
  5
2ABC
330
18
100
AcDbEntity
  8
0
100
AcDbCircle
 10
-227.681667
 20
453.972724
 30
0.0
 40
2.75
100
AcDbArc
 50
345.751087
 51
171.1976899999999
  0
ARC
  5
2ABD
330
18
100
AcDbEntity
  8
0
100
AcDbCircle
 10
-176.8697669999999
 20
438.618824
 30
0.0
 40
2.75
100
AcDbArc
 50
333.751087
 51
159.1976999999999
  0
ARC
  5
2ABE
330
18
100
AcDbEntity
  8
0
100
AcDbCircle
 10
-275.3171669999999
 20
204.5749339999999
 30
0.0
 40
251.0
100
AcDbArc
 50
67.85266999999999
 51
72.59767
  0
ARC
  5
2ABF
330
18
100
AcDbEntity
  8
0
100
AcDbCircle
 10
-275.3171669999999
 20
204.5749339999999
 30
0.0
 40
251.0
100
AcDbArc
 50
61.85266999999999
 51
66.59766000000001
  0
ARC
  5
2AC0
330
18
100
AcDbEntity
  8
0
100
AcDbCircle
 10
-275.3171669999999
 20
204.5749339999999
 30
0.0
 40
149.0
100
AcDbArc
 50
76.6714
 51
80.54999
  0
ARC
  5
2AC1
330
18
100
AcDbEntity
  8
0
100
AcDbCircle
 10
-275.3171669999999
 20
204.5749339999999
 30
0.0
 40
251.0
100
AcDbArc
 50
55.85266999999999
 51
60.59766999999999
  0
ARC
  5
2AC2
330
18
100
AcDbEntity
  8
0
100
AcDbCircle
 10
-130.360567
 20
413.035924
 30
0.0
 40
2.75
100
AcDbArc
 50
321.7510869999998
 51
147.19769
  0
ARC
  5
2AC3
330
18
100
AcDbEntity
  8
0
100
AcDbCircle
 10
-275.3171669999999
 20
204.5749339999999
 30
0.0
 40
251.0
100
AcDbArc
 50
43.85267
 51
48.59767
  0
ARC
  5
2AC4
330
18
100
AcDbEntity
  8
0
100
AcDbCircle
 10
-275.3171669999999
 20
204.5749339999999
 30
0.0
 40
251.0
100
AcDbArc
 50
49.85267
 51
54.59766
  0
ARC
  5
2AC5
330
18
100
AcDbEntity
  8
0
100
AcDbCircle
 10
-109.364667
 20
396.741824
 30
0.0
 40
2.75
100
AcDbArc
 50
315.7510859999998
 51
141.1977
  0
ARC
  5
2AC6
330
18
100
AcDbEntity
  8
0
100
AcDbCircle
 10
-73.037367
 20
358.039224
 30
0.0
 40
2.75
100
AcDbArc
 50
303.7510859999999
 51
129.1977099999999
  0
ARC
  5
2AC7
330
18
100
AcDbEntity
  8
0
100
AcDbCircle
 10
-90.186767
 20
378.3424239999998
 30
0.0
 40
2.75
100
AcDbArc
 50
309.7510859999998
 51
135.1976999999999
  0
ARC
  5
2AC8
330
18
100
AcDbEntity
  8
0
100
AcDbCircle
 10
-275.3171669999999
 20
204.5749339999999
 30
0.0
 40
251.0
100
AcDbArc
 50
37.85267
 51
42.59765999999999
  0
ARC
  5
2AC9
330
18
100
AcDbEntity
  8
0
100
AcDbCircle
 10
-427.927967
 20
212.9439239999999
 30
0.0
 40
2.75
100
AcDbArc
 50
250.0
 51
75.44661999999998
  0
LINE
  5
2ACA
330
18
100
AcDbEntity
  8
0
100
AcDbLine
 10
-397.789167
 20
290.260824
 30
0.0
 11
-402.938767
 21
281.494024
 31
0.0
  0
LINE
  5
2ACB
330
18
100
AcDbEntity
  8
0
100
AcDbLine
 10
-376.1611669999998
 20
314.901524
 30
0.0
 11
-383.0981669999999
 21
307.4685239999999
 31
0.0
  0
ARC
  5
2ACC
330
18
100
AcDbEntity
  8
0
100
AcDbCircle
 10
-371.6645669999998
 20
314.611224
 30
0.0
 40
2.75
100
AcDbArc
 50
209.7872
 51
35.23383
  0
ARC
  5
2ACD
330
18
100
AcDbEntity
  8
0
100
AcDbCircle
 10
-359.015167
 20
324.514424
 30
0.0
 40
2.75
100
AcDbArc
 50
203.49064
 51
28.93727999999999
  0
LINE
  5
2ACE
330
18
100
AcDbEntity
  8
0
100
AcDbLine
 10
-363.452667
 20
325.296024
 30
0.0
 11
-371.163267
 21
318.668524
 31
0.0
  0
LINE
  5
2ACF
330
18
100
AcDbEntity
  8
0
100
AcDbLine
 10
-349.6810669999998
 20
334.234024
 30
0.0
 11
-358.0718669999998
 21
328.492224
 31
0.0
  0
ARC
  5
2AD0
330
18
100
AcDbEntity
  8
0
100
AcDbCircle
 10
-383.1514669999998
 20
303.380624
 30
0.0
 40
2.75
100
AcDbArc
 50
216.0837399999999
 51
41.53037
  0
LINE
  5
2AD1
330
18
100
AcDbEntity
  8
0
100
AcDbLine
 10
-387.652867
 20
303.1759239999999
 30
0.0
 11
-393.7327669999998
 21
295.026924
 31
0.0
  0
ARC
  5
2AD2
330
18
100
AcDbEntity
  8
0
100
AcDbCircle
 10
-393.3375669999998
 20
290.957924
 30
0.0
 40
2.75
100
AcDbArc
 50
222.3802899999999
 51
47.82693
  0
ARC
  5
2AD3
330
18
100
AcDbEntity
  8
0
100
AcDbCircle
 10
-414.9476669999998
 20
248.096924
 30
0.0
 40
2.75
100
AcDbArc
 50
241.26995
 51
66.71656999999999
  0
ARC
  5
2AD4
330
18
100
AcDbEntity
  8
0
100
AcDbCircle
 10
-409.3320669999997
 20
263.148324
 30
0.0
 40
2.75
100
AcDbArc
 50
234.97339
 51
60.42003
  0
LINE
  5
2AD5
330
18
100
AcDbEntity
  8
0
100
AcDbLine
 10
-412.9747669999998
 20
262.068024
 30
0.0
 11
-416.696167
 21
251.843424
 31
0.0
  0
ARC
  5
2AD6
330
18
100
AcDbEntity
  8
0
100
AcDbCircle
 10
-402.099667
 20
277.492924
 30
0.0
 40
2.75
100
AcDbArc
 50
228.67684
 51
54.12348000000001
  0
LINE
  5
2AD7
330
18
100
AcDbEntity
  8
0
100
AcDbLine
 10
-406.4478669999998
 20
276.312024
 30
0.0
 11
-410.6049669999999
 21
267.033224
 31
0.0
  0
ARC
  5
2AD8
330
18
100
AcDbEntity
  8
0
100
AcDbCircle
 10
-420.916667
 20
232.207624
 30
0.0
 40
2.75
100
AcDbArc
 50
250.0
 51
75.44661999999998
  0
LINE
  5
2AD9
330
18
100
AcDbEntity
  8
0
100
AcDbLine
 10
-424.531067
 20
230.317524
 30
0.0
 11
-429.656967
 21
216.234024
 31
0.0
  0
LINE
  5
2ADA
330
18
100
AcDbEntity
  8
0
100
AcDbLine
 10
-418.5761669999997
 20
246.678124
 30
0.0
 11
-422.645667
 21
235.497624
 31
0.0
  0
ARC
  5
2ADB
330
18
100
AcDbEntity
  8
0
100
AcDbCircle
 10
-345.3559669999998
 20
332.970424
 30
0.0
 40
2.75
100
AcDbArc
 50
197.1940999999999
 51
22.64072999999999
  0
LINE
  5
2ADC
330
18
100
AcDbEntity
  8
0
100
AcDbLine
 10
-335.0120669999999
 20
341.607724
 30
0.0
 11
-343.9819669999998
 21
336.820824
 31
0.0
  0
LINE
  5
2ADD
330
18
100
AcDbEntity
  8
0
100
AcDbLine
 10
-319.6231669999999
 20
347.328024
 30
0.0
 11
-329.063867
 21
343.553724
 31
0.0
  0
ARC
  5
2ADE
330
18
100
AcDbEntity
  8
0
100
AcDbCircle
 10
-330.851667
 20
339.877324
 30
0.0
 40
2.75
100
AcDbArc
 50
190.8975399999999
 51
16.34418
  0
ARC
  5
2ADF
330
18
100
AcDbEntity
  8
0
100
AcDbCircle
 10
-315.6776669999998
 20
345.151924
 30
0.0
 40
2.75
100
AcDbArc
 50
184.6009999999999
 51
341.4843569999998
  0
LINE
  5
2AE0
330
18
100
AcDbEntity
  8
0
100
AcDbLine
 10
-438.5538669999998
 20
191.7901439999999
 30
0.0
 11
-443.6798669999998
 21
177.706584
 31
0.0
  0
ARC
  5
2AE1
330
18
100
AcDbEntity
  8
0
100
AcDbCircle
 10
-434.9394669999998
 20
193.680154
 30
0.0
 40
2.75
100
AcDbArc
 50
250.0
 51
75.44661999999998
  0
LINE
  5
2AE2
330
18
100
AcDbEntity
  8
0
100
AcDbLine
 10
-431.542367
 20
211.053924
 30
0.0
 11
-436.6684669999998
 21
196.970134
 31
0.0
  0
ARC
  5
2AE3
330
18
100
AcDbEntity
  8
0
100
AcDbCircle
 10
-441.9508669999998
 20
174.416484
 30
0.0
 40
2.75
100
AcDbArc
 50
250.0
 51
75.44661999999998
  0
ARC
  5
2AE4
330
18
100
AcDbEntity
  8
0
100
AcDbCircle
 10
-129.369767
 20
214.070424
 30
0.0
 40
2.75
100
AcDbArc
 50
82.30444000000002
 51
267.75107
  0
ARC
  5
2AE5
330
18
100
AcDbEntity
  8
0
100
AcDbCircle
 10
-153.6706669999998
 20
285.772024
 30
0.0
 40
2.75
100
AcDbArc
 50
112.30446
 51
297.751079
  0
ARC
  5
2AE6
330
18
100
AcDbEntity
  8
0
100
AcDbCircle
 10
-275.3171669999999
 20
204.5749339999999
 30
0.0
 40
149.0
100
AcDbArc
 50
34.67139
 51
38.54998
  0
LINE
  5
2AE7
330
18
100
AcDbEntity
  8
0
100
AcDbLine
 10
-59.609767
 20
338.355424
 30
0.0
 11
-155.1765669999998
 21
288.0729239999999
 31
0.0
  0
ARC
  5
2AE8
330
18
100
AcDbEntity
  8
0
100
AcDbCircle
 10
-275.3171669999999
 20
204.5749339999999
 30
0.0
 40
149.0
100
AcDbArc
 50
58.67139
 51
62.54998000000001
  0
ARC
  5
2AE9
330
18
100
AcDbEntity
  8
0
100
AcDbCircle
 10
-210.5667669999998
 20
335.716824
 30
0.0
 40
2.75
100
AcDbArc
 50
142.30446
 51
327.7510799999999
  0
ARC
  5
2AEA
330
18
100
AcDbEntity
  8
0
100
AcDbCircle
 10
-275.3171669999999
 20
204.5749339999999
 30
0.0
 40
149.0
100
AcDbArc
 50
64.67138
 51
68.54999000000001
  0
ARC
  5
2AEB
330
18
100
AcDbEntity
  8
0
100
AcDbCircle
 10
-224.6295669999999
 20
341.766624
 30
0.0
 40
2.75
100
AcDbArc
 50
148.30446
 51
333.7510799999999
  0
ARC
  5
2AEC
330
18
100
AcDbEntity
  8
0
100
AcDbCircle
 10
-275.3171669999999
 20
204.5749339999999
 30
0.0
 40
149.0
100
AcDbArc
 50
46.67139
 51
50.54998000000001
  0
ARC
  5
2AED
330
18
100
AcDbEntity
  8
0
100
AcDbCircle
 10
-275.3171669999999
 20
204.5749339999999
 30
0.0
 40
149.0
100
AcDbArc
 50
52.67138
 51
56.54996999999998
  0
ARC
  5
2AEE
330
18
100
AcDbEntity
  8
0
100
AcDbCircle
 10
-197.213367
 20
328.230124
 30
0.0
 40
2.75
100
AcDbArc
 50
136.30446
 51
321.75108
  0
ARC
  5
2AEF
330
18
100
AcDbEntity
  8
0
100
AcDbCircle
 10
-184.715667
 20
319.388724
 30
0.0
 40
2.75
100
AcDbArc
 50
130.3044599999998
 51
315.75108
  0
ARC
  5
2AF0
330
18
100
AcDbEntity
  8
0
100
AcDbCircle
 10
-162.824567
 20
298.042624
 30
0.0
 40
2.75
100
AcDbArc
 50
118.30445
 51
303.751079
  0
ARC
  5
2AF1
330
18
100
AcDbEntity
  8
0
100
AcDbCircle
 10
-173.210667
 20
309.289224
 30
0.0
 40
2.75
100
AcDbArc
 50
124.30447
 51
309.751079
  0
ARC
  5
2AF2
330
18
100
AcDbEntity
  8
0
100
AcDbCircle
 10
-275.3171669999999
 20
204.5749339999999
 30
0.0
 40
149.0
100
AcDbArc
 50
40.6714
 51
44.54998999999999
  0
ARC
  5
2AF3
330
18
100
AcDbEntity
  8
0
100
AcDbCircle
 10
-275.3171669999999
 20
204.5749339999999
 30
0.0
 40
149.0
100
AcDbArc
 50
28.67138
 51
32.54997
  0
ARC
  5
2AF4
330
18
100
AcDbEntity
  8
0
100
AcDbCircle
 10
-275.3171669999999
 20
204.5749339999999
 30
0.0
 40
149.0
100
AcDbArc
 50
16.67138999999999
 51
20.54997999999998
  0
ARC
  5
2AF5
330
18
100
AcDbEntity
  8
0
100
AcDbCircle
 10
-139.4471669999999
 20
258.705824
 30
0.0
 40
2.75
100
AcDbArc
 50
100.30447
 51
285.751079
  0
ARC
  5
2AF6
330
18
100
AcDbEntity
  8
0
100
AcDbCircle
 10
-145.8496669999999
 20
272.611624
 30
0.0
 40
2.75
100
AcDbArc
 50
106.30446
 51
291.751079
  0
ARC
  5
2AF7
330
18
100
AcDbEntity
  8
0
100
AcDbCircle
 10
-275.3171669999999
 20
204.5749339999999
 30
0.0
 40
149.0
100
AcDbArc
 50
22.67138999999999
 51
26.54997999999999
  0
ARC
  5
2AF8
330
18
100
AcDbEntity
  8
0
100
AcDbCircle
 10
-275.3171669999999
 20
204.5749339999999
 30
0.0
 40
149.0
100
AcDbArc
 50
4.671387
 51
8.549978999999996
  0
ARC
  5
2AF9
330
18
100
AcDbEntity
  8
0
100
AcDbCircle
 10
-131.1617669999999
 20
229.274024
 30
0.0
 40
2.75
100
AcDbArc
 50
88.30443999999998
 51
273.751068
  0
ARC
  5
2AFA
330
18
100
AcDbEntity
  8
0
100
AcDbCircle
 10
-134.5331669999999
 20
244.207024
 30
0.0
 40
2.75
100
AcDbArc
 50
94.30445
 51
279.751079
  0
ARC
  5
2AFB
330
18
100
AcDbEntity
  8
0
100
AcDbCircle
 10
-275.3171669999999
 20
204.5749339999999
 30
0.0
 40
149.0
100
AcDbArc
 50
10.67138999999998
 51
14.54997999999999
  0
LINE
  5
2AFC
330
18
100
AcDbEntity
  8
0
100
AcDbLine
 10
-126.3171669999999
 20
152.558334
 30
0.0
 11
-126.3171669999999
 21
137.570784
 31
0.0
  0
LINE
  5
2AFD
330
18
100
AcDbEntity
  8
0
100
AcDbLine
 10
-126.3171669999999
 20
193.5581439999999
 30
0.0
 11
-126.3171669999999
 21
178.5705939999999
 31
0.0
  0
LINE
  5
2AFE
330
18
100
AcDbEntity
  8
0
100
AcDbLine
 10
-126.3171669999999
 20
211.198124
 30
0.0
 11
-126.3171669999999
 21
199.0707839999999
 31
0.0
  0
ARC
  5
2AFF
330
18
100
AcDbEntity
  8
0
100
AcDbCircle
 10
-129.0672669999999
 20
196.5704739999999
 30
0.0
 40
2.75
100
AcDbArc
 50
84.55338000000002
 51
270.00001
  0
LINE
  5
2B00
330
18
100
AcDbEntity
  8
0
100
AcDbLine
 10
-126.3171669999999
 20
173.058204
 30
0.0
 11
-126.3171669999999
 21
158.070724
 31
0.0
  0
ARC
  5
2B01
330
18
100
AcDbEntity
  8
0
100
AcDbCircle
 10
-129.0672669999999
 20
176.070534
 30
0.0
 40
2.75
100
AcDbArc
 50
84.55338000000002
 51
270.00001
  0
ARC
  5
2B02
330
18
100
AcDbEntity
  8
0
100
AcDbCircle
 10
-129.0672669999999
 20
155.570414
 30
0.0
 40
2.75
100
AcDbArc
 50
84.55338000000002
 51
270.00001
  0
ARC
  5
2B03
330
18
100
AcDbEntity
  8
0
100
AcDbCircle
 10
-129.0672669999999
 20
114.5704739999999
 30
0.0
 40
2.75
100
AcDbArc
 50
84.55338000000002
 51
270.00001
  0
LINE
  5
2B04
330
18
100
AcDbEntity
  8
0
100
AcDbLine
 10
-126.3171669999999
 20
132.0583939999999
 30
0.0
 11
-126.3171669999999
 21
117.070784
 31
0.0
  0
ARC
  5
2B05
330
18
100
AcDbEntity
  8
0
100
AcDbCircle
 10
-129.0672669999999
 20
135.0704739999999
 30
0.0
 40
2.75
100
AcDbArc
 50
84.55338000000002
 51
270.00001
  0
LINE
  5
2B06
330
18
100
AcDbEntity
  8
0
100
AcDbLine
 10
-126.3171669999999
 20
111.558274
 30
0.0
 11
-126.3171669999999
 21
96.570844
 31
0.0
  0
ARC
  5
2B07
330
18
100
AcDbEntity
  8
0
100
AcDbCircle
 10
-129.0672669999999
 20
94.070534
 30
0.0
 40
2.75
100
AcDbArc
 50
84.55338000000002
 51
270.00001
  0
LWPOLYLINE
  5
2B08
330
18
100
AcDbEntity
  8
0
100
AcDbPolyline
 90
        6
 70
     0
 43
0.0
 10
365.0555269999998
 20
893.1759239999999
 42
0.082525
 10
344.8161269999998
 20
901.262724
 42
0.150222
 10
323.376827
 20
898.7951239999999
 42
0.017609
 10
303.602927
 20
889.408824
 42
-0.107626
 10
282.702127
 20
883.490124
 42
-0.104174
 10
261.5922269999999
 20
888.663724
  0
ARC
  5
2B09
330
18
100
AcDbEntity
  8
0
100
AcDbCircle
 10
258.8417269999999
 20
906.3795239999999
 30
0.0
 40
2.75
100
AcDbArc
 50
95.44662
 51
280.8932509999999
  0
ARC
  5
2B0A
330
18
100
AcDbEntity
  8
0
100
AcDbCircle
 10
258.8417269999999
 20
947.379424
 30
0.0
 40
2.75
100
AcDbArc
 50
95.44662
 51
280.8932509999999
  0
ARC
  5
2B0B
330
18
100
AcDbEntity
  8
0
100
AcDbCircle
 10
258.8417269999999
 20
926.8795239999999
 30
0.0
 40
2.75
100
AcDbArc
 50
95.44662
 51
280.8932509999999
  0
ARC
  5
2B0C
330
18
100
AcDbEntity
  8
0
100
AcDbCircle
 10
258.8417269999999
 20
967.8797239999999
 30
0.0
 40
2.75
100
AcDbArc
 50
95.44662
 51
280.8932509999999
  0
ARC
  5
2B0D
330
18
100
AcDbEntity
  8
0
100
AcDbCircle
 10
258.8417269999999
 20
988.3795239999999
 30
0.0
 40
2.75
100
AcDbArc
 50
95.44662
 51
280.8932509999999
  0
ARC
  5
2B0E
330
18
100
AcDbEntity
  8
0
100
AcDbCircle
 10
258.8417269999999
 20
1008.879524
 30
0.0
 40
2.75
100
AcDbArc
 50
95.44662
 51
280.8932509999999
  0
ARC
  5
2B0F
330
18
100
AcDbEntity
  8
0
100
AcDbCircle
 10
258.8417269999999
 20
1029.379524
 30
0.0
 40
2.75
100
AcDbArc
 50
95.44662
 51
280.8932509999999
  0
ARC
  5
2B10
330
18
100
AcDbEntity
  8
0
100
AcDbCircle
 10
258.8417269999999
 20
1070.379524
 30
0.0
 40
2.75
100
AcDbArc
 50
95.44662
 51
280.8932509999999
  0
ARC
  5
2B11
330
18
100
AcDbEntity
  8
0
100
AcDbCircle
 10
258.8417269999999
 20
1090.879724
 30
0.0
 40
2.75
100
AcDbArc
 50
95.44662
 51
280.8932509999999
  0
ARC
  5
2B12
330
18
100
AcDbEntity
  8
0
100
AcDbCircle
 10
258.8417269999999
 20
1049.879724
 30
0.0
 40
2.75
100
AcDbArc
 50
95.44662
 51
280.8932509999999
  0
ARC
  5
2B13
330
18
100
AcDbEntity
  8
0
100
AcDbCircle
 10
258.8417269999999
 20
1111.379523999999
 30
0.0
 40
2.75
100
AcDbArc
 50
95.44662
 51
280.8932509999999
  0
ARC
  5
2B14
330
18
100
AcDbEntity
  8
0
100
AcDbCircle
 10
258.8417269999999
 20
1131.879424
 30
0.0
 40
2.75
100
AcDbArc
 50
95.44662
 51
280.8932509999999
  0
ARC
  5
2B15
330
18
100
AcDbEntity
  8
0
100
AcDbCircle
 10
366.341727
 20
1019.129524
 30
0.0
 40
2.75
100
AcDbArc
 50
270.0
 51
95.44662
  0
LINE
  5
2B16
330
18
100
AcDbEntity
  8
0
100
AcDbLine
 10
261.591727
 20
1026.891724
 30
0.0
 11
261.591727
 21
1011.904224
 31
0.0
  0
LINE
  5
2B17
330
18
100
AcDbEntity
  8
0
100
AcDbLine
 10
365.820827
 20
1021.842324
 30
0.0
 11
258.320827
 21
1011.592324
 31
0.0
  0
LINE
  5
2B18
330
18
100
AcDbEntity
  8
0
100
AcDbLine
 10
366.341727
 20
1098.379724
 30
0.0
 11
258.841827
 21
1088.129724
 31
0.0
  0
LINE
  5
2B19
330
18
100
AcDbEntity
  8
0
100
AcDbLine
 10
366.341827
 20
1077.879424
 30
0.0
 11
258.8417269999999
 21
1067.629424
 31
0.0
  0
LINE
  5
2B1A
330
18
100
AcDbEntity
  8
0
100
AcDbLine
 10
365.821027
 20
1083.342224
 30
0.0
 11
258.580727
 21
1073.117024
 31
0.0
  0
LINE
  5
2B1B
330
18
100
AcDbEntity
  8
0
100
AcDbLine
 10
366.341827
 20
1057.379523999999
 30
0.0
 11
258.8417269999999
 21
1047.129524
 31
0.0
  0
LINE
  5
2B1C
330
18
100
AcDbEntity
  8
0
100
AcDbLine
 10
365.821027
 20
1062.842224
 30
0.0
 11
258.320827
 21
1052.592224
 31
0.0
  0
LINE
  5
2B1D
330
18
100
AcDbEntity
  8
0
100
AcDbLine
 10
366.341727
 20
1036.879424
 30
0.0
 11
258.8417269999999
 21
1026.629424
 31
0.0
  0
LINE
  5
2B1E
330
18
100
AcDbEntity
  8
0
100
AcDbLine
 10
365.820827
 20
1042.342324
 30
0.0
 11
258.320827
 21
1032.092323999998
 31
0.0
  0
LINE
  5
2B1F
330
18
100
AcDbEntity
  8
0
100
AcDbLine
 10
366.341727
 20
1139.379424
 30
0.0
 11
258.841827
 21
1129.129424
 31
0.0
  0
LINE
  5
2B20
330
18
100
AcDbEntity
  8
0
100
AcDbLine
 10
365.820827
 20
1144.842324
 30
0.0
 11
258.321027
 21
1134.592323999998
 31
0.0
  0
LINE
  5
2B21
330
18
100
AcDbEntity
  8
0
100
AcDbLine
 10
366.342027
 20
1118.879423999999
 30
0.0
 11
258.841627
 21
1108.629423999998
 31
0.0
  0
LINE
  5
2B22
330
18
100
AcDbEntity
  8
0
100
AcDbLine
 10
365.8211269999998
 20
1124.342324
 30
0.0
 11
258.3207269999999
 21
1114.092324
 31
0.0
  0
LINE
  5
2B23
330
18
100
AcDbEntity
  8
0
100
AcDbLine
 10
365.821027
 20
1103.842224
 30
0.0
 11
258.321127
 21
1093.592224
 31
0.0
  0
LINE
  5
2B24
330
18
100
AcDbEntity
  8
0
100
AcDbLine
 10
261.591727
 20
1088.391724
 30
0.0
 11
261.591727
 21
1073.404224
 31
0.0
  0
LINE
  5
2B25
330
18
100
AcDbEntity
  8
0
100
AcDbLine
 10
261.591727
 20
1129.391624
 30
0.0
 11
261.591727
 21
1114.404224
 31
0.0
  0
LINE
  5
2B26
330
18
100
AcDbEntity
  8
0
100
AcDbLine
 10
261.591727
 20
1149.891924
 30
0.0
 11
261.591727
 21
1134.904224
 31
0.0
  0
LINE
  5
2B27
330
18
100
AcDbEntity
  8
0
100
AcDbLine
 10
261.591727
 20
1108.891724
 30
0.0
 11
261.591727
 21
1093.904324
 31
0.0
  0
LINE
  5
2B28
330
18
100
AcDbEntity
  8
0
100
AcDbLine
 10
261.591727
 20
1067.891924
 30
0.0
 11
261.591727
 21
1052.904224
 31
0.0
  0
LINE
  5
2B29
330
18
100
AcDbEntity
  8
0
100
AcDbLine
 10
261.591727
 20
1047.391624
 30
0.0
 11
261.591727
 21
1032.404324
 31
0.0
  0
LINE
  5
2B2A
330
18
100
AcDbEntity
  8
0
100
AcDbLine
 10
363.591627
 20
1098.117324
 30
0.0
 11
363.591627
 21
1083.129924
 31
0.0
  0
LINE
  5
2B2B
330
18
100
AcDbEntity
  8
0
100
AcDbLine
 10
363.591627
 20
1118.617423999998
 30
0.0
 11
363.591627
 21
1103.629824
 31
0.0
  0
ARC
  5
2B2C
330
18
100
AcDbEntity
  8
0
100
AcDbCircle
 10
366.341727
 20
1121.629524
 30
0.0
 40
2.75
100
AcDbArc
 50
270.0
 51
95.44662
  0
ARC
  5
2B2D
330
18
100
AcDbEntity
  8
0
100
AcDbCircle
 10
366.341727
 20
1142.129524
 30
0.0
 40
2.75
100
AcDbArc
 50
270.0
 51
95.44662
  0
LINE
  5
2B2E
330
18
100
AcDbEntity
  8
0
100
AcDbLine
 10
363.591627
 20
1139.117324
 30
0.0
 11
363.591627
 21
1124.129824
 31
0.0
  0
ARC
  5
2B2F
330
18
100
AcDbEntity
  8
0
100
AcDbCircle
 10
366.341727
 20
1101.129424
 30
0.0
 40
2.75
100
AcDbArc
 50
270.0
 51
95.44662
  0
LINE
  5
2B30
330
18
100
AcDbEntity
  8
0
100
AcDbLine
 10
363.591627
 20
1057.117324
 30
0.0
 11
363.591627
 21
1042.129824
 31
0.0
  0
ARC
  5
2B31
330
18
100
AcDbEntity
  8
0
100
AcDbCircle
 10
366.341727
 20
1060.129523999999
 30
0.0
 40
2.75
100
AcDbArc
 50
270.0
 51
95.44662
  0
LINE
  5
2B32
330
18
100
AcDbEntity
  8
0
100
AcDbLine
 10
363.591627
 20
1077.617323999999
 30
0.0
 11
363.591627
 21
1062.629924
 31
0.0
  0
ARC
  5
2B33
330
18
100
AcDbEntity
  8
0
100
AcDbCircle
 10
366.341727
 20
1080.629523999999
 30
0.0
 40
2.75
100
AcDbArc
 50
270.0
 51
95.44662
  0
ARC
  5
2B34
330
18
100
AcDbEntity
  8
0
100
AcDbCircle
 10
366.341727
 20
1039.629523999999
 30
0.0
 40
2.75
100
AcDbArc
 50
270.0
 51
95.44662
  0
LINE
  5
2B35
330
18
100
AcDbEntity
  8
0
100
AcDbLine
 10
363.591627
 20
1036.617424
 30
0.0
 11
363.591627
 21
1021.629824
 31
0.0
  0
LINE
  5
2B36
330
18
100
AcDbEntity
  8
0
100
AcDbLine
 10
366.341727
 20
1016.379423999999
 30
0.0
 11
258.8417269999999
 21
1006.129424
 31
0.0
  0
LINE
  5
2B37
330
18
100
AcDbEntity
  8
0
100
AcDbLine
 10
366.342027
 20
995.879524
 30
0.0
 11
258.841827
 21
985.629424
 31
0.0
  0
LINE
  5
2B38
330
18
100
AcDbEntity
  8
0
100
AcDbLine
 10
365.821027
 20
1001.342424
 30
0.0
 11
258.321027
 21
991.0924239999999
 31
0.0
  0
LINE
  5
2B39
330
18
100
AcDbEntity
  8
0
100
AcDbLine
 10
366.341827
 20
975.379324
 30
0.0
 11
258.8417269999999
 21
965.1293239999999
 31
0.0
  0
LINE
  5
2B3A
330
18
100
AcDbEntity
  8
0
100
AcDbLine
 10
365.821027
 20
980.842224
 30
0.0
 11
258.320827
 21
970.5922239999999
 31
0.0
  0
LINE
  5
2B3B
330
18
100
AcDbEntity
  8
0
100
AcDbLine
 10
365.821027
 20
960.3423239999999
 30
0.0
 11
258.321027
 21
950.092324
 31
0.0
  0
LINE
  5
2B3C
330
18
100
AcDbEntity
  8
0
100
AcDbLine
 10
366.341827
 20
954.879524
 30
0.0
 11
258.841827
 21
944.6295239999999
 31
0.0
  0
LINE
  5
2B3D
330
18
100
AcDbEntity
  8
0
100
AcDbLine
 10
366.341727
 20
934.379524
 30
0.0
 11
258.8417269999999
 21
924.1295239999999
 31
0.0
  0
LINE
  5
2B3E
330
18
100
AcDbEntity
  8
0
100
AcDbLine
 10
365.820827
 20
939.842224
 30
0.0
 11
258.320827
 21
929.5922239999999
 31
0.0
  0
LINE
  5
2B3F
330
18
100
AcDbEntity
  8
0
100
AcDbLine
 10
366.341727
 20
913.879524
 30
0.0
 11
258.8417269999999
 21
903.6295239999999
 31
0.0
  0
LINE
  5
2B40
330
18
100
AcDbEntity
  8
0
100
AcDbLine
 10
365.820827
 20
919.342224
 30
0.0
 11
258.321027
 21
909.0922239999999
 31
0.0
  0
LINE
  5
2B41
330
18
100
AcDbEntity
  8
0
100
AcDbLine
 10
261.591727
 20
985.891724
 30
0.0
 11
261.591727
 21
970.904424
 31
0.0
  0
LINE
  5
2B42
330
18
100
AcDbEntity
  8
0
100
AcDbLine
 10
261.591727
 20
1006.391723999999
 30
0.0
 11
261.591727
 21
991.4043239999999
 31
0.0
  0
LINE
  5
2B43
330
18
100
AcDbEntity
  8
0
100
AcDbLine
 10
261.591727
 20
965.391724
 30
0.0
 11
261.591727
 21
950.404224
 31
0.0
  0
LINE
  5
2B44
330
18
100
AcDbEntity
  8
0
100
AcDbLine
 10
312.140727
 20
893.6435240000001
 30
0.0
 11
261.298427
 21
888.795724
 31
0.0
  0
LINE
  5
2B45
330
18
100
AcDbEntity
  8
0
100
AcDbLine
 10
261.591727
 20
924.391624
 30
0.0
 11
261.591727
 21
909.4043239999999
 31
0.0
  0
LINE
  5
2B46
330
18
100
AcDbEntity
  8
0
100
AcDbLine
 10
261.591727
 20
944.891924
 30
0.0
 11
261.591727
 21
929.9043239999999
 31
0.0
  0
LINE
  5
2B47
330
18
100
AcDbEntity
  8
0
100
AcDbLine
 10
261.591727
 20
903.8917239999999
 30
0.0
 11
261.591727
 21
888.823724
 31
0.0
  0
LINE
  5
2B48
330
18
100
AcDbEntity
  8
0
100
AcDbLine
 10
363.591627
 20
954.6173239999999
 30
0.0
 11
363.591627
 21
939.629724
 31
0.0
  0
LINE
  5
2B49
330
18
100
AcDbEntity
  8
0
100
AcDbLine
 10
363.591627
 20
995.617324
 30
0.0
 11
363.591627
 21
980.629824
 31
0.0
  0
ARC
  5
2B4A
330
18
100
AcDbEntity
  8
0
100
AcDbCircle
 10
366.341727
 20
998.629724
 30
0.0
 40
2.75
100
AcDbArc
 50
270.0
 51
95.44662
  0
LINE
  5
2B4B
330
18
100
AcDbEntity
  8
0
100
AcDbLine
 10
363.591627
 20
1016.117224
 30
0.0
 11
363.591627
 21
1001.129924
 31
0.0
  0
ARC
  5
2B4C
330
18
100
AcDbEntity
  8
0
100
AcDbCircle
 10
366.341727
 20
957.629524
 30
0.0
 40
2.75
100
AcDbArc
 50
270.0
 51
95.44662
  0
LINE
  5
2B4D
330
18
100
AcDbEntity
  8
0
100
AcDbLine
 10
363.591627
 20
975.1173239999999
 30
0.0
 11
363.591627
 21
960.1299239999999
 31
0.0
  0
ARC
  5
2B4E
330
18
100
AcDbEntity
  8
0
100
AcDbCircle
 10
366.341727
 20
978.1294239999999
 30
0.0
 40
2.75
100
AcDbArc
 50
270.0
 51
95.44662
  0
ARC
  5
2B4F
330
18
100
AcDbEntity
  8
0
100
AcDbCircle
 10
366.341727
 20
916.629524
 30
0.0
 40
2.75
100
AcDbArc
 50
270.0
 51
95.44662
  0
ARC
  5
2B50
330
18
100
AcDbEntity
  8
0
100
AcDbCircle
 10
366.341727
 20
937.129724
 30
0.0
 40
2.75
100
AcDbArc
 50
270.0
 51
95.44662
  0
LINE
  5
2B51
330
18
100
AcDbEntity
  8
0
100
AcDbLine
 10
363.591627
 20
934.1173240000001
 30
0.0
 11
363.591627
 21
919.129824
 31
0.0
  0
ARC
  5
2B52
330
18
100
AcDbEntity
  8
0
100
AcDbCircle
 10
366.341727
 20
896.0491239999999
 30
0.0
 40
2.75
100
AcDbArc
 50
270.002397
 51
95.44662
  0
LINE
  5
2B53
330
18
100
AcDbEntity
  8
0
100
AcDbLine
 10
366.6015269999998
 20
893.323724
 30
0.0
 11
364.618627
 21
893.134724
 31
0.0
  0
LINE
  5
2B54
330
18
100
AcDbEntity
  8
0
100
AcDbLine
 10
366.080727
 20
898.7865239999999
 30
0.0
 11
355.848427
 21
897.810924
 31
0.0
  0
LINE
  5
2B55
330
18
100
AcDbEntity
  8
0
100
AcDbLine
 10
363.591627
 20
913.617424
 30
0.0
 11
363.591627
 21
898.549324
 31
0.0
  0
ARC
  5
2B56
330
18
100
AcDbEntity
  8
0
100
AcDbCircle
 10
-275.3171669999999
 20
204.5749339999999
 30
0.0
 40
251.0
100
AcDbArc
 50
1.852664
 51
6.597664999999999
  0
ARC
  5
2B57
330
18
100
AcDbEntity
  8
0
100
AcDbCircle
 10
-275.3171669999999
 20
204.5749339999999
 30
0.0
 40
251.0
100
AcDbArc
 50
13.85266
 51
18.59766
  0
ARC
  5
2B58
330
18
100
AcDbEntity
  8
0
100
AcDbCircle
 10
-45.550567
 20
312.629224
 30
0.0
 40
2.75
100
AcDbArc
 50
291.7510859999998
 51
117.1977
  0
ARC
  5
2B59
330
18
100
AcDbEntity
  8
0
100
AcDbCircle
 10
-35.514567
 20
288.020224
 30
0.0
 40
2.75
100
AcDbArc
 50
285.751086
 51
111.1976999999999
  0
ARC
  5
2B5A
330
18
100
AcDbEntity
  8
0
100
AcDbCircle
 10
-275.3171669999999
 20
204.5749339999999
 30
0.0
 40
251.0
100
AcDbArc
 50
19.85266
 51
24.59767
  0
ARC
  5
2B5B
330
18
100
AcDbEntity
  8
0
100
AcDbCircle
 10
-275.3171669999999
 20
204.5749339999999
 30
0.0
 40
251.0
100
AcDbArc
 50
7.852663999999998
 51
12.59766
  0
ARC
  5
2B5C
330
18
100
AcDbEntity
  8
0
100
AcDbCircle
 10
-28.105767
 20
262.496824
 30
0.0
 40
2.75
100
AcDbArc
 50
279.751086
 51
105.1976999999999
  0
ARC
  5
2B5D
330
18
100
AcDbEntity
  8
0
100
AcDbCircle
 10
-23.405367
 20
236.338924
 30
0.0
 40
2.75
100
AcDbArc
 50
273.7510859999999
 51
99.19769999999999
  0
ARC
  5
2B5E
330
18
100
AcDbEntity
  8
0
100
AcDbCircle
 10
-275.3171669999999
 20
204.5749339999999
 30
0.0
 40
251.0
100
AcDbArc
 50
7.852663999999998
 51
8.507044
  0
ARC
  5
2B5F
330
18
100
AcDbEntity
  8
0
100
AcDbCircle
 10
-21.567267
 20
145.3204739999998
 30
0.0
 40
2.75
100
AcDbArc
 50
259.1067499999999
 51
84.55338000000002
  0
LINE
  5
2B60
330
18
100
AcDbEntity
  8
0
100
AcDbLine
 10
-24.317167
 20
183.832744
 30
0.0
 11
-24.317167
 21
168.845194
 31
0.0
  0
ARC
  5
2B61
330
18
100
AcDbEntity
  8
0
100
AcDbCircle
 10
-21.567267
 20
186.320354
 30
0.0
 40
2.75
100
AcDbArc
 50
259.1067499999999
 51
84.55338000000002
  0
ARC
  5
2B62
330
18
100
AcDbEntity
  8
0
100
AcDbCircle
 10
-21.46536699999998
 20
209.833024
 30
0.0
 40
2.75
100
AcDbArc
 50
267.7510899999999
 51
93.19769
  0
LINE
  5
2B63
330
18
100
AcDbEntity
  8
0
100
AcDbLine
 10
-24.317167
 20
204.332624
 30
0.0
 11
-24.317167
 21
189.345134
 31
0.0
  0
LINE
  5
2B64
330
18
100
AcDbEntity
  8
0
100
AcDbLine
 10
-24.317167
 20
163.3325639999999
 30
0.0
 11
-24.317167
 21
148.345074
 31
0.0
  0
ARC
  5
2B65
330
18
100
AcDbEntity
  8
0
100
AcDbCircle
 10
-21.567267
 20
165.820414
 30
0.0
 40
2.75
100
AcDbArc
 50
259.1067499999999
 51
84.55338000000002
  0
LINE
  5
2B66
330
18
100
AcDbEntity
  8
0
100
AcDbLine
 10
-24.317167
 20
122.332744
 30
0.0
 11
-24.317167
 21
107.345134
 31
0.0
  0
LINE
  5
2B67
330
18
100
AcDbEntity
  8
0
100
AcDbLine
 10
-24.317167
 20
142.8326839999999
 30
0.0
 11
-24.317167
 21
127.8452539999999
 31
0.0
  0
ARC
  5
2B68
330
18
100
AcDbEntity
  8
0
100
AcDbCircle
 10
-21.567267
 20
124.820594
 30
0.0
 40
2.75
100
AcDbArc
 50
259.1067499999999
 51
84.55338000000002
  0
ARC
  5
2B69
330
18
100
AcDbEntity
  8
0
100
AcDbCircle
 10
-21.567267
 20
83.820534
 30
0.0
 40
2.75
100
AcDbArc
 50
259.1067499999999
 51
84.55338000000002
  0
ARC
  5
2B6A
330
18
100
AcDbEntity
  8
0
100
AcDbCircle
 10
-21.567267
 20
104.320414
 30
0.0
 40
2.75
100
AcDbArc
 50
259.1067499999999
 51
84.55338000000002
  0
LINE
  5
2B6B
330
18
100
AcDbEntity
  8
0
100
AcDbLine
 10
-24.317167
 20
101.8327439999999
 30
0.0
 11
-24.317167
 21
86.84519399999997
 31
0.0
  0
ARC
  5
2B6C
330
18
100
AcDbEntity
  8
0
100
AcDbCircle
 10
-717.173777
 20
160.106064
 30
0.0
 40
251.0
100
AcDbArc
 50
239.9023399999999
 51
244.64733
  0
LINE
  5
2B6D
330
18
100
AcDbEntity
  8
0
100
AcDbLine
 10
-909.6271470000001
 20
-5.389116
 30
0.0
 11
-832.9345270000001
 21
70.63425399999998
 31
0.0
  0
LINE
  5
2B6E
330
18
100
AcDbEntity
  8
0
100
AcDbLine
 10
-905.7638070000001
 20
-9.286455999999999
 30
0.0
 11
-829.0711769999997
 21
66.736924
 31
0.0
  0
LINE
  5
2B6F
330
18
100
AcDbEntity
  8
0
100
AcDbLine
 10
-844.1882470000001
 20
-59.273276
 30
0.0
 11
-794.7417769999998
 21
36.72855399999999
 31
0.0
  0
LINE
  5
2B70
330
18
100
AcDbEntity
  8
0
100
AcDbLine
 10
-849.0668470000001
 20
-56.760516
 30
0.0
 11
-799.620377
 21
39.24125399999999
 31
0.0
  0
LINE
  5
2B71
330
18
100
AcDbEntity
  8
0
100
AcDbLine
 10
-866.4237769999997
 20
-44.79481599999998
 30
0.0
 11
-807.213207
 21
45.512614
 31
0.0
  0
LINE
  5
2B72
330
18
100
AcDbEntity
  8
0
100
AcDbLine
 10
-871.0129570000001
 20
-41.78590599999998
 30
0.0
 11
-811.802377
 21
48.521524
 31
0.0
  0
LINE
  5
2B73
330
18
100
AcDbEntity
  8
0
100
AcDbLine
 10
-887.024247
 20
-28.071496
 30
0.0
 11
-818.6983169999999
 21
55.552044
 31
0.0
  0
LINE
  5
2B74
330
18
100
AcDbEntity
  8
0
100
AcDbLine
 10
-891.273817
 20
-24.599326
 30
0.0
 11
-822.9478870000001
 21
59.024214
 31
0.0
  0
ARC
  5
2B75
330
18
100
AcDbEntity
  8
0
100
AcDbCircle
 10
-717.173777
 20
160.106064
 30
0.0
 40
251.0
100
AcDbArc
 50
233.90234
 51
238.64733
  0
ARC
  5
2B76
330
18
100
AcDbEntity
  8
0
100
AcDbCircle
 10
-717.173777
 20
160.106064
 30
0.0
 40
251.0
100
AcDbArc
 50
209.3092399999999
 51
214.0542299999999
  0
ARC
  5
2B77
330
18
100
AcDbEntity
  8
0
100
AcDbCircle
 10
-717.173777
 20
160.106064
 30
0.0
 40
251.0
100
AcDbArc
 50
203.0126899999999
 51
207.75768
  0
ARC
  5
2B78
330
18
100
AcDbEntity
  8
0
100
AcDbCircle
 10
-951.8817870000001
 20
63.252664
 30
0.0
 40
2.75
100
AcDbArc
 50
110.4126399999999
 51
295.859272
  0
ARC
  5
2B79
330
18
100
AcDbEntity
  8
0
100
AcDbCircle
 10
-939.843577
 20
38.095444
 30
0.0
 40
2.75
100
AcDbArc
 50
116.7091899999999
 51
302.15582
  0
ARC
  5
2B7A
330
18
100
AcDbEntity
  8
0
100
AcDbCircle
 10
-717.173777
 20
160.106064
 30
0.0
 40
251.0
100
AcDbArc
 50
215.6057899999999
 51
220.35078
  0
ARC
  5
2B7B
330
18
100
AcDbEntity
  8
0
100
AcDbCircle
 10
-925.118907
 20
14.410264
 30
0.0
 40
2.75
100
AcDbArc
 50
123.0057399999999
 51
308.45237
  0
LINE
  5
2B7C
330
18
100
AcDbEntity
  8
0
100
AcDbLine
 10
-923.204177
 20
12.418924
 30
0.0
 11
-838.6364269999997
 21
79.572434
 31
0.0
  0
LINE
  5
2B7D
330
18
100
AcDbEntity
  8
0
100
AcDbLine
 10
-835.6712169999997
 20
69.002544
 30
0.0
 11
-841.209547
 21
77.52897400000001
 31
0.0
  0
ARC
  5
2B7E
330
18
100
AcDbEntity
  8
0
100
AcDbCircle
 10
-717.173777
 20
160.106064
 30
0.0
 40
251.0
100
AcDbArc
 50
227.9023399999999
 51
232.6473299999999
  0
ARC
  5
2B7F
330
18
100
AcDbEntity
  8
0
100
AcDbCircle
 10
-717.173777
 20
160.106064
 30
0.0
 40
251.0
100
AcDbArc
 50
221.9023399999999
 51
226.6473299999999
  0
ARC
  5
2B80
330
18
100
AcDbEntity
  8
0
100
AcDbCircle
 10
-907.8853269999999
 20
-7.517046
 30
0.0
 40
2.75
100
AcDbArc
 50
129.3023
 51
314.7489199999998
  0
ARC
  5
2B81
330
18
100
AcDbEntity
  8
0
100
AcDbCircle
 10
-889.319287
 20
-26.533526
 30
0.0
 40
2.75
100
AcDbArc
 50
135.3023
 51
320.748913
  0
ARC
  5
2B82
330
18
100
AcDbEntity
  8
0
100
AcDbCircle
 10
-868.8670769999999
 20
-43.505206
 30
0.0
 40
2.75
100
AcDbArc
 50
141.3023
 51
326.748914
  0
ARC
  5
2B83
330
18
100
AcDbEntity
  8
0
100
AcDbCircle
 10
-846.7528869999997
 20
-58.246116
 30
0.0
 40
2.75
100
AcDbArc
 50
147.3022999999999
 51
332.748914
  0
LINE
  5
2B84
330
18
100
AcDbEntity
  8
0
100
AcDbLine
 10
-65.930267
 20
64.80033399999999
 30
0.0
 11
-24.317167
 21
60.83256399999999
 31
0.0
  0
LWPOLYLINE
  5
2B85
330
18
100
AcDbEntity
  8
0
100
AcDbPolyline
 90
        6
 70
     0
 43
0.0
 10
-24.319467
 20
71.37318399999998
 42
0.070175
 10
-44.60696699999998
 20
77.711314
 42
0.121929
 10
-65.650767
 20
75.889704
 42
0.032794
 10
-85.214767
 20
67.44789399999999
 42
-0.05633
 10
-105.1155669999999
 20
59.917584
 42
-0.09309
 10
-126.3155669999999
 20
59.635654
  0
LWPOLYLINE
  5
2B86
330
18
100
AcDbEntity
  8
0
100
AcDbPolyline
 90
        6
 70
     0
 43
0.0
 10
-24.319467
 20
60.373184
 42
0.070175
 10
-44.60696699999998
 20
66.711314
 42
0.121929
 10
-65.650767
 20
64.88970400000001
 42
0.032794
 10
-85.214767
 20
56.44789399999999
 42
-0.05633
 10
-105.1155669999999
 20
48.917584
 42
-0.09309
 10
-126.3155669999999
 20
48.63565399999998
  0
LINE
  5
2B87
330
18
100
AcDbEntity
  8
0
100
AcDbLine
 10
-24.317167
 20
-66.698266
 30
0.0
 11
-126.3171669999999
 21
-66.698266
 31
0.0
  0
LINE
  5
2B88
330
18
100
AcDbEntity
  8
0
100
AcDbLine
 10
-108.2678669999999
 20
48.337204
 30
0.0
 11
-21.567267
 21
40.07035399999998
 31
0.0
  0
LINE
  5
2B89
330
18
100
AcDbEntity
  8
0
100
AcDbLine
 10
-94.028567
 20
52.49204399999999
 30
0.0
 11
-21.04636699999999
 21
45.533304
 31
0.0
  0
LINE
  5
2B8A
330
18
100
AcDbEntity
  8
0
100
AcDbLine
 10
-129.0673669999998
 20
29.820354
 30
0.0
 11
-21.567367
 21
19.570354
 31
0.0
  0
LINE
  5
2B8B
330
18
100
AcDbEntity
  8
0
100
AcDbLine
 10
-128.5465669999998
 20
35.283244
 30
0.0
 11
-21.046567
 21
25.033244
 31
0.0
  0
LINE
  5
2B8C
330
18
100
AcDbEntity
  8
0
100
AcDbLine
 10
-129.0673669999998
 20
9.320354
 30
0.0
 11
-21.567267
 21
-0.9296459999999996
 31
0.0
  0
LINE
  5
2B8D
330
18
100
AcDbEntity
  8
0
100
AcDbLine
 10
-128.5465669999998
 20
14.78324399999999
 30
0.0
 11
-21.04636699999999
 21
4.533243999999998
 31
0.0
  0
LINE
  5
2B8E
330
18
100
AcDbEntity
  8
0
100
AcDbLine
 10
-128.5465669999998
 20
-5.716876
 30
0.0
 11
-21.046567
 21
-15.966876
 31
0.0
  0
LINE
  5
2B8F
330
18
100
AcDbEntity
  8
0
100
AcDbLine
 10
-129.0673669999998
 20
-11.17952599999999
 30
0.0
 11
-21.567367
 21
-21.429526
 31
0.0
  0
LINE
  5
2B90
330
18
100
AcDbEntity
  8
0
100
AcDbLine
 10
-129.0672669999999
 20
-31.679526
 30
0.0
 11
-21.567267
 21
-41.929526
 31
0.0
  0
LINE
  5
2B91
330
18
100
AcDbEntity
  8
0
100
AcDbLine
 10
-128.546367
 20
-26.216876
 30
0.0
 11
-21.04636699999999
 21
-36.46687599999999
 31
0.0
  0
LINE
  5
2B92
330
18
100
AcDbEntity
  8
0
100
AcDbLine
 10
-129.0671669999998
 20
-52.179586
 30
0.0
 11
-21.567267
 21
-62.429586
 31
0.0
  0
LINE
  5
2B93
330
18
100
AcDbEntity
  8
0
100
AcDbLine
 10
-128.546267
 20
-46.716876
 30
0.0
 11
-21.046567
 21
-56.966876
 31
0.0
  0
ARC
  5
2B94
330
18
100
AcDbEntity
  8
0
100
AcDbCircle
 10
-641.611767
 20
-82.29609599999998
 30
0.0
 40
2.75
100
AcDbArc
 50
195.30231
 51
20.74892
  0
ARC
  5
2B95
330
18
100
AcDbEntity
  8
0
100
AcDbCircle
 10
-717.173777
 20
160.106064
 30
0.0
 40
149.0
100
AcDbArc
 50
297.95002
 51
301.8286129999999
  0
ARC
  5
2B96
330
18
100
AcDbEntity
  8
0
100
AcDbCircle
 10
-637.993907
 20
37.137124
 30
0.0
 40
2.75
100
AcDbArc
 50
38.74892
 51
224.19556
  0
LINE
  5
2B97
330
18
100
AcDbEntity
  8
0
100
AcDbLine
 10
-572.701917
 20
-48.591696
 30
0.0
 11
-640.292247
 21
35.627364
 31
0.0
  0
LINE
  5
2B98
330
18
100
AcDbEntity
  8
0
100
AcDbLine
 10
-590.692887
 20
-59.581256
 30
0.0
 11
-649.109697
 21
31.24155399999999
 31
0.0
  0
LINE
  5
2B99
330
18
100
AcDbEntity
  8
0
100
AcDbLine
 10
-595.3083069999999
 20
-62.549886
 30
0.0
 11
-653.725047
 21
28.272994
 31
0.0
  0
LINE
  5
2B9A
330
18
100
AcDbEntity
  8
0
100
AcDbLine
 10
-614.3492570000002
 20
-71.598656
 30
0.0
 11
-662.9524669999998
 21
24.832864
 31
0.0
  0
LINE
  5
2B9B
330
18
100
AcDbEntity
  8
0
100
AcDbLine
 10
-619.249707
 20
-74.06856600000002
 30
0.0
 11
-667.852857
 21
22.362954
 31
0.0
  0
LINE
  5
2B9C
330
18
100
AcDbEntity
  8
0
100
AcDbLine
 10
-639.132397
 20
-81.07747600000001
 30
0.0
 11
-677.3894769999998
 21
19.906174
 31
0.0
  0
LINE
  5
2B9D
330
18
100
AcDbEntity
  8
0
100
AcDbLine
 10
-644.2641769999998
 20
-83.021626
 30
0.0
 11
-682.5212569999998
 21
17.96207399999998
 31
0.0
  0
LINE
  5
2B9E
330
18
100
AcDbEntity
  8
0
100
AcDbLine
 10
-690.9826769999998
 20
-92.03273600000001
 30
0.0
 11
-707.4080969999998
 21
14.69828399999999
 31
0.0
  0
LINE
  5
2B9F
330
18
100
AcDbEntity
  8
0
100
AcDbLine
 10
-696.406507
 20
-92.86738599999999
 30
0.0
 11
-712.8319269999998
 21
13.863564
 31
0.0
  0
LINE
  5
2BA0
330
18
100
AcDbEntity
  8
0
100
AcDbLine
 10
-717.4818269999998
 20
-93.38930600000001
 30
0.0
 11
-722.660837
 21
14.47398399999999
 31
0.0
  0
LINE
  5
2BA1
330
18
100
AcDbEntity
  8
0
100
AcDbLine
 10
-722.9631469999998
 20
-93.65248599999999
 30
0.0
 11
-728.142167
 21
14.21079399999999
 31
0.0
  0
LINE
  5
2BA2
330
18
100
AcDbEntity
  8
0
100
AcDbLine
 10
-743.9775570000001
 20
-91.96840599999999
 30
0.0
 11
-737.853407
 21
15.845314
 31
0.0
  0
LINE
  5
2BA3
330
18
100
AcDbEntity
  8
0
100
AcDbLine
 10
-749.456377
 20
-91.65718599999999
 30
0.0
 11
-743.3322269999998
 21
16.156534
 31
0.0
  0
LINE
  5
2BA4
330
18
100
AcDbEntity
  8
0
100
AcDbLine
 10
-770.1798269999998
 20
-87.78578600000001
 30
0.0
 11
-752.8195969999998
 21
18.797224
 31
0.0
  0
LINE
  5
2BA5
330
18
100
AcDbEntity
  8
0
100
AcDbLine
 10
-775.596087
 20
-86.90358600000001
 30
0.0
 11
-758.235917
 21
19.67942399999998
 31
0.0
  0
LINE
  5
2BA6
330
18
100
AcDbEntity
  8
0
100
AcDbLine
 10
-795.8010370000001
 20
-80.88704599999998
 30
0.0
 11
-767.3949669999998
 21
23.297464
 31
0.0
  0
LINE
  5
2BA7
330
18
100
AcDbEntity
  8
0
100
AcDbLine
 10
-801.095407
 20
-79.44349599999998
 30
0.0
 11
-772.6894070000001
 21
24.740944
 31
0.0
  0
LINE
  5
2BA8
330
18
100
AcDbEntity
  8
0
100
AcDbLine
 10
-820.5609869999998
 20
-71.348106
 30
0.0
 11
-781.420297
 21
29.296304
 31
0.0
  0
LINE
  5
2BA9
330
18
100
AcDbEntity
  8
0
100
AcDbLine
 10
-825.6754869999998
 20
-69.359026
 30
0.0
 11
-786.534807
 21
31.285324
 31
0.0
  0
LINE
  5
2BAA
330
18
100
AcDbEntity
  8
0
100
AcDbLine
 10
-664.7704570000001
 20
-87.913656
 30
0.0
 11
-692.2623469999998
 21
16.515724
 31
0.0
  0
LINE
  5
2BAB
330
18
100
AcDbEntity
  8
0
100
AcDbLine
 10
-670.0773469999997
 20
-89.310746
 30
0.0
 11
-697.5691669999998
 21
15.118634
 31
0.0
  0
ARC
  5
2BAC
330
18
100
AcDbEntity
  8
0
100
AcDbCircle
 10
-717.173777
 20
160.106064
 30
0.0
 40
149.0
100
AcDbArc
 50
261.95002
 51
265.8286100000001
  0
ARC
  5
2BAD
330
18
100
AcDbEntity
  8
0
100
AcDbCircle
 10
-740.6140269999998
 20
15.740644
 30
0.0
 40
2.75
100
AcDbArc
 50
356.748921
 51
182.1955499999999
  0
ARC
  5
2BAE
330
18
100
AcDbEntity
  8
0
100
AcDbCircle
 10
-784.0781969999998
 20
30.049844
 30
0.0
 40
2.75
100
AcDbArc
 50
338.748921
 51
164.19554
  0
ARC
  5
2BAF
330
18
100
AcDbEntity
  8
0
100
AcDbCircle
 10
-717.173777
 20
160.106064
 30
0.0
 40
149.0
100
AcDbArc
 50
225.95002
 51
229.8286099999998
  0
ARC
  5
2BB0
330
18
100
AcDbEntity
  8
0
100
AcDbCircle
 10
-809.656387
 20
46.80210399999999
 30
0.0
 40
2.75
100
AcDbArc
 50
326.7489199999999
 51
152.1955299999999
  0
ARC
  5
2BB1
330
18
100
AcDbEntity
  8
0
100
AcDbCircle
 10
-820.993237
 20
57.089824
 30
0.0
 40
2.75
100
AcDbArc
 50
320.7489199999999
 51
146.1955399999999
  0
LINE
  5
2BB2
330
18
100
AcDbEntity
  8
0
100
AcDbLine
 10
-824.964557
 20
56.55601400000001
 30
0.0
 11
-831.404677
 21
64.423624
 31
0.0
  0
ARC
  5
2BB3
330
18
100
AcDbEntity
  8
0
100
AcDbCircle
 10
-831.192637
 20
68.506264
 30
0.0
 40
2.75
100
AcDbArc
 50
314.7489199999998
 51
140.19554
  0
ARC
  5
2BB4
330
18
100
AcDbEntity
  8
0
100
AcDbCircle
 10
-717.173777
 20
160.106064
 30
0.0
 40
149.0
100
AcDbArc
 50
237.95002
 51
241.82861
  0
ARC
  5
2BB5
330
18
100
AcDbEntity
  8
0
100
AcDbCircle
 10
-717.173777
 20
160.106064
 30
0.0
 40
149.0
100
AcDbArc
 50
231.95002
 51
235.8286099999999
  0
ARC
  5
2BB6
330
18
100
AcDbEntity
  8
0
100
AcDbCircle
 10
-797.306287
 20
37.755714
 30
0.0
 40
2.75
100
AcDbArc
 50
332.7489209999999
 51
158.19555
  0
ARC
  5
2BB7
330
18
100
AcDbEntity
  8
0
100
AcDbCircle
 10
-717.173777
 20
160.106064
 30
0.0
 40
149.0
100
AcDbArc
 50
255.95002
 51
259.82861
  0
ARC
  5
2BB8
330
18
100
AcDbEntity
  8
0
100
AcDbCircle
 10
-755.5758769999998
 20
18.98167399999998
 30
0.0
 40
2.75
100
AcDbArc
 50
350.748921
 51
176.1955299999999
  0
ARC
  5
2BB9
330
18
100
AcDbEntity
  8
0
100
AcDbCircle
 10
-717.173777
 20
160.106064
 30
0.0
 40
149.0
100
AcDbArc
 50
243.95002
 51
247.82861
  0
ARC
  5
2BBA
330
18
100
AcDbEntity
  8
0
100
AcDbCircle
 10
-770.117017
 20
23.768904
 30
0.0
 40
2.75
100
AcDbArc
 50
344.748921
 51
170.1955399999999
  0
ARC
  5
2BBB
330
18
100
AcDbEntity
  8
0
100
AcDbCircle
 10
-717.173777
 20
160.106064
 30
0.0
 40
149.0
100
AcDbArc
 50
249.95002
 51
253.82861
  0
ARC
  5
2BBC
330
18
100
AcDbEntity
  8
0
100
AcDbCircle
 10
-694.855417
 20
15.563034
 30
0.0
 40
2.75
100
AcDbArc
 50
14.74892
 51
200.19556
  0
ARC
  5
2BBD
330
18
100
AcDbEntity
  8
0
100
AcDbCircle
 10
-710.086437
 20
14.021774
 30
0.0
 40
2.75
100
AcDbArc
 50
8.748922
 51
194.1955399999999
  0
ARC
  5
2BBE
330
18
100
AcDbEntity
  8
0
100
AcDbCircle
 10
-725.3952769999998
 20
14.081284
 30
0.0
 40
2.75
100
AcDbArc
 50
2.748920999999998
 51
188.19554
  0
ARC
  5
2BBF
330
18
100
AcDbEntity
  8
0
100
AcDbCircle
 10
-717.173777
 20
160.106064
 30
0.0
 40
149.0
100
AcDbArc
 50
279.95002
 51
283.828613
  0
ARC
  5
2BC0
330
18
100
AcDbEntity
  8
0
100
AcDbCircle
 10
-717.173777
 20
160.106064
 30
0.0
 40
149.0
100
AcDbArc
 50
291.950022
 51
295.8286109999999
  0
ARC
  5
2BC1
330
18
100
AcDbEntity
  8
0
100
AcDbCircle
 10
-717.173777
 20
160.106064
 30
0.0
 40
149.0
100
AcDbArc
 50
285.950022
 51
289.8286129999998
  0
ARC
  5
2BC2
330
18
100
AcDbEntity
  8
0
100
AcDbCircle
 10
-665.2908469999998
 20
23.361794
 30
0.0
 40
2.75
100
AcDbArc
 50
26.74892
 51
212.1955499999998
  0
ARC
  5
2BC3
330
18
100
AcDbEntity
  8
0
100
AcDbCircle
 10
-679.868787
 20
18.687724
 30
0.0
 40
2.75
100
AcDbArc
 50
20.74892
 51
206.1955499999998
  0
ARC
  5
2BC4
330
18
100
AcDbEntity
  8
0
100
AcDbCircle
 10
-651.2814469999998
 20
29.534284
 30
0.0
 40
2.75
100
AcDbArc
 50
32.74891999999999
 51
218.19554
  0
ARC
  5
2BC5
330
18
100
AcDbEntity
  8
0
100
AcDbCircle
 10
-717.173777
 20
160.106064
 30
0.0
 40
149.0
100
AcDbArc
 50
273.95002
 51
277.8286109999999
  0
ARC
  5
2BC6
330
18
100
AcDbEntity
  8
0
100
AcDbCircle
 10
-717.173777
 20
160.106064
 30
0.0
 40
149.0
100
AcDbArc
 50
267.95002
 51
271.828614
  0
ARC
  5
2BC7
330
18
100
AcDbEntity
  8
0
100
AcDbCircle
 10
-717.173777
 20
160.106064
 30
0.0
 40
251.0
100
AcDbArc
 50
263.9023399999999
 51
268.6473299999998
  0
ARC
  5
2BC8
330
18
100
AcDbEntity
  8
0
100
AcDbCircle
 10
-717.173777
 20
160.106064
 30
0.0
 40
251.0
100
AcDbArc
 50
251.90234
 51
256.6473299999998
  0
ARC
  5
2BC9
330
18
100
AcDbEntity
  8
0
100
AcDbCircle
 10
-717.173777
 20
160.106064
 30
0.0
 40
251.0
100
AcDbArc
 50
245.9023399999999
 51
250.64733
  0
ARC
  5
2BCA
330
18
100
AcDbEntity
  8
0
100
AcDbCircle
 10
-823.2190069999997
 20
-70.594746
 30
0.0
 40
2.75
100
AcDbArc
 50
153.3023
 51
338.748914
  0
ARC
  5
2BCB
330
18
100
AcDbEntity
  8
0
100
AcDbCircle
 10
-798.523267
 20
-80.41560600000002
 30
0.0
 40
2.75
100
AcDbArc
 50
159.3023
 51
344.748914
  0
ARC
  5
2BCC
330
18
100
AcDbEntity
  8
0
100
AcDbCircle
 10
-772.9362269999998
 20
-87.60133600000001
 30
0.0
 40
2.75
100
AcDbArc
 50
165.3023
 51
350.748914
  0
ARC
  5
2BCD
330
18
100
AcDbEntity
  8
0
100
AcDbCircle
 10
-717.173777
 20
160.106064
 30
0.0
 40
251.0
100
AcDbArc
 50
257.90234
 51
262.6473299999998
  0
ARC
  5
2BCE
330
18
100
AcDbEntity
  8
0
100
AcDbCircle
 10
-746.738297
 20
-92.07319599999999
 30
0.0
 40
2.75
100
AcDbArc
 50
171.3022999999999
 51
356.748914
  0
ARC
  5
2BCF
330
18
100
AcDbEntity
  8
0
100
AcDbCircle
 10
-717.173777
 20
160.106064
 30
0.0
 40
251.0
100
AcDbArc
 50
275.9023399999999
 51
280.647334
  0
ARC
  5
2BD0
330
18
100
AcDbEntity
  8
0
100
AcDbCircle
 10
-717.173777
 20
160.106064
 30
0.0
 40
251.0
100
AcDbArc
 50
269.9023399999999
 51
274.647334
  0
ARC
  5
2BD1
330
18
100
AcDbEntity
  8
0
100
AcDbCircle
 10
-693.6612669999998
 20
-92.70918599999999
 30
0.0
 40
2.75
100
AcDbArc
 50
183.30231
 51
8.748915
  0
ARC
  5
2BD2
330
18
100
AcDbEntity
  8
0
100
AcDbCircle
 10
-720.216447
 20
-93.78200599999999
 30
0.0
 40
2.75
100
AcDbArc
 50
177.3023
 51
2.748915
  0
ARC
  5
2BD3
330
18
100
AcDbEntity
  8
0
100
AcDbCircle
 10
-667.363657
 20
-88.86647600000001
 30
0.0
 40
2.75
100
AcDbArc
 50
189.3023
 51
14.74891
  0
ARC
  5
2BD4
330
18
100
AcDbEntity
  8
0
100
AcDbCircle
 10
-717.173777
 20
160.106064
 30
0.0
 40
251.0
100
AcDbArc
 50
281.902339
 51
286.647333
  0
ARC
  5
2BD5
330
18
100
AcDbEntity
  8
0
100
AcDbCircle
 10
-717.173777
 20
160.106064
 30
0.0
 40
251.0
100
AcDbArc
 50
299.902339
 51
304.6473329999999
  0
ARC
  5
2BD6
330
18
100
AcDbEntity
  8
0
100
AcDbCircle
 10
-717.173777
 20
160.106064
 30
0.0
 40
251.0
100
AcDbArc
 50
311.9023399999998
 51
316.647334
  0
LINE
  5
2BD7
330
18
100
AcDbEntity
  8
0
100
AcDbLine
 10
-500.307147
 20
28.21317399999999
 30
0.0
 11
-596.3090369999998
 21
77.65971400000002
 31
0.0
  0
LINE
  5
2BD8
330
18
100
AcDbEntity
  8
0
100
AcDbLine
 10
-512.2728369999999
 20
10.856124
 30
0.0
 11
-602.5802169999998
 21
70.06669399999998
 31
0.0
  0
LINE
  5
2BD9
330
18
100
AcDbEntity
  8
0
100
AcDbLine
 10
-515.281817
 20
6.266883999999999
 30
0.0
 11
-605.589187
 21
65.477464
 31
0.0
  0
LINE
  5
2BDA
330
18
100
AcDbEntity
  8
0
100
AcDbLine
 10
-528.996167
 20
-9.744286
 30
0.0
 11
-612.619707
 21
58.581584
 31
0.0
  0
LINE
  5
2BDB
330
18
100
AcDbEntity
  8
0
100
AcDbLine
 10
-532.468337
 20
-13.993856
 30
0.0
 11
-616.091807
 21
54.332014
 31
0.0
  0
LINE
  5
2BDC
330
18
100
AcDbEntity
  8
0
100
AcDbLine
 10
-547.7813269999997
 20
-28.483786
 30
0.0
 11
-623.8046369999998
 21
48.208844
 31
0.0
  0
LINE
  5
2BDD
330
18
100
AcDbEntity
  8
0
100
AcDbLine
 10
-551.6786070000001
 20
-32.34706599999999
 30
0.0
 11
-627.7019769999998
 21
44.345504
 31
0.0
  0
LINE
  5
2BDE
330
18
100
AcDbEntity
  8
0
100
AcDbLine
 10
-568.422137
 20
-45.156936
 30
0.0
 11
-636.012467
 21
39.062174
 31
0.0
  0
ARC
  5
2BDF
330
18
100
AcDbEntity
  8
0
100
AcDbCircle
 10
-717.173777
 20
160.106064
 30
0.0
 40
149.0
100
AcDbArc
 50
309.950022
 51
313.828614
  0
ARC
  5
2BE0
330
18
100
AcDbEntity
  8
0
100
AcDbCircle
 10
-625.5739269999998
 20
46.087324
 30
0.0
 40
2.75
100
AcDbArc
 50
44.74891999999999
 51
230.19555
  0
ARC
  5
2BE1
330
18
100
AcDbEntity
  8
0
100
AcDbCircle
 10
-717.173777
 20
160.106064
 30
0.0
 40
149.0
100
AcDbArc
 50
321.9500229999998
 51
325.828614
  0
ARC
  5
2BE2
330
18
100
AcDbEntity
  8
0
100
AcDbCircle
 10
-603.869767
 20
67.623574
 30
0.0
 40
2.75
100
AcDbArc
 50
56.74891999999999
 51
242.19557
  0
ARC
  5
2BE3
330
18
100
AcDbEntity
  8
0
100
AcDbCircle
 10
-717.173777
 20
160.106064
 30
0.0
 40
149.0
100
AcDbArc
 50
315.9500229999999
 51
319.828614
  0
ARC
  5
2BE4
330
18
100
AcDbEntity
  8
0
100
AcDbCircle
 10
-614.157547
 20
56.286724
 30
0.0
 40
2.75
100
AcDbArc
 50
50.74892
 51
236.1955499999999
  0
ARC
  5
2BE5
330
18
100
AcDbEntity
  8
0
100
AcDbCircle
 10
-717.173777
 20
160.106064
 30
0.0
 40
149.0
100
AcDbArc
 50
303.950022
 51
307.8286129999999
  0
ARC
  5
2BE6
330
18
100
AcDbEntity
  8
0
100
AcDbCircle
 10
-570.4035769999998
 20
-47.082176
 30
0.0
 40
2.75
100
AcDbArc
 50
213.3023
 51
38.74892
  0
ARC
  5
2BE7
330
18
100
AcDbEntity
  8
0
100
AcDbCircle
 10
-549.550607
 20
-30.605486
 30
0.0
 40
2.75
100
AcDbArc
 50
219.3023
 51
44.74890999999998
  0
ARC
  5
2BE8
330
18
100
AcDbEntity
  8
0
100
AcDbCircle
 10
-717.173777
 20
160.106064
 30
0.0
 40
251.0
100
AcDbArc
 50
305.90234
 51
310.647333
  0
ARC
  5
2BE9
330
18
100
AcDbEntity
  8
0
100
AcDbCircle
 10
-717.173777
 20
160.106064
 30
0.0
 40
251.0
100
AcDbArc
 50
323.9023399999998
 51
328.647331
  0
ARC
  5
2BEA
330
18
100
AcDbEntity
  8
0
100
AcDbCircle
 10
-717.173777
 20
160.106064
 30
0.0
 40
251.0
100
AcDbArc
 50
329.902337
 51
334.647331
  0
ARC
  5
2BEB
330
18
100
AcDbEntity
  8
0
100
AcDbCircle
 10
-498.8215469999998
 20
30.527024
 30
0.0
 40
2.75
100
AcDbArc
 50
237.3022999999999
 51
62.74891999999999
  0
ARC
  5
2BEC
330
18
100
AcDbEntity
  8
0
100
AcDbCircle
 10
-486.4729769999998
 20
54.060954
 30
0.0
 40
2.75
100
AcDbArc
 50
243.3022999999999
 51
68.74890999999999
  0
ARC
  5
2BED
330
18
100
AcDbEntity
  8
0
100
AcDbCircle
 10
-717.173777
 20
160.106064
 30
0.0
 40
251.0
100
AcDbArc
 50
335.902337
 51
340.647331
  0
ARC
  5
2BEE
330
18
100
AcDbEntity
  8
0
100
AcDbCircle
 10
-717.173777
 20
160.106064
 30
0.0
 40
251.0
100
AcDbArc
 50
317.9023399999998
 51
322.647334
  0
ARC
  5
2BEF
330
18
100
AcDbEntity
  8
0
100
AcDbCircle
 10
-513.562387
 20
8.412884
 30
0.0
 40
2.75
100
AcDbArc
 50
231.3023
 51
56.74890999999998
  0
ARC
  5
2BF0
330
18
100
AcDbEntity
  8
0
100
AcDbCircle
 10
-530.5340669999998
 20
-12.03932599999999
 30
0.0
 40
2.75
100
AcDbArc
 50
225.3023
 51
50.74892
  0
ARC
  5
2BF1
330
18
100
AcDbEntity
  8
0
100
AcDbCircle
 10
-592.864757
 20
-61.288776
 30
0.0
 40
2.75
100
AcDbArc
 50
207.3023099999999
 51
32.74890999999998
  0
ARC
  5
2BF2
330
18
100
AcDbEntity
  8
0
100
AcDbCircle
 10
-717.173777
 20
160.106064
 30
0.0
 40
251.0
100
AcDbArc
 50
287.902339
 51
292.6473329999998
  0
ARC
  5
2BF3
330
18
100
AcDbEntity
  8
0
100
AcDbCircle
 10
-616.687757
 20
-73.06978599999998
 30
0.0
 40
2.75
100
AcDbArc
 50
201.30231
 51
26.74892
  0
ARC
  5
2BF4
330
18
100
AcDbEntity
  8
0
100
AcDbCircle
 10
-717.173777
 20
160.106064
 30
0.0
 40
251.0
100
AcDbArc
 50
293.902339
 51
298.6473329999999
  0
LINE
  5
2BF5
330
18
100
AcDbEntity
  8
0
100
AcDbLine
 10
-126.3171669999999
 20
-52.441666
 30
0.0
 11
-126.3171669999999
 21
-67.509726
 31
0.0
  0
ARC
  5
2BF6
330
18
100
AcDbEntity
  8
0
100
AcDbCircle
 10
-129.0672669999999
 20
12.070414
 30
0.0
 40
2.75
100
AcDbArc
 50
84.55338000000002
 51
270.00001
  0
LINE
  5
2BF7
330
18
100
AcDbEntity
  8
0
100
AcDbLine
 10
-129.0672669999999
 20
70.82035400000002
 30
0.0
 11
-86.640867
 21
66.77500400000001
 31
0.0
  0
LINE
  5
2BF8
330
18
100
AcDbEntity
  8
0
100
AcDbLine
 10
-128.546367
 20
76.283244
 30
0.0
 11
-76.950167
 21
71.363624
 31
0.0
  0
LINE
  5
2BF9
330
18
100
AcDbEntity
  8
0
100
AcDbLine
 10
-126.3171669999999
 20
48.635964
 30
0.0
 11
-126.3171669999999
 21
35.070844
 31
0.0
  0
LINE
  5
2BFA
330
18
100
AcDbEntity
  8
0
100
AcDbLine
 10
-126.3171669999999
 20
70.558334
 30
0.0
 11
-126.3171669999999
 21
59.635964
 31
0.0
  0
ARC
  5
2BFB
330
18
100
AcDbEntity
  8
0
100
AcDbCircle
 10
-129.0672669999999
 20
73.57041399999999
 30
0.0
 40
2.75
100
AcDbArc
 50
84.55338000000002
 51
270.00001
  0
LINE
  5
2BFC
330
18
100
AcDbEntity
  8
0
100
AcDbLine
 10
-126.3171669999999
 20
29.558274
 30
0.0
 11
-126.3171669999999
 21
14.57072399999999
 31
0.0
  0
ARC
  5
2BFD
330
18
100
AcDbEntity
  8
0
100
AcDbCircle
 10
-129.0672669999999
 20
32.570534
 30
0.0
 40
2.75
100
AcDbArc
 50
84.55338000000002
 51
270.00001
  0
LINE
  5
2BFE
330
18
100
AcDbEntity
  8
0
100
AcDbLine
 10
-126.3171669999999
 20
-11.44179599999999
 30
0.0
 11
-126.3171669999999
 21
-26.429336
 31
0.0
  0
LINE
  5
2BFF
330
18
100
AcDbEntity
  8
0
100
AcDbLine
 10
-126.3171669999999
 20
9.058334
 30
0.0
 11
-126.3171669999999
 21
-5.929216
 31
0.0
  0
ARC
  5
2C00
330
18
100
AcDbEntity
  8
0
100
AcDbCircle
 10
-129.0672669999999
 20
-8.429525999999999
 30
0.0
 40
2.75
100
AcDbArc
 50
84.55338000000002
 51
270.00001
  0
LINE
  5
2C01
330
18
100
AcDbEntity
  8
0
100
AcDbLine
 10
-126.3171669999999
 20
-31.94172599999999
 30
0.0
 11
-126.3171669999999
 21
-46.92927599999999
 31
0.0
  0
ARC
  5
2C02
330
18
100
AcDbEntity
  8
0
100
AcDbCircle
 10
-129.0672669999999
 20
-28.929406
 30
0.0
 40
2.75
100
AcDbArc
 50
84.55338000000002
 51
270.00001
  0
ARC
  5
2C03
330
18
100
AcDbEntity
  8
0
100
AcDbCircle
 10
-129.0672669999999
 20
-49.429586
 30
0.0
 40
2.75
100
AcDbArc
 50
84.55338000000002
 51
270.00001
  0
LINE
  5
2C04
330
18
100
AcDbEntity
  8
0
100
AcDbLine
 10
-24.317167
 20
-41.667376
 30
0.0
 11
-24.317167
 21
-56.654686
 31
0.0
  0
LINE
  5
2C05
330
18
100
AcDbEntity
  8
0
100
AcDbLine
 10
-24.317167
 20
19.832624
 30
0.0
 11
-24.317167
 21
4.845314
 31
0.0
  0
LINE
  5
2C06
330
18
100
AcDbEntity
  8
0
100
AcDbLine
 10
-24.317167
 20
60.372474
 30
0.0
 11
-24.317167
 21
45.845134
 31
0.0
  0
LINE
  5
2C07
330
18
100
AcDbEntity
  8
0
100
AcDbLine
 10
-24.317167
 20
40.33274399999998
 30
0.0
 11
-24.317167
 21
25.345194
 31
0.0
  0
ARC
  5
2C08
330
18
100
AcDbEntity
  8
0
100
AcDbCircle
 10
-21.567267
 20
42.82047399999998
 30
0.0
 40
2.75
100
AcDbArc
 50
259.1067499999999
 51
84.55338000000002
  0
ARC
  5
2C09
330
18
100
AcDbEntity
  8
0
100
AcDbCircle
 10
-21.567267
 20
22.32053399999999
 30
0.0
 40
2.75
100
AcDbArc
 50
259.1067499999999
 51
84.55338000000002
  0
ARC
  5
2C0A
330
18
100
AcDbEntity
  8
0
100
AcDbCircle
 10
-21.567267
 20
-18.67952599999998
 30
0.0
 40
2.75
100
AcDbArc
 50
259.1067499999999
 51
84.55338000000002
  0
ARC
  5
2C0B
330
18
100
AcDbEntity
  8
0
100
AcDbCircle
 10
-21.567267
 20
1.820534
 30
0.0
 40
2.75
100
AcDbArc
 50
259.1067499999999
 51
84.55338000000002
  0
LINE
  5
2C0C
330
18
100
AcDbEntity
  8
0
100
AcDbLine
 10
-24.317167
 20
-0.6673160000000001
 30
0.0
 11
-24.317167
 21
-15.654866
 31
0.0
  0
LINE
  5
2C0D
330
18
100
AcDbEntity
  8
0
100
AcDbLine
 10
-24.317167
 20
-21.167256
 30
0.0
 11
-24.317167
 21
-36.154746
 31
0.0
  0
ARC
  5
2C0E
330
18
100
AcDbEntity
  8
0
100
AcDbCircle
 10
-21.567267
 20
-39.179526
 30
0.0
 40
2.75
100
AcDbArc
 50
259.1067499999999
 51
84.55338000000002
  0
LINE
  5
2C0F
330
18
100
AcDbEntity
  8
0
100
AcDbLine
 10
-24.317167
 20
-62.16731600000001
 30
0.0
 11
-24.317167
 21
-66.698266
 31
0.0
  0
ARC
  5
2C10
330
18
100
AcDbEntity
  8
0
100
AcDbCircle
 10
-21.567267
 20
-59.67946600000001
 30
0.0
 40
2.75
100
AcDbArc
 50
259.1067499999999
 51
84.55338000000002
  0
VIEWPORT
  5
37
330
15
100
AcDbEntity
 67
     1
  8
0
100
AcDbViewport
 10
306.2278488750969
 20
209.9927833722694
 30
0.0
 40
673.6527062954889
 41
422.693030530752
 68
     1
 69
     1
 12
306.2278488750969
 22
209.9927833722694
 13
0.0
 23
0.0
 14
10.0
 24
10.0
 15
10.0
 25
10.0
 16
0.0
 26
0.0
 36
1.0
 17
0.0
 27
0.0
 37
0.0
 42
50.0
 43
0.0
 44
0.0
 45
422.693030530752
 50
0.0
 51
0.0
 72
   100
 90
    32768
  1

281
     0
 71
     1
 74
     0
110
0.0
120
0.0
130
0.0
111
1.0
121
0.0
131
0.0
112
0.0
122
1.0
132
0.0
 79
     0
146
0.0
  0
ENDSEC
  0
SECTION
  2
OBJECTS
  0
DICTIONARY
  5
C
330
0
100
AcDbDictionary
281
     1
  3
ACAD_GROUP
350
D
  3
ACAD_IMAGE_VARS
350
7A9
  3
ACAD_LAYOUT
350
1AD
  3
ACAD_MLINESTYLE
350
1B
  3
ACAD_PLOTSETTINGS
350
1AE
  3
ACAD_PLOTSTYLENAME
350
1AB
  3
DWGPROPS
350
3A19
  0
DICTIONARY
  5
D
102
{ACAD_REACTORS
330
C
102
}
330
C
100
AcDbDictionary
281
     1
  0
RASTERVARIABLES
  5
7A9
102
{ACAD_REACTORS
330
C
102
}
330
C
100
AcDbRasterVariables
 90
        0
 70
     1
 71
     1
 72
     0
  0
DICTIONARY
  5
1AD
102
{ACAD_REACTORS
330
C
102
}
330
C
100
AcDbDictionary
281
     1
  3
Model
350
1AF
  3
ﾚｲｱｳﾄ1
350
1B0
  0
DICTIONARY
  5
1B
102
{ACAD_REACTORS
330
C
102
}
330
C
100
AcDbDictionary
281
     1
  3
STANDARD
350
1C
  0
DICTIONARY
  5
1AE
102
{ACAD_REACTORS
330
C
102
}
330
C
100
AcDbDictionary
281
     1
  3
トレース紙Ａ１
350
7A0
  3
トレース紙Ａ２
350
79E
  3
トレース紙Ａ３
350
79C
  3
トレース紙Ａ４
350
794
  3
モデル
350
91D
  3
モデル XL-5810
350
92C
  3
普通紙Ａ１からＡ３
350
705
  3
普通紙Ａ１からＡ３ XL-5810
350
A53
  3
普通紙Ａ２からＡ３
350
7A2
  3
普通紙Ａ２からＡ３ XL-5810
350
A52
  3
普通紙Ａ３
350
66A
  3
普通紙Ａ３ XL-5810
350
A51
  3
普通紙Ａ４
350
66B
  3
普通紙Ａ４ XL-5810
350
A50
  0
ACDBDICTIONARYWDFLT
  5
1AB
102
{ACAD_REACTORS
330
C
102
}
330
C
100
AcDbDictionary
281
     1
  3
Normal
350
1AC
100
AcDbDictionaryWithDefault
340
1AC
  0
XRECORD
  5
3A19
102
{ACAD_REACTORS
330
C
102
}
330
C
100
AcDbXrecord
280
     1
  1
DWGPROPS COOKIE
  2

  3

  4

  6

  7

  8

  9

300
=
301
=
302
=
303
=
304
=
305
=
306
=
307
=
308
=
309
=
 40
1.217876377314814
 41
2453365.412152407
 42
2453634.44719147
  1

 90
        0
  0
LAYOUT
  5
1AF
102
{ACAD_REACTORS
330
1AD
102
}
330
1AD
100
AcDbPlotSettings
  1
モデル
  2
FUJITSU XL-5800
  4
モデル
  6

 40
5.87375
 41
5.704405999999998
 42
5.873749
 43
5.873749
 44
210.057999
 45
296.925995
 46
-934.06
 47
-482.3299999999998
 48
0.0
 49
0.0
140
0.0
141
0.0
142
1.0
143
1.0
 70
 11956
 72
     1
 73
     0
 74
     0
  7
LineScale_10.ctb
 75
    16
147
1.0
148
1033.210332
149
625.0
100
AcDbLayout
  1
Model
 70
     0
 71
     0
 10
0.0
 20
0.0
 11
12.0
 21
9.0
 12
0.0
 22
0.0
 32
0.0
 14
0.0
 24
0.0
 34
0.0
 15
0.0
 25
0.0
 35
0.0
146
0.0
 13
0.0
 23
0.0
 33
0.0
 16
1.0
 26
0.0
 36
0.0
 17
0.0
 27
1.0
 37
0.0
 76
     0
330
18
  0
LAYOUT
  5
1B0
102
{ACAD_REACTORS
330
1AD
102
}
330
1AD
100
AcDbPlotSettings
  1

  2
SII LP-2150 (D-SCAN)
  4

  6
A1
 40
3.174999999999998
 41
3.174999999999998
 42
3.174987999999998
 43
3.174987999999998
 44
593.979004
 45
419.988983
 46
0.5
 47
-6.5
 48
0.0
 49
0.0
140
594.0
141
420.0
142
1.0
143
1.0
 70
   688
 72
     1
 73
     0
 74
     4
  7
LineScale_10.ctb
 75
    16
147
1.0
148
0.0
149
0.0
100
AcDbLayout
  1
ﾚｲｱｳﾄ1
 70
     1
 71
     1
 10
1.592759999999999
 20
-1.235669
 11
595.726569
 21
418.681148
 12
0.0
 22
0.0
 32
0.0
 14
1.000000000000000E+20
 24
1.000000000000000E+20
 34
1.000000000000000E+20
 15
-1.000000000000000E+20
 25
-1.000000000000000E+20
 35
-1.000000000000000E+20
146
0.0
 13
0.0
 23
0.0
 33
0.0
 16
1.0
 26
0.0
 36
0.0
 17
0.0
 27
1.0
 37
0.0
 76
     0
330
15
331
37
  0
MLINESTYLE
  5
1C
102
{ACAD_REACTORS
330
1B
102
}
330
1B
100
AcDbMlineStyle
  2
STANDARD
 70
     0
  3

 62
   256
 51
90.0
 52
90.0
 71
     2
 49
0.5
 62
   256
  6
BYLAYER
 49
-0.5
 62
   256
  6
BYLAYER
  0
PLOTSETTINGS
  5
7A0
102
{ACAD_REACTORS
330
1AE
102
}
330
1AE
100
AcDbPlotSettings
  1
トレース紙Ａ１
  2
SII LP-2150 (D-SCAN)
  4
User117
  6
A1
 40
3.174999952316283
 41
3.174999952316283
 42
3.17498779296875
 43
3.17498779296875
 44
840.9939575195313
 45
593.97900390625
 46
1.0
 47
-7.0
 48
0.0
 49
0.0
140
841.0
141
594.0
142
1.0
143
1.0
 70
   688
 72
     1
 73
     0
 74
     4
  7
LineScale_10.ctb
 75
    16
147
1.0
148
0.0
149
0.0
  0
PLOTSETTINGS
  5
79E
102
{ACAD_REACTORS
330
1AE
102
}
330
1AE
100
AcDbPlotSettings
  1
トレース紙Ａ２
  2
SII LP-2150 (D-SCAN)
  4
User118
  6
A1
 40
3.174999952316283
 41
3.174999952316283
 42
3.17498779296875
 43
3.17498779296875
 44
593.97900390625
 45
419.9889831542968
 46
0.5
 47
-6.5
 48
0.0
 49
0.0
140
594.0
141
420.0
142
1.0
143
1.0
 70
   688
 72
     1
 73
     0
 74
     4
  7
LineScale_10.ctb
 75
    16
147
1.0
148
0.0
149
0.0
  0
PLOTSETTINGS
  5
79C
102
{ACAD_REACTORS
330
1AE
102
}
330
1AE
100
AcDbPlotSettings
  1
トレース紙Ａ３
  2
SII LP-2150 (D-SCAN)
  4
User257
  6
A1
 40
3.174999952316283
 41
3.174999952316283
 42
3.17498779296875
 43
3.17498779296875
 44
419.9889831542968
 45
296.989501953125
 46
1.0
 47
-6.0
 48
0.0
 49
0.0
140
420.0
141
297.0
142
1.0
143
1.0
 70
   688
 72
     1
 73
     0
 74
     4
  7
LineScale_10.ctb
 75
    16
147
1.0
148
0.0
149
0.0
  0
PLOTSETTINGS
  5
794
102
{ACAD_REACTORS
330
1AE
102
}
330
1AE
100
AcDbPlotSettings
  1
トレース紙Ａ４
  2
SII LP-2150 (D-SCAN)
  4
User258
  6
A1
 40
3.174999952316283
 41
3.174999952316283
 42
3.17498779296875
 43
3.175003051757812
 44
296.989501953125
 45
209.9944915771484
 46
0.8
 47
-2.0
 48
0.0
 49
0.0
140
210.0
141
297.0
142
1.0
143
1.0
 70
   688
 72
     1
 73
     1
 74
     4
  7
LineScale_10.ctb
 75
    16
147
1.0
148
0.0
149
0.0
  0
PLOTSETTINGS
  5
91D
102
{ACAD_REACTORS
330
1AE
102
}
330
1AE
100
AcDbPlotSettings
  1
モデル
  2
FUJITSU XL-5800
  4
A4
  6

 40
5.873749732971191
 41
5.704405784606932
 42
5.873748779296875
 43
5.873748779296875
 44
210.0579986572264
 45
296.9259948730469
 46
-934.06
 47
-482.3299999999998
 48
0.0
 49
0.0
140
0.0
141
0.0
142
1.0
143
1.0
 70
  1716
 72
     1
 73
     0
 74
     0
  7
LineScale_10.ctb
 75
    16
147
1.0
148
1033.210332103321
149
625.0
  0
PLOTSETTINGS
  5
92C
102
{ACAD_REACTORS
330
1AE
102
}
330
1AE
100
AcDbPlotSettings
  1
モデル XL-5810
  2
\\PROLIANT1500\FUJITSU XL-5810
  4
A4
  6

 40
5.873749732971191
 41
5.704405784606932
 42
5.873748779296875
 43
5.873748779296875
 44
210.0579986572264
 45
296.9259948730469
 46
-588.8099999999998
 47
-890.54
 48
0.0
 49
0.0
140
0.0
141
0.0
142
1.0
143
1.0
 70
  1716
 72
     1
 73
     1
 74
     0
  7
LineScale_10.ctb
 75
    16
147
1.0
148
1033.210332103321
149
625.0
  0
PLOTSETTINGS
  5
705
102
{ACAD_REACTORS
330
1AE
102
}
330
1AE
100
AcDbPlotSettings
  1
普通紙Ａ１からＡ３
  2
FUJITSU XL-5800
  4
A3
  6
A1
 40
5.873749732971191
 41
5.873747825622557
 42
5.70440673828125
 43
5.873748779296875
 44
296.9259948730469
 45
420.1159973144531
 46
-4.129999999999999
 47
-7.07
 48
0.0
 49
0.0
140
841.0
141
594.0
142
1.0
143
2.0
 70
   688
 72
     1
 73
     1
 74
     4
  7
LineScale_05.ctb
 75
    17
147
0.5
148
0.0
149
0.0
  0
PLOTSETTINGS
  5
A53
102
{ACAD_REACTORS
330
1AE
102
}
330
1AE
100
AcDbPlotSettings
  1
普通紙Ａ１からＡ３ XL-5810
  2
\\PROLIANT1500\FUJITSU XL-5810
  4
A3
  6
A1
 40
5.873749732971191
 41
5.873747825622557
 42
5.70440673828125
 43
5.873748779296875
 44
296.9259948730469
 45
420.1159973144531
 46
-4.129999999999999
 47
-7.07
 48
0.0
 49
0.0
140
841.0
141
594.0
142
1.0
143
2.0
 70
   688
 72
     1
 73
     1
 74
     4
  7
LineScale_05.ctb
 75
    17
147
0.5
148
0.0
149
0.0
  0
PLOTSETTINGS
  5
7A2
102
{ACAD_REACTORS
330
1AE
102
}
330
1AE
100
AcDbPlotSettings
  1
普通紙Ａ２からＡ３
  2
FUJITSU XL-5800
  4
A3
  6
A1
 40
5.873749732971191
 41
5.873747825622557
 42
5.70440673828125
 43
5.873748779296875
 44
296.9259948730469
 45
420.1159973144531
 46
-5.0
 47
-7.0
 48
0.0
 49
0.0
140
594.0
141
420.0
142
0.7071066999999999
143
1.0
 70
   672
 72
     1
 73
     1
 74
     4
  7
LineScale_07.ctb
 75
     0
147
0.7071066999999999
148
0.0
149
0.0
  0
PLOTSETTINGS
  5
A52
102
{ACAD_REACTORS
330
1AE
102
}
330
1AE
100
AcDbPlotSettings
  1
普通紙Ａ２からＡ３ XL-5810
  2
\\PROLIANT1500\FUJITSU XL-5810
  4
A3
  6
A1
 40
5.873749732971191
 41
5.873747825622557
 42
5.70440673828125
 43
5.873748779296875
 44
296.9259948730469
 45
420.1159973144531
 46
-5.0
 47
-7.0
 48
0.0
 49
0.0
140
594.0
141
420.0
142
0.7071066999999999
143
1.0
 70
   672
 72
     1
 73
     1
 74
     4
  7
LineScale_07.ctb
 75
     0
147
0.7071066999999999
148
0.0
149
0.0
  0
PLOTSETTINGS
  5
66A
102
{ACAD_REACTORS
330
1AE
102
}
330
1AE
100
AcDbPlotSettings
  1
普通紙Ａ３
  2
FUJITSU XL-5800
  4
A3
  6
A1
 40
5.873749732971191
 41
5.873747825622557
 42
5.70440673828125
 43
5.873748779296875
 44
296.9259948730469
 45
420.1159973144531
 46
-3.83
 47
-6.82
 48
0.0
 49
0.0
140
420.0
141
297.0
142
1.0
143
1.0
 70
   688
 72
     1
 73
     1
 74
     4
  7
LineScale_10.ctb
 75
    16
147
1.0
148
0.0
149
0.0
  0
PLOTSETTINGS
  5
A51
102
{ACAD_REACTORS
330
1AE
102
}
330
1AE
100
AcDbPlotSettings
  1
普通紙Ａ３ XL-5810
  2
\\PROLIANT1500\FUJITSU XL-5810
  4
A3
  6
A1
 40
5.873749732971191
 41
5.873747825622557
 42
5.70440673828125
 43
5.873748779296875
 44
296.9259948730469
 45
420.1159973144531
 46
-3.83
 47
-6.82
 48
0.0
 49
0.0
140
420.0
141
297.0
142
1.0
143
1.0
 70
   688
 72
     1
 73
     1
 74
     4
  7
LineScale_10.ctb
 75
    16
147
1.0
148
0.0
149
0.0
  0
PLOTSETTINGS
  5
66B
102
{ACAD_REACTORS
330
1AE
102
}
330
1AE
100
AcDbPlotSettings
  1
普通紙Ａ４
  2
FUJITSU XL-5800
  4
A4
  6
A1
 40
5.873749732971191
 41
5.704405784606932
 42
5.873748779296875
 43
5.873748779296875
 44
210.0579986572264
 45
296.9259948730469
 46
-6.82
 47
-3.83
 48
0.0
 49
0.0
140
420.0
141
297.0
142
1.0
143
1.0
 70
   688
 72
     1
 73
     0
 74
     4
  7
LineScale_10.ctb
 75
    16
147
1.0
148
0.0
149
0.0
  0
PLOTSETTINGS
  5
A50
102
{ACAD_REACTORS
330
1AE
102
}
330
1AE
100
AcDbPlotSettings
  1
普通紙Ａ４ XL-5810
  2
\\PROLIANT1500\FUJITSU XL-5810
  4
A4
  6
A1
 40
5.873749732971191
 41
5.704405784606932
 42
5.873748779296875
 43
5.873748779296875
 44
210.0579986572264
 45
296.9259948730469
 46
-6.82
 47
-3.83
 48
0.0
 49
0.0
140
420.0
141
297.0
142
1.0
143
1.0
 70
   688
 72
     1
 73
     0
 74
     4
  7
LineScale_10.ctb
 75
    16
147
1.0
148
0.0
149
0.0
  0
ACDBPLACEHOLDER
  5
1AC
102
{ACAD_REACTORS
330
1AB
102
}
330
1AB
  0
ENDSEC
  0
EOF
