  0
SECTION
  2
HEADER
  9
$ACADVER
  1
AC1015
  9
$ACADMAINTVER
 70
     6
  9
$DWGCODEPAGE
  3
ANSI_932
  9
$INSBASE
 10
0.0
 20
0.0
 30
0.0
  9
$EXTMIN
 10
0.000003
 20
-252.930754
 30
-0.00000001
  9
$EXTMAX
 10
1585.999063
 20
1663.492904
 30
0.00000001
  9
$LIMMIN
 10
-841.0
 20
-594.0
  9
$LIMMAX
 10
841.0
 20
594.0
  9
$ORTHOMODE
 70
     1
  9
$REGENMODE
 70
     1
  9
$FILLMODE
 70
     1
  9
$QTEXTMODE
 70
     0
  9
$MIRRTEXT
 70
     0
  9
$LTSCALE
 40
7.0
  9
$ATTMODE
 70
     1
  9
$TEXTSIZE
 40
3.2
  9
$TRACEWID
 40
1.0
  9
$TEXTSTYLE
  7
DIMFONT
  9
$CLAYER
  8
0
  9
$CELTYPE
  6
ByLayer
  9
$CECOLOR
 62
   256
  9
$CELTSCALE
 40
1.0
  9
$DISPSILH
 70
     0
  9
$DIMSCALE
 40
5.0
  9
$DIMASZ
 40
3.0
  9
$DIMEXO
 40
0.0
  9
$DIMDLI
 40
10.0
  9
$DIMRND
 40
0.0
  9
$DIMDLE
 40
0.0
  9
$DIMEXE
 40
1.0
  9
$DIMTP
 40
0.0
  9
$DIMTM
 40
0.0
  9
$DIMTXT
 40
3.2
  9
$DIMCEN
 40
0.0
  9
$DIMTSZ
 40
0.0
  9
$DIMTOL
 70
     0
  9
$DIMLIM
 70
     0
  9
$DIMTIH
 70
     0
  9
$DIMTOH
 70
     0
  9
$DIMSE1
 70
     0
  9
$DIMSE2
 70
     0
  9
$DIMTAD
 70
     3
  9
$DIMZIN
 70
     8
  9
$DIMBLK
  1

  9
$DIMASO
 70
     1
  9
$DIMSHO
 70
     1
  9
$DIMPOST
  1

  9
$DIMAPOST
  1

  9
$DIMALT
 70
     0
  9
$DIMALTD
 70
     2
  9
$DIMALTF
 40
25.4
  9
$DIMLFAC
 40
1.0
  9
$DIMTOFL
 70
     1
  9
$DIMTVP
 40
0.0
  9
$DIMTIX
 70
     0
  9
$DIMSOXD
 70
     0
  9
$DIMSAH
 70
     1
  9
$DIMBLK1
  1
OPEN
  9
$DIMBLK2
  1
OPEN
  9
$DIMSTYLE
  2
1_5
  9
$DIMCLRD
 70
     0
  9
$DIMCLRE
 70
     0
  9
$DIMCLRT
 70
     0
  9
$DIMTFAC
 40
0.75
  9
$DIMGAP
 40
1.0
  9
$DIMJUST
 70
     0
  9
$DIMSD1
 70
     0
  9
$DIMSD2
 70
     0
  9
$DIMTOLJ
 70
     1
  9
$DIMTZIN
 70
     8
  9
$DIMALTZ
 70
     0
  9
$DIMALTTZ
 70
     0
  9
$DIMUPT
 70
     0
  9
$DIMDEC
 70
     1
  9
$DIMTDEC
 70
     1
  9
$DIMALTU
 70
     2
  9
$DIMALTTD
 70
     2
  9
$DIMTXSTY
  7
DIMFONT
  9
$DIMAUNIT
 70
     0
  9
$DIMADEC
 70
     0
  9
$DIMALTRND
 40
0.0
  9
$DIMAZIN
 70
     2
  9
$DIMDSEP
 70
    46
  9
$DIMATFIT
 70
     3
  9
$DIMFRAC
 70
     0
  9
$DIMLDRBLK
  1

  9
$DIMLUNIT
 70
     2
  9
$DIMLWD
 70
    -2
  9
$DIMLWE
 70
    -2
  9
$DIMTMOVE
 70
     0
  9
$LUNITS
 70
     2
  9
$LUPREC
 70
     4
  9
$SKETCHINC
 40
1.0
  9
$FILLETRAD
 40
1.0
  9
$AUNITS
 70
     0
  9
$AUPREC
 70
     4
  9
$MENU
  1
acad
  9
$ELEVATION
 40
0.0
  9
$PELEVATION
 40
0.0
  9
$THICKNESS
 40
0.0
  9
$LIMCHECK
 70
     0
  9
$CHAMFERA
 40
0.0
  9
$CHAMFERB
 40
0.0
  9
$CHAMFERC
 40
0.0
  9
$CHAMFERD
 40
0.0
  9
$SKPOLY
 70
     0
  9
$TDCREATE
 40
2453365.429715521
  9
$TDUCREATE
 40
2453365.054715520
  9
$TDUPDATE
 40
2453634.449512801
  9
$TDUUPDATE
 40
2453634.074512801
  9
$TDINDWG
 40
2.6596843750
  9
$TDUSRTIMER
 40
2.6596840856
  9
$USRTIMER
 70
     1
  9
$ANGBASE
 50
0.0
  9
$ANGDIR
 70
     0
  9
$PDMODE
 70
    35
  9
$PDSIZE
 40
0.5
  9
$PLINEWID
 40
0.0
  9
$SPLFRAME
 70
     0
  9
$SPLINETYPE
 70
     6
  9
$SPLINESEGS
 70
     8
  9
$HANDSEED
  5
5975
  9
$SURFTAB1
 70
     6
  9
$SURFTAB2
 70
     6
  9
$SURFTYPE
 70
     6
  9
$SURFU
 70
     6
  9
$SURFV
 70
     6
  9
$UCSBASE
  2

  9
$UCSNAME
  2

  9
$UCSORG
 10
0.0
 20
0.0
 30
0.0
  9
$UCSXDIR
 10
1.0
 20
0.0
 30
0.0
  9
$UCSYDIR
 10
0.0
 20
1.0
 30
0.0
  9
$UCSORTHOREF
  2

  9
$UCSORTHOVIEW
 70
     0
  9
$UCSORGTOP
 10
0.0
 20
0.0
 30
0.0
  9
$UCSORGBOTTOM
 10
0.0
 20
0.0
 30
0.0
  9
$UCSORGLEFT
 10
0.0
 20
0.0
 30
0.0
  9
$UCSORGRIGHT
 10
0.0
 20
0.0
 30
0.0
  9
$UCSORGFRONT
 10
0.0
 20
0.0
 30
0.0
  9
$UCSORGBACK
 10
0.0
 20
0.0
 30
0.0
  9
$PUCSBASE
  2

  9
$PUCSNAME
  2

  9
$PUCSORG
 10
0.0
 20
0.0
 30
0.0
  9
$PUCSXDIR
 10
1.0
 20
0.0
 30
0.0
  9
$PUCSYDIR
 10
0.0
 20
1.0
 30
0.0
  9
$PUCSORTHOREF
  2

  9
$PUCSORTHOVIEW
 70
     0
  9
$PUCSORGTOP
 10
0.0
 20
0.0
 30
0.0
  9
$PUCSORGBOTTOM
 10
0.0
 20
0.0
 30
0.0
  9
$PUCSORGLEFT
 10
0.0
 20
0.0
 30
0.0
  9
$PUCSORGRIGHT
 10
0.0
 20
0.0
 30
0.0
  9
$PUCSORGFRONT
 10
0.0
 20
0.0
 30
0.0
  9
$PUCSORGBACK
 10
0.0
 20
0.0
 30
0.0
  9
$USERI1
 70
     0
  9
$USERI2
 70
     0
  9
$USERI3
 70
     0
  9
$USERI4
 70
     0
  9
$USERI5
 70
     0
  9
$USERR1
 40
0.0
  9
$USERR2
 40
0.0
  9
$USERR3
 40
0.0
  9
$USERR4
 40
0.0
  9
$USERR5
 40
0.0
  9
$WORLDVIEW
 70
     1
  9
$SHADEDGE
 70
     3
  9
$SHADEDIF
 70
    70
  9
$TILEMODE
 70
     1
  9
$MAXACTVP
 70
    48
  9
$PINSBASE
 10
0.0
 20
0.0
 30
0.0
  9
$PLIMCHECK
 70
     0
  9
$PEXTMIN
 10
-0.0363582998343191
 20
-0.0272524492552293
 30
-0.0000000698494069
  9
$PEXTMAX
 10
594.0175858174598
 20
420.0257124655819
 30
0.0000000465733773
  9
$PLIMMIN
 10
1.592759999999999
 20
-1.235669
  9
$PLIMMAX
 10
595.726569
 20
418.681148
  9
$UNITMODE
 70
     0
  9
$VISRETAIN
 70
     0
  9
$PLINEGEN
 70
     1
  9
$PSLTSCALE
 70
     1
  9
$TREEDEPTH
 70
  3020
  9
$CMLSTYLE
  2
STANDARD
  9
$CMLJUST
 70
     0
  9
$CMLSCALE
 40
20.0
  9
$PROXYGRAPHICS
 70
     1
  9
$MEASUREMENT
 70
     0
  9
$CELWEIGHT
370
    -1
  9
$ENDCAPS
280
     0
  9
$JOINSTYLE
280
     0
  9
$LWDISPLAY
290
     0
  9
$INSUNITS
 70
     0
  9
$HYPERLINKBASE
  1

  9
$STYLESHEET
  1

  9
$XEDIT
290
     1
  9
$CEPSNTYPE
380
     0
  9
$PSTYLEMODE
290
     1
  9
$FINGERPRINTGUID
  2
{7FD28A7C-F8BA-11D3-9BCC-00A0C977751D}
  9
$VERSIONGUID
  2
{038EC24C-55DF-4590-A8D7-75EEBF5AB775}
  9
$EXTNAMES
290
     1
  9
$PSVPSCALE
 40
0.0
  9
$OLESTARTUP
290
     0
  0
ENDSEC
  0
SECTION
  2
CLASSES
  0
CLASS
  1
LWPOLYLINE
  2
AcDbPolyline
  3
AutoCAD 2000
 90
    32768
280
     0
281
     1
  0
CLASS
  1
ACDBDICTIONARYWDFLT
  2
AcDbDictionaryWithDefault
  3
AutoCAD 2000
 90
        0
280
     0
281
     0
  0
CLASS
  1
ACDBPLACEHOLDER
  2
AcDbPlaceHolder
  3
AutoCAD 2000
 90
        0
280
     0
281
     0
  0
CLASS
  1
LAYOUT
  2
AcDbLayout
  3
AutoCAD 2000
 90
        0
280
     0
281
     0
  0
CLASS
  1
PLOTSETTINGS
  2
AcDbPlotSettings
  3
AutoCAD 2000
 90
        0
280
     0
281
     0
  0
CLASS
  1
RASTERVARIABLES
  2
AcDbRasterVariables
  3
ISM
 90
        0
280
     0
281
     0
  0
CLASS
  1
IMAGE
  2
AcDbRasterImage
  3
ISM
 90
    32895
280
     0
281
     1
  0
CLASS
  1
OLE2FRAME
  2
AcDbOle2Frame
  3
AutoCAD 2000
 90
    32768
280
     0
281
     1
  0
CLASS
  1
HATCH
  2
AcDbHatch
  3
AutoCAD 2000
 90
    32768
280
     0
281
     1
  0
CLASS
  1
DICTIONARYVAR
  2
AcDbDictionaryVar
  3
AutoCAD 2000
 90
    32768
280
     0
281
     0
  0
CLASS
  1
IMAGEDEF
  2
AcDbRasterImageDef
  3
ISM
 90
    32768
280
     0
281
     0
  0
CLASS
  1
IMAGEDEF_REACTOR
  2
AcDbRasterImageDefReactor
  3
ISM
 90
    32769
280
     0
281
     0
  0
CLASS
  1
IDBUFFER
  2
AcDbIdBuffer
  3
AutoCAD 2000
 90
    32768
280
     0
281
     0
  0
CLASS
  1
SPATIAL_FILTER
  2
AcDbSpatialFilter
  3
AutoCAD 2000
 90
    32768
280
     0
281
     0
  0
CLASS
  1
XRECORD
  2
AcDbXrecord
  3
AutoCAD 2000
 90
    32768
280
     0
281
     0
  0
CLASS
  1
SORTENTSTABLE
  2
AcDbSortentsTable
  3
AutoCAD 2000
 90
    32768
280
     0
281
     0
  0
CLASS
  1
LAYER_INDEX
  2
AcDbLayerIndex
  3
AutoCAD 2000
 90
    32768
280
     0
281
     0
  0
CLASS
  1
SPATIAL_INDEX
  2
AcDbSpatialIndex
  3
AutoCAD 2000
 90
    32768
280
     0
281
     0
  0
CLASS
  1
OBJECT_PTR
  2
CAseDLPNTableRecord
  3
"ASE-LPNTableRecord"
 90
    32769
280
     0
281
     0
  0
CLASS
  1
VBA_PROJECT
  2
AcDbVbaProject
  3
"acadvba"
 90
    32769
280
     0
281
     0
  0
CLASS
  1
WIPEOUT
  2
AcDbWipeout
  3
WipeOut|AutoCAD Express Tool|expresstools@autodesk.com
 90
    32895
280
     0
281
     1
  0
CLASS
  1
WIPEOUTVARIABLES
  2
AcDbWipeoutVariables
  3
WipeOut|AutoCAD Express Tool|expresstools@autodesk.com
 90
    32768
280
     0
281
     0
  0
CLASS
  1
RTEXT
  2
RText
  3
RText|AutoCAD Express Tool|expresstools@autodesk.com
 90
    32768
280
     0
281
     1
  0
CLASS
  1
ARCALIGNEDTEXT
  2
AcDbArcAlignedText
  3
ATEXT|AutoCAD Express Tool|expresstools@autodesk.com
 90
    32768
280
     0
281
     1
  0
ENDSEC
  0
SECTION
  2
TABLES
  0
TABLE
  2
VPORT
  5
8
330
0
100
AcDbSymbolTable
 70
     2
  0
VPORT
  5
5974
330
8
100
AcDbSymbolTableRecord
100
AcDbViewportTableRecord
  2
*Active
 70
     0
 10
0.0
 20
0.0
 11
1.0
 21
1.0
 12
835.1171738170362
 22
705.257167214158
 13
0.0
 23
0.0
 14
5.0
 24
5.0
 15
10.0
 25
10.0
 16
0.0
 26
0.0
 36
1.0
 17
0.0
 27
0.0
 37
0.0
 40
1928.714171172137
 41
1.593716143011917
 42
50.0
 43
0.0
 44
0.0
 50
0.0
 51
0.0
 71
     0
 72
   100
 73
     1
 74
     0
 75
     0
 76
     0
 77
     0
 78
     0
281
     0
 65
     1
110
0.0
120
0.0
130
0.0
111
1.0
121
0.0
131
0.0
112
0.0
122
1.0
132
0.0
 79
     0
146
0.0
  0
ENDTAB
  0
TABLE
  2
LTYPE
  5
5
330
0
100
AcDbSymbolTable
 70
     3
  0
LTYPE
  5
12
330
5
100
AcDbSymbolTableRecord
100
AcDbLinetypeTableRecord
  2
ByBlock
 70
     0
  3

 72
    65
 73
     0
 40
0.0
  0
LTYPE
  5
13
330
5
100
AcDbSymbolTableRecord
100
AcDbLinetypeTableRecord
  2
ByLayer
 70
     0
  3

 72
    65
 73
     0
 40
0.0
  0
LTYPE
  5
14
330
5
100
AcDbSymbolTableRecord
100
AcDbLinetypeTableRecord
  2
CONTINUOUS
 70
     0
  3
Solid line
 72
    65
 73
     0
 40
0.0
  0
ENDTAB
  0
TABLE
  2
LAYER
  5
2
330
0
100
AcDbSymbolTable
 70
    12
  0
LAYER
  5
E
330
2
100
AcDbSymbolTableRecord
100
AcDbLayerTableRecord
  2
0
 70
     0
 62
     7
  6
CONTINUOUS
370
    -3
390
1AC
  0
LAYER
  5
133
330
2
100
AcDbSymbolTableRecord
100
AcDbLayerTableRecord
  2
DEFPOINTS
 70
     0
 62
     7
  6
CONTINUOUS
290
     0
370
    -3
390
1AC
  0
ENDTAB
  0
TABLE
  2
STYLE
  5
3
330
0
100
AcDbSymbolTable
 70
     4
  0
STYLE
  5
F
330
3
100
AcDbSymbolTableRecord
100
AcDbTextStyleTableRecord
  2
STANDARD
 70
     0
 40
0.0
 41
1.0
 50
0.0
 71
     0
 42
2.5
  3
txt
  4

  0
STYLE
  5
30
330
3
100
AcDbSymbolTableRecord
100
AcDbTextStyleTableRecord
  2
DIMFONT
 70
     0
 40
0.0
 41
1.0
 50
10.0
 71
     0
 42
3.2
  3
romans.shx
  4
extfont.shx
  0
ENDTAB
  0
TABLE
  2
VIEW
  5
6
330
0
100
AcDbSymbolTable
 70
     4
  0
VIEW
  5
39
330
6
100
AcDbSymbolTableRecord
100
AcDbViewTableRecord
  2
A1
 70
     0
 40
660.0
 10
420.5
 20
297.0
 41
1136.871508
 11
0.0
 21
0.0
 31
1.0
 12
0.0
 22
0.0
 32
0.0
 42
50.0
 43
0.0
 44
0.0
 50
0.0
 71
     0
281
     1
 72
     0
  0
VIEW
  5
3A
330
6
100
AcDbSymbolTableRecord
100
AcDbViewTableRecord
  2
A2
 70
     0
 40
466.666667
 10
297.0
 20
210.0
 41
803.8485410000001
 11
0.0
 21
0.0
 31
1.0
 12
0.0
 22
0.0
 32
0.0
 42
50.0
 43
0.0
 44
0.0
 50
0.0
 71
     0
281
     1
 72
     0
  0
VIEW
  5
3B
330
6
100
AcDbSymbolTableRecord
100
AcDbViewTableRecord
  2
A3
 70
     0
 40
330.0
 10
210.0
 20
148.5
 41
568.4357539999998
 11
0.0
 21
0.0
 31
1.0
 12
0.0
 22
0.0
 32
0.0
 42
50.0
 43
0.0
 44
0.0
 50
0.0
 71
     0
281
     1
 72
     0
  0
VIEW
  5
3C
330
6
100
AcDbSymbolTableRecord
100
AcDbViewTableRecord
  2
A4
 70
     0
 40
330.0
 10
105.0
 20
148.5
 41
568.4357539999998
 11
0.0
 21
0.0
 31
1.0
 12
0.0
 22
0.0
 32
0.0
 42
50.0
 43
0.0
 44
0.0
 50
0.0
 71
     0
281
     1
 72
     0
  0
ENDTAB
  0
TABLE
  2
UCS
  5
7
330
0
100
AcDbSymbolTable
 70
     0
  0
ENDTAB
  0
TABLE
  2
APPID
  5
9
330
0
100
AcDbSymbolTable
 70
     1
  0
APPID
  5
10
330
9
100
AcDbSymbolTableRecord
100
AcDbRegAppTableRecord
  2
ACAD
 70
     0
  0
ENDTAB
  0
TABLE
  2
DIMSTYLE
  5
A
330
0
100
AcDbSymbolTable
 70
     7
100
AcDbDimStyleTable
 71
     0
  0
DIMSTYLE
105
1D
330
A
100
AcDbSymbolTableRecord
100
AcDbDimStyleTableRecord
  2
STANDARD
 70
     0
340
F
  0
DIMSTYLE
105
4F
330
A
100
AcDbSymbolTableRecord
100
AcDbDimStyleTableRecord
  2
1_5
 70
     0
 40
5.0
 41
3.0
 42
0.0
 43
10.0
 44
1.0
 73
     0
 74
     0
 77
     3
 78
     8
 79
     2
140
3.2
141
0.0
146
0.75
147
1.0
172
     1
173
     1
271
     1
272
     1
284
     8
340
30
341
125
343
125
344
125
  0
ENDTAB
  0
TABLE
  2
BLOCK_RECORD
  5
1
330
0
100
AcDbSymbolTable
 70
     7
  0
BLOCK_RECORD
  5
18
330
1
100
AcDbSymbolTableRecord
100
AcDbBlockTableRecord
  2
*MODEL_SPACE
340
1AF
  0
BLOCK_RECORD
  5
15
330
1
100
AcDbSymbolTableRecord
100
AcDbBlockTableRecord
  2
*PAPER_SPACE
340
1B0
  0
BLOCK_RECORD
  5
125
330
1
100
AcDbSymbolTableRecord
100
AcDbBlockTableRecord
  2
_OPEN
340
0
102
{BLKREFS
331
5198
331
5199
331
518F
331
5190
331
5186
331
5187
331
51A1
331
51A2
331
517D
331
517E
331
52DA
331
52DB
331
5778
331
5779
331
58DF
331
58E0
331
590D
331
5912
331
5913
331
5918
331
5919
331
5934
331
5935
331
5966
331
5967
102
}
  0
ENDTAB
  0
ENDSEC
  0
SECTION
  2
BLOCKS
  0
BLOCK
  5
19
330
18
100
AcDbEntity
  8
0
100
AcDbBlockBegin
  2
*MODEL_SPACE
 70
     0
 10
0.0
 20
0.0
 30
0.0
  3
*MODEL_SPACE
  1

  0
ENDBLK
  5
1A
330
18
100
AcDbEntity
  8
0
100
AcDbBlockEnd
  0
BLOCK
  5
16
330
15
100
AcDbEntity
 67
     1
  8
0
100
AcDbBlockBegin
  2
*PAPER_SPACE
 70
     0
 10
0.0
 20
0.0
 30
0.0
  3
*PAPER_SPACE
  1

  0
ENDBLK
  5
17
330
15
100
AcDbEntity
 67
     1
  8
0
100
AcDbBlockEnd
  0
BLOCK
  5
126
330
125
100
AcDbEntity
  8
0
100
AcDbBlockBegin
  2
_OPEN
 70
     0
 10
0.0
 20
0.0
 30
0.0
  3
_OPEN
  1

  0
LINE
  5
127
330
125
100
AcDbEntity
  8
0
  6
ByBlock
 62
     0
100
AcDbLine
 10
-1.0
 20
0.166667
 30
0.0
 11
0.0
 21
0.0
 31
0.0
  0
LINE
  5
128
330
125
100
AcDbEntity
  8
0
  6
ByBlock
 62
     0
100
AcDbLine
 10
0.0
 20
0.0
 30
0.0
 11
-1.0
 21
-0.166667
 31
0.0
  0
LINE
  5
129
330
125
100
AcDbEntity
  8
0
  6
ByBlock
 62
     0
100
AcDbLine
 10
0.0
 20
0.0
 30
0.0
 11
-1.0
 21
0.0
 31
0.0
  0
ENDBLK
  5
12A
330
125
100
AcDbEntity
  8
0
100
AcDbBlockEnd
  0
ENDSEC
  0
SECTION
  2
ENTITIES
  0
LINE
  5
1213
330
18
100
AcDbEntity
  8
0
100
AcDbLine
 10
268.9519029999999
 20
1150.168040999999
 30
0.0
 11
268.9519029999999
 21
1200.168040999999
 31
0.0
  0
LINE
  5
1214
330
18
100
AcDbEntity
  8
0
100
AcDbLine
 10
194.2016029999999
 20
1193.910540999999
 30
0.0
 11
189.451903
 21
1196.652941
 31
0.0
  0
ARC
  5
1215
330
18
100
AcDbEntity
  8
0
100
AcDbCircle
 10
177.451603
 20
1181.668041
 30
0.0
 40
29.5
100
AcDbArc
 50
0.0
 51
57.19069000000001
  0
ARC
  5
1216
330
18
100
AcDbEntity
  8
0
100
AcDbCircle
 10
177.451603
 20
1181.668041
 30
0.0
 40
21.49999999999999
100
AcDbArc
 50
0.0
 51
51.363398
  0
ARC
  5
1218
330
18
100
AcDbEntity
  8
0
100
AcDbCircle
 10
189.451903
 20
1191.168040999998
 30
0.0
 40
6.5
100
AcDbArc
 50
171.11684
 51
17.364318
  0
ARC
  5
1219
330
18
100
AcDbEntity
  8
0
100
AcDbCircle
 10
177.451603
 20
1181.668041
 30
0.0
 40
21.49999999999999
100
AcDbArc
 50
128.6365999999999
 51
180.00001
  0
ARC
  5
121A
330
18
100
AcDbEntity
  8
0
100
AcDbCircle
 10
177.451603
 20
1181.668041
 30
0.0
 40
29.5
100
AcDbArc
 50
122.80931
 51
180.00001
  0
CIRCLE
  5
121C
330
18
100
AcDbEntity
  8
0
100
AcDbCircle
 10
177.451603
 20
1207.168041
 30
0.0
 40
16.0
  0
ARC
  5
121D
330
18
100
AcDbEntity
  8
0
100
AcDbCircle
 10
67.451903
 20
1207.168041
 30
0.0
 40
16.0
100
AcDbArc
 50
90.00000300000001
 51
270.0
  0
ARC
  5
1220
330
18
100
AcDbEntity
  8
0
100
AcDbCircle
 10
97.951603
 20
1196.487641
 30
0.0
 40
12.419868
100
AcDbArc
 50
252.4126399999999
 51
287.58735
  0
LINE
  5
1221
330
18
100
AcDbEntity
  8
0
100
AcDbLine
 10
91.451603
 20
1184.067941
 30
0.0
 11
104.451903
 21
1184.067941
 31
0.0
  0
LINE
  5
1222
330
18
100
AcDbEntity
  8
0
100
AcDbLine
 10
103.585703
 20
1183.568041
 30
0.0
 11
92.31760300000001
 21
1183.568041
 31
0.0
  0
LINE
  5
1223
330
18
100
AcDbEntity
  8
0
100
AcDbLine
 10
102.585903
 20
1181.567940999998
 30
0.0
 11
93.317803
 21
1181.567940999998
 31
0.0
  0
LINE
  5
1224
330
18
100
AcDbEntity
  8
0
100
AcDbLine
 10
106.951903
 20
1189.567940999998
 30
0.0
 11
88.95190300000001
 21
1189.567940999998
 31
0.0
  0
ARC
  5
122E
330
18
100
AcDbEntity
  8
0
100
AcDbCircle
 10
177.451603
 20
970.268141
 30
0.0
 40
163.00002
100
AcDbArc
 50
0.000003
 51
259.9574899999999
  0
LINE
  5
122F
330
18
100
AcDbEntity
  8
0
100
AcDbLine
 10
67.451903
 20
1191.168040999998
 30
0.0
 11
149.5232029999999
 21
1191.168040999998
 31
0.0
  0
ARC
  5
1231
330
18
100
AcDbEntity
  8
0
100
AcDbCircle
 10
92.322503
 20
1187.390740999999
 30
0.0
 40
3.322668
100
AcDbArc
 50
244.38552
 51
304.38315
  0
ARC
  5
1232
330
18
100
AcDbEntity
  8
0
100
AcDbCircle
 10
93.317803
 20
1182.567841
 30
0.0
 40
1.0
100
AcDbArc
 50
179.9999899999999
 51
270.0
  0
LINE
  5
1233
330
18
100
AcDbEntity
  8
0
100
AcDbLine
 10
92.31760300000001
 20
1183.568041
 30
0.0
 11
92.31760300000001
 21
1182.567841
 31
0.0
  0
LINE
  5
1234
330
18
100
AcDbEntity
  8
0
100
AcDbLine
 10
90.446003
 20
1184.648541
 30
0.0
 11
92.31760300000001
 21
1183.567941
 31
0.0
  0
LINE
  5
1235
330
18
100
AcDbEntity
  8
0
100
AcDbLine
 10
94.199003
 20
1184.648541
 30
0.0
 11
94.199003
 21
1189.567940999998
 31
0.0
  0
LINE
  5
1236
330
18
100
AcDbEntity
  8
0
100
AcDbLine
 10
90.44630299999999
 20
1184.648541
 30
0.0
 11
90.44630299999999
 21
1189.567940999998
 31
0.0
  0
LINE
  5
1237
330
18
100
AcDbEntity
  8
0
100
AcDbLine
 10
93.30150299999999
 20
1191.168040999998
 30
0.0
 11
93.30150299999999
 21
1189.567940999998
 31
0.0
  0
LINE
  5
1238
330
18
100
AcDbEntity
  8
0
100
AcDbLine
 10
88.95190300000001
 20
1191.168040999998
 30
0.0
 11
88.95190300000001
 21
1189.567940999998
 31
0.0
  0
CIRCLE
  5
1239
330
18
100
AcDbEntity
  8
0
100
AcDbCircle
 10
203.551703
 20
797.225241
 30
0.0
 40
5.0
  0
CIRCLE
  5
123A
330
18
100
AcDbEntity
  8
0
100
AcDbCircle
 10
203.551703
 20
797.225241
 30
0.0
 40
6.749999
  0
ARC
  5
123B
330
18
100
AcDbEntity
  8
0
100
AcDbCircle
 10
166.839603
 20
777.511141
 30
0.0
 40
30.0
100
AcDbArc
 50
45.000001
 51
79.99999800000002
  0
ARC
  5
123C
330
18
100
AcDbEntity
  8
0
100
AcDbCircle
 10
203.551703
 20
797.225241
 30
0.0
 40
10.0
100
AcDbArc
 50
270.0
 51
49.961014
  0
LINE
  5
123E
330
18
100
AcDbEntity
  8
0
100
AcDbLine
 10
120.418203
 20
964.5202410000001
 30
0.0
 11
155.254103
 21
776.086841
 31
0.0
  0
LINE
  5
123F
330
18
100
AcDbEntity
  8
0
100
AcDbLine
 10
127.271703
 20
943.9511409999999
 30
0.0
 11
158.903803
 21
772.847841
 31
0.0
  0
ARC
  5
1240
330
18
100
AcDbEntity
  8
0
100
AcDbCircle
 10
177.451603
 20
970.268141
 30
0.0
 40
163.00002
100
AcDbArc
 50
261.07942
 51
0.0
  0
LINE
  5
1242
330
18
100
AcDbEntity
  8
0
100
AcDbLine
 10
104.951903
 20
824.279141
 30
0.0
 11
104.951903
 21
675.268011
 31
0.0
  0
LINE
  5
1243
330
18
100
AcDbEntity
  8
0
100
AcDbLine
 10
127.3518029999999
 20
815.1584409999998
 30
0.0
 11
127.3518029999999
 21
644.768071
 31
0.0
  0
LINE
  5
1244
330
18
100
AcDbEntity
  8
0
100
AcDbLine
 10
227.5517029999999
 20
815.1584409999998
 30
0.0
 11
227.5517029999999
 21
644.768071
 31
0.0
  0
LINE
  5
1245
330
18
100
AcDbEntity
  8
0
100
AcDbLine
 10
249.9516029999999
 20
824.279141
 30
0.0
 11
249.9516029999999
 21
675.268011
 31
0.0
  0
LINE
  5
1248
330
18
100
AcDbEntity
  8
0
100
AcDbLine
 10
175.951603
 20
617.668101
 30
0.0
 11
175.951603
 21
561.037241
 31
0.0
  0
LINE
  5
1249
330
18
100
AcDbEntity
  8
0
100
AcDbLine
 10
178.951903
 20
617.668101
 30
0.0
 11
178.951903
 21
562.360111
 31
0.0
  0
ARC
  5
125F
330
18
100
AcDbEntity
  8
0
100
AcDbCircle
 10
224.5517029999999
 20
655.2680109999998
 30
0.0
 40
3.0
100
AcDbArc
 50
0.000003
 51
90.00000300000001
  0
LINE
  5
1260
330
18
100
AcDbEntity
  8
0
100
AcDbLine
 10
129.951603
 20
655.668041
 30
0.0
 11
224.951903
 21
655.668041
 31
0.0
  0
LINE
  5
1264
330
18
100
AcDbEntity
  8
0
100
AcDbLine
 10
156.438003
 20
769.6845409999998
 30
0.0
 11
175.926203
 21
664.2681309999998
 31
0.0
  0
LINE
  5
1265
330
18
100
AcDbEntity
  8
0
100
AcDbLine
 10
160.1172029999998
 20
766.285441
 30
0.0
 11
178.977303
 21
664.2680709999998
 31
0.0
  0
LINE
  5
1268
330
18
100
AcDbEntity
  8
0
100
AcDbLine
 10
170.951903
 20
617.6678509999998
 30
0.0
 11
156.451903
 21
628.6677909999998
 31
0.0
  0
LINE
  5
1269
330
18
100
AcDbEntity
  8
0
100
AcDbLine
 10
156.451903
 20
628.6681009999998
 30
0.0
 11
198.451603
 21
628.6681009999998
 31
0.0
  0
LINE
  5
126A
330
18
100
AcDbEntity
  8
0
100
AcDbLine
 10
160.9516029999998
 20
631.668041
 30
0.0
 11
193.951903
 21
631.668041
 31
0.0
  0
LINE
  5
126B
330
18
100
AcDbEntity
  8
0
100
AcDbLine
 10
170.951603
 20
653.668041
 30
0.0
 11
156.451903
 21
642.668101
 31
0.0
  0
LINE
  5
126C
330
18
100
AcDbEntity
  8
0
100
AcDbLine
 10
160.9516029999998
 20
639.6679709999999
 30
0.0
 11
193.951903
 21
639.6679709999999
 31
0.0
  0
LINE
  5
126D
330
18
100
AcDbEntity
  8
0
100
AcDbLine
 10
156.451903
 20
642.668041
 30
0.0
 11
198.451603
 21
642.668041
 31
0.0
  0
LINE
  5
126E
330
18
100
AcDbEntity
  8
0
100
AcDbLine
 10
132.451603
 20
662.268011
 30
0.0
 11
187.451903
 21
662.268011
 31
0.0
  0
LINE
  5
126F
330
18
100
AcDbEntity
  8
0
100
AcDbLine
 10
130.352003
 20
658.2680709999998
 30
0.0
 11
224.5517029999999
 21
658.2680709999998
 31
0.0
  0
LINE
  5
1271
330
18
100
AcDbEntity
  8
0
100
AcDbLine
 10
129.951603
 20
655.668041
 30
0.0
 11
129.951603
 21
644.768071
 31
0.0
  0
LINE
  5
1272
330
18
100
AcDbEntity
  8
0
100
AcDbLine
 10
123.4519029999999
 20
651.2679509999998
 30
0.0
 11
104.951903
 21
675.268011
 31
0.0
  0
CIRCLE
  5
1273
330
18
100
AcDbEntity
  8
0
100
AcDbCircle
 10
123.4516029999999
 20
644.768071
 30
0.0
 40
3.9
  0
ARC
  5
1274
330
18
100
AcDbEntity
  8
0
100
AcDbCircle
 10
123.4516029999999
 20
644.768071
 30
0.0
 40
6.5
100
AcDbArc
 50
53.13009799999999
 51
0.00001
  0
LINE
  5
1275
330
18
100
AcDbEntity
  8
0
100
AcDbLine
 10
156.451603
 20
642.668101
 30
0.0
 11
160.951903
 21
639.668041
 31
0.0
  0
LINE
  5
1276
330
18
100
AcDbEntity
  8
0
100
AcDbLine
 10
160.9516029999998
 20
639.6679709999999
 30
0.0
 11
160.9516029999998
 21
631.668041
 31
0.0
  0
LINE
  5
127C
330
18
100
AcDbEntity
  8
0
100
AcDbLine
 10
156.451603
 20
628.668041
 30
0.0
 11
160.9516029999998
 21
631.668041
 31
0.0
  0
ARC
  5
127D
330
18
100
AcDbEntity
  8
0
100
AcDbCircle
 10
130.352003
 20
655.2680109999998
 30
0.0
 40
3.0
100
AcDbArc
 50
90.00000899999998
 51
180.00001
  0
LINE
  5
127E
330
18
100
AcDbEntity
  8
0
100
AcDbLine
 10
132.451603
 20
662.268011
 30
0.0
 11
132.451603
 21
658.2680709999998
 31
0.0
  0
LINE
  5
1280
330
18
100
AcDbEntity
  8
0
100
AcDbLine
 10
171.451903
 20
655.668041
 30
0.0
 11
171.451903
 21
653.6681009999998
 31
0.0
  0
LINE
  5
1281
330
18
100
AcDbEntity
  8
0
100
AcDbLine
 10
183.4516029999999
 20
655.668041
 30
0.0
 11
183.4516029999999
 21
653.6681009999998
 31
0.0
  0
LINE
  5
1282
330
18
100
AcDbEntity
  8
0
100
AcDbLine
 10
183.951903
 20
653.668041
 30
0.0
 11
198.451903
 21
642.667911
 31
0.0
  0
LINE
  5
1284
330
18
100
AcDbEntity
  8
0
100
AcDbLine
 10
183.951903
 20
617.667911
 30
0.0
 11
198.451903
 21
628.667911
 31
0.0
  0
LINE
  5
1287
330
18
100
AcDbEntity
  8
0
100
AcDbLine
 10
170.951903
 20
653.6681009999998
 30
0.0
 11
183.951603
 21
653.6681009999998
 31
0.0
  0
LINE
  5
1288
330
18
100
AcDbEntity
  8
0
100
AcDbLine
 10
170.951903
 20
617.668101
 30
0.0
 11
183.951603
 21
617.668101
 31
0.0
  0
LINE
  5
128B
330
18
100
AcDbEntity
  8
0
100
AcDbLine
 10
198.451603
 20
642.667911
 30
0.0
 11
193.951903
 21
639.668041
 31
0.0
  0
LINE
  5
128C
330
18
100
AcDbEntity
  8
0
100
AcDbLine
 10
193.951903
 20
639.6679709999999
 30
0.0
 11
193.951903
 21
631.668041
 31
0.0
  0
LINE
  5
1292
330
18
100
AcDbEntity
  8
0
100
AcDbLine
 10
198.451603
 20
628.668041
 30
0.0
 11
193.951903
 21
631.6679709999998
 31
0.0
  0
LINE
  5
1293
330
18
100
AcDbEntity
  8
0
100
AcDbLine
 10
182.451603
 20
664.2680709999998
 30
0.0
 11
182.451603
 21
662.268011
 31
0.0
  0
LINE
  5
1294
330
18
100
AcDbEntity
  8
0
100
AcDbLine
 10
172.451903
 20
664.2680709999998
 30
0.0
 11
172.451903
 21
662.268011
 31
0.0
  0
LINE
  5
1295
330
18
100
AcDbEntity
  8
0
100
AcDbLine
 10
172.451903
 20
664.2680709999998
 30
0.0
 11
182.451603
 21
664.2680709999998
 31
0.0
  0
LINE
  5
1296
330
18
100
AcDbEntity
  8
0
100
AcDbLine
 10
187.451903
 20
662.268011
 30
0.0
 11
187.451903
 21
658.2680709999998
 31
0.0
  0
LINE
  5
1297
330
18
100
AcDbEntity
  8
0
100
AcDbLine
 10
161.741203
 20
780.050141
 30
0.0
 11
163.7268029999999
 21
790.210641
 31
0.0
  0
LINE
  5
129A
330
18
100
AcDbEntity
  8
0
100
AcDbLine
 10
158.380603
 20
789.842441
 30
0.0
 11
161.741203
 21
780.050241
 31
0.0
  0
LINE
  5
129B
330
18
100
AcDbEntity
  8
0
100
AcDbLine
 10
157.034903
 20
782.9571409999998
 30
0.0
 11
158.380303
 21
789.842341
 31
0.0
  0
LINE
  5
129C
330
18
100
AcDbEntity
  8
0
100
AcDbLine
 10
151.784403
 20
783.078841
 30
0.0
 11
153.0342029999999
 21
789.4739409999998
 31
0.0
  0
ARC
  5
129D
330
18
100
AcDbEntity
  8
0
100
AcDbCircle
 10
141.5102029999999
 20
783.353141
 30
0.0
 40
1.5
100
AcDbArc
 50
90.00000300000001
 51
270.0
  0
LINE
  5
129E
330
18
100
AcDbEntity
  8
0
100
AcDbLine
 10
141.5102029999999
 20
781.853141
 30
0.0
 11
142.5102029999998
 21
781.853141
 31
0.0
  0
LINE
  5
129F
330
18
100
AcDbEntity
  8
0
100
AcDbLine
 10
141.5102029999999
 20
784.853141
 30
0.0
 11
142.5102029999998
 21
784.853141
 31
0.0
  0
ARC
  5
12A0
330
18
100
AcDbEntity
  8
0
100
AcDbCircle
 10
146.877403
 20
784.037941
 30
0.0
 40
5.0
100
AcDbArc
 50
58.66907099999999
 51
170.6162899999999
  0
ARC
  5
12A1
330
18
100
AcDbEntity
  8
0
100
AcDbCircle
 10
142.5102029999998
 20
783.353141
 30
0.0
 40
1.5
100
AcDbArc
 50
270.0
 51
90.00000300000001
  0
LINE
  5
12A2
330
18
100
AcDbEntity
  8
0
100
AcDbLine
 10
148.759303
 20
776.366741
 30
0.0
 11
151.322003
 21
779.438041
 31
0.0
  0
ARC
  5
12A3
330
18
100
AcDbEntity
  8
0
100
AcDbCircle
 10
146.877403
 20
784.037941
 30
0.0
 40
5.0
100
AcDbArc
 50
205.9097299999999
 51
348.9415
  0
LINE
  5
12A4
330
18
100
AcDbEntity
  8
0
100
AcDbLine
 10
177.546103
 20
748.4321409999998
 30
0.0
 11
180.134303
 21
751.5337409999998
 31
0.0
  0
ARC
  5
12A5
330
18
100
AcDbEntity
  8
0
100
AcDbCircle
 10
194.463603
 20
786.881641
 30
0.0
 40
5.0
100
AcDbArc
 50
84.809298
 51
158.85086
  0
LINE
  5
12A6
330
18
100
AcDbEntity
  8
0
100
AcDbLine
 10
188.052703
 20
798.724541
 30
0.0
 11
195.551703
 21
791.2252409999998
 31
0.0
  0
LINE
  5
12A8
330
18
100
AcDbEntity
  8
0
100
AcDbLine
 10
185.112303
 20
791.684141
 30
0.0
 11
188.4726029999999
 21
781.891941
 31
0.0
  0
LINE
  5
12A9
330
18
100
AcDbEntity
  8
0
100
AcDbLine
 10
183.1264029999999
 20
781.5236409999998
 30
0.0
 11
185.112003
 21
791.684141
 31
0.0
  0
LINE
  5
12AA
330
18
100
AcDbEntity
  8
0
100
AcDbLine
 10
179.765803
 20
791.315841
 30
0.0
 11
183.1264029999999
 21
781.5236409999998
 31
0.0
  0
LINE
  5
12AB
330
18
100
AcDbEntity
  8
0
100
AcDbLine
 10
177.7800029999999
 20
781.155241
 30
0.0
 11
179.7656029999999
 21
791.315841
 31
0.0
  0
LINE
  5
12AC
330
18
100
AcDbEntity
  8
0
100
AcDbLine
 10
174.419703
 20
790.947441
 30
0.0
 11
177.780303
 21
781.155241
 31
0.0
  0
LINE
  5
12AD
330
18
100
AcDbEntity
  8
0
100
AcDbLine
 10
172.433803
 20
780.7869410000002
 30
0.0
 11
174.419403
 21
790.947441
 31
0.0
  0
LINE
  5
12AE
330
18
100
AcDbEntity
  8
0
100
AcDbLine
 10
169.073203
 20
790.579141
 30
0.0
 11
172.433803
 21
780.7869410000002
 31
0.0
  0
LINE
  5
12AF
330
18
100
AcDbEntity
  8
0
100
AcDbLine
 10
167.087403
 20
780.418541
 30
0.0
 11
169.073003
 21
790.5790409999998
 31
0.0
  0
LINE
  5
12B0
330
18
100
AcDbEntity
  8
0
100
AcDbLine
 10
188.4726029999999
 20
781.892041
 30
0.0
 11
189.800303
 21
788.685641
 31
0.0
  0
LINE
  5
12B1
330
18
100
AcDbEntity
  8
0
100
AcDbLine
 10
163.7270029999999
 20
790.210741
 30
0.0
 11
167.087603
 21
780.418541
 31
0.0
  0
ARC
  5
12B2
330
18
100
AcDbEntity
  8
0
100
AcDbCircle
 10
194.463603
 20
786.881641
 30
0.0
 40
5.0
100
AcDbArc
 50
284.26677
 51
317.2144399999999
  0
CIRCLE
  5
12B3
330
18
100
AcDbEntity
  8
0
100
AcDbCircle
 10
199.552003
 20
787.2252409999998
 30
0.0
 40
1.5
  0
ARC
  5
12B4
330
18
100
AcDbEntity
  8
0
100
AcDbCircle
 10
194.137703
 20
789.811141
 30
0.0
 40
2.0
100
AcDbArc
 50
334.47122
 51
45.000001
  0
ARC
  5
12B5
330
18
100
AcDbEntity
  8
0
100
AcDbCircle
 10
199.552003
 20
787.2252409999998
 30
0.0
 40
4.0
100
AcDbArc
 50
154.47122
 51
0.00001
  0
LINE
  5
12B6
330
18
100
AcDbEntity
  8
0
100
AcDbLine
 10
224.951903
 20
655.668041
 30
0.0
 11
224.951903
 21
644.768071
 31
0.0
  0
LINE
  5
12B7
330
18
100
AcDbEntity
  8
0
100
AcDbLine
 10
231.451903
 20
651.2679509999998
 30
0.0
 11
249.9516029999999
 21
675.267891
 31
0.0
  0
CIRCLE
  5
12B8
330
18
100
AcDbEntity
  8
0
100
AcDbCircle
 10
231.451903
 20
644.768071
 30
0.0
 40
3.9
  0
ARC
  5
12B9
330
18
100
AcDbEntity
  8
0
100
AcDbCircle
 10
231.451903
 20
644.768071
 30
0.0
 40
6.5
100
AcDbArc
 50
179.9999899999999
 51
126.8698699999999
  0
CIRCLE
  5
12BC
330
18
100
AcDbEntity
  8
0
100
AcDbCircle
 10
177.451603
 20
970.268141
 30
0.0
 40
52.5
  0
LINE
  5
12C7
330
18
100
AcDbEntity
  8
0
100
AcDbLine
 10
169.8330029999999
 20
807.446241
 30
0.0
 11
172.049003
 21
807.0554409999997
 31
0.0
  0
LINE
  5
12C8
330
18
100
AcDbEntity
  8
0
100
AcDbLine
 10
205.261203
 20
809.657941
 30
0.0
 11
210.6228029999999
 21
804.2964409999997
 31
0.0
  0
CIRCLE
  5
12C9
330
18
100
AcDbEntity
  8
0
100
AcDbCircle
 10
177.451603
 20
970.268141
 30
0.0
 40
25.0
  0
CIRCLE
  5
12CA
330
18
100
AcDbEntity
  8
0
100
AcDbCircle
 10
177.451603
 20
970.268141
 30
0.0
 40
17.5
  0
CIRCLE
  5
12CB
330
18
100
AcDbEntity
  8
0
100
AcDbCircle
 10
177.451603
 20
970.268141
 30
0.0
 40
14.000001
  0
CIRCLE
  5
12CC
330
18
100
AcDbEntity
  8
0
100
AcDbCircle
 10
177.451603
 20
970.268141
 30
0.0
 40
12.5
  0
ARC
  5
12CD
330
18
100
AcDbEntity
  8
0
100
AcDbCircle
 10
227.9519029999999
 20
1162.268041
 30
0.0
 40
3.0
100
AcDbArc
 50
90.00000899999998
 51
180.00001
  0
ARC
  5
12CE
330
18
100
AcDbEntity
  8
0
100
AcDbCircle
 10
224.5517029999999
 20
1153.268041
 30
0.0
 40
3.0
100
AcDbArc
 50
270.0
 51
0.000003
  0
LINE
  5
12CF
330
18
100
AcDbEntity
  8
0
100
AcDbLine
 10
129.951603
 20
1152.868140999999
 30
0.0
 11
224.951903
 21
1152.868140999999
 31
0.0
  0
LINE
  5
12D0
330
18
100
AcDbEntity
  8
0
100
AcDbLine
 10
158.1645029999999
 20
1191.168040999998
 30
0.0
 11
177.451603
 21
1191.168040999998
 31
0.0
  0
LINE
  5
12D1
330
18
100
AcDbEntity
  8
0
100
AcDbLine
 10
139.451603
 20
1148.668041
 30
0.0
 11
164.451903
 21
1148.668041
 31
0.0
  0
LINE
  5
12D2
330
18
100
AcDbEntity
  8
0
100
AcDbLine
 10
139.451603
 20
1154.467941
 30
0.0
 11
164.451903
 21
1154.467941
 31
0.0
  0
LINE
  5
12D3
330
18
100
AcDbEntity
  8
0
100
AcDbLine
 10
130.352003
 20
1150.268041
 30
0.0
 11
224.5517029999999
 21
1150.268041
 31
0.0
  0
LINE
  5
12D4
330
18
100
AcDbEntity
  8
0
100
AcDbLine
 10
159.457303
 20
1142.548641
 30
0.0
 11
159.457303
 21
1148.668041
 31
0.0
  0
LINE
  5
12D5
330
18
100
AcDbEntity
  8
0
100
AcDbLine
 10
155.7046029999999
 20
1142.548440999999
 30
0.0
 11
155.7046029999999
 21
1148.668041
 31
0.0
  0
LINE
  5
12D6
330
18
100
AcDbEntity
  8
0
100
AcDbLine
 10
148.199003
 20
1142.548440999999
 30
0.0
 11
148.199003
 21
1148.668041
 31
0.0
  0
LINE
  5
12D7
330
18
100
AcDbEntity
  8
0
100
AcDbLine
 10
144.446303
 20
1142.548440999999
 30
0.0
 11
144.446303
 21
1148.668041
 31
0.0
  0
LINE
  5
12D9
330
18
100
AcDbEntity
  8
0
100
AcDbLine
 10
127.3518029999999
 20
1162.668040999998
 30
0.0
 11
127.3518029999999
 21
1125.377741
 31
0.0
  0
LINE
  5
12DA
330
18
100
AcDbEntity
  8
0
100
AcDbLine
 10
104.951903
 20
1165.268041
 30
0.0
 11
104.951903
 21
1116.256941
 31
0.0
  0
ARC
  5
12DB
330
18
100
AcDbEntity
  8
0
100
AcDbCircle
 10
157.581003
 20
1145.290641
 30
0.0
 40
3.322595999999998
100
AcDbArc
 50
235.61609
 51
295.61679
  0
ARC
  5
12DC
330
18
100
AcDbEntity
  8
0
100
AcDbCircle
 10
146.322503
 20
1145.290740999999
 30
0.0
 40
3.322668
100
AcDbArc
 50
244.38552
 51
304.38315
  0
ARC
  5
12DD
330
18
100
AcDbEntity
  8
0
100
AcDbCircle
 10
151.951903
 20
1154.387840999999
 30
0.0
 40
12.419868
100
AcDbArc
 50
252.4126399999999
 51
287.58735
  0
LINE
  5
12DE
330
18
100
AcDbEntity
  8
0
100
AcDbLine
 10
155.326603
 20
1141.967941
 30
0.0
 11
155.326603
 21
1136.168041
 31
0.0
  0
LINE
  5
12DF
330
18
100
AcDbEntity
  8
0
100
AcDbLine
 10
148.576603
 20
1141.967941
 30
0.0
 11
148.576603
 21
1136.168041
 31
0.0
  0
LINE
  5
12E0
330
18
100
AcDbEntity
  8
0
100
AcDbLine
 10
155.951603
 20
1141.967941
 30
0.0
 11
155.951603
 21
1136.168041
 31
0.0
  0
LINE
  5
12E1
330
18
100
AcDbEntity
  8
0
100
AcDbLine
 10
147.951903
 20
1141.967941
 30
0.0
 11
147.951903
 21
1136.168041
 31
0.0
  0
LINE
  5
12E2
330
18
100
AcDbEntity
  8
0
100
AcDbLine
 10
158.451603
 20
1141.968041
 30
0.0
 11
159.457303
 21
1142.548641
 31
0.0
  0
LINE
  5
12E3
330
18
100
AcDbEntity
  8
0
100
AcDbLine
 10
144.446303
 20
1142.548541
 30
0.0
 11
145.451903
 21
1141.967941
 31
0.0
  0
LINE
  5
12E4
330
18
100
AcDbEntity
  8
0
100
AcDbLine
 10
145.451603
 20
1141.967941
 30
0.0
 11
158.451603
 21
1141.967941
 31
0.0
  0
LINE
  5
12E5
330
18
100
AcDbEntity
  8
0
100
AcDbLine
 10
147.951903
 20
1136.168041
 30
0.0
 11
155.951603
 21
1136.168041
 31
0.0
  0
ARC
  5
12E6
330
18
100
AcDbEntity
  8
0
100
AcDbCircle
 10
126.951603
 20
1162.268041
 30
0.0
 40
3.0
100
AcDbArc
 50
0.000003
 51
90.00000300000001
  0
ARC
  5
12E7
330
18
100
AcDbEntity
  8
0
100
AcDbCircle
 10
102.585903
 20
1182.567841
 30
0.0
 40
1.0
100
AcDbArc
 50
270.0
 51
0.000003
  0
ARC
  5
12E8
330
18
100
AcDbEntity
  8
0
100
AcDbCircle
 10
103.581003
 20
1187.390541
 30
0.0
 40
3.322595999999998
100
AcDbArc
 50
235.61609
 51
295.61679
  0
LINE
  5
12E9
330
18
100
AcDbEntity
  8
0
100
AcDbLine
 10
103.585703
 20
1183.568041
 30
0.0
 11
103.585703
 21
1182.567841
 31
0.0
  0
LINE
  5
12EA
330
18
100
AcDbEntity
  8
0
100
AcDbLine
 10
103.585703
 20
1183.567841
 30
0.0
 11
105.457303
 21
1184.648341
 31
0.0
  0
LINE
  5
12EB
330
18
100
AcDbEntity
  8
0
100
AcDbLine
 10
105.457303
 20
1184.648541
 30
0.0
 11
105.457303
 21
1189.567940999998
 31
0.0
  0
LINE
  5
12EC
330
18
100
AcDbEntity
  8
0
100
AcDbLine
 10
101.704603
 20
1184.648541
 30
0.0
 11
101.704603
 21
1189.567940999998
 31
0.0
  0
LINE
  5
12ED
330
18
100
AcDbEntity
  8
0
100
AcDbLine
 10
102.601803
 20
1191.168040999998
 30
0.0
 11
102.601803
 21
1189.567940999998
 31
0.0
  0
LINE
  5
12EE
330
18
100
AcDbEntity
  8
0
100
AcDbLine
 10
106.951903
 20
1191.168040999998
 30
0.0
 11
106.951903
 21
1189.567940999998
 31
0.0
  0
LINE
  5
12EF
330
18
100
AcDbEntity
  8
0
100
AcDbLine
 10
109.9516029999999
 20
1165.268041
 30
0.0
 11
109.9516029999999
 21
1191.168040999998
 31
0.0
  0
LINE
  5
12F0
330
18
100
AcDbEntity
  8
0
100
AcDbLine
 10
104.951903
 20
1162.668040999998
 30
0.0
 11
127.3518029999999
 21
1162.668040999998
 31
0.0
  0
LINE
  5
12F1
330
18
100
AcDbEntity
  8
0
100
AcDbLine
 10
104.951903
 20
1165.268041
 30
0.0
 11
126.951603
 21
1165.268041
 31
0.0
  0
ARC
  5
12F2
330
18
100
AcDbEntity
  8
0
100
AcDbCircle
 10
130.352003
 20
1153.268041
 30
0.0
 40
3.0
100
AcDbArc
 50
179.9999899999999
 51
270.0
  0
LINE
  5
12F3
330
18
100
AcDbEntity
  8
0
100
AcDbLine
 10
129.951603
 20
1162.268041
 30
0.0
 11
129.951603
 21
1152.868140999999
 31
0.0
  0
ARC
  5
12F4
330
18
100
AcDbEntity
  8
0
100
AcDbCircle
 10
157.581003
 20
1157.845440999998
 30
0.0
 40
3.322595999999998
100
AcDbArc
 50
64.383207
 51
124.38391
  0
ARC
  5
12F5
330
18
100
AcDbEntity
  8
0
100
AcDbCircle
 10
151.951903
 20
1148.748241
 30
0.0
 40
12.419868
100
AcDbArc
 50
72.412655
 51
107.5873599999999
  0
ARC
  5
12F6
330
18
100
AcDbEntity
  8
0
100
AcDbCircle
 10
146.322503
 20
1157.845440999998
 30
0.0
 40
3.322668
100
AcDbArc
 50
55.616854
 51
115.61448
  0
LINE
  5
12F7
330
18
100
AcDbEntity
  8
0
100
AcDbLine
 10
158.451603
 20
1161.168041
 30
0.0
 11
159.457003
 21
1160.587641
 31
0.0
  0
LINE
  5
12F8
330
18
100
AcDbEntity
  8
0
100
AcDbLine
 10
144.446303
 20
1160.587240999999
 30
0.0
 11
145.451903
 21
1161.167840999999
 31
0.0
  0
LINE
  5
12F9
330
18
100
AcDbEntity
  8
0
100
AcDbLine
 10
145.451603
 20
1161.168041
 30
0.0
 11
158.451603
 21
1161.168041
 31
0.0
  0
LINE
  5
12FA
330
18
100
AcDbEntity
  8
0
100
AcDbLine
 10
155.951603
 20
1181.668041
 30
0.0
 11
155.951603
 21
1161.168041
 31
0.0
  0
LINE
  5
12FB
330
18
100
AcDbEntity
  8
0
100
AcDbLine
 10
147.951903
 20
1181.668041
 30
0.0
 11
147.951903
 21
1161.168041
 31
0.0
  0
LINE
  5
12FC
330
18
100
AcDbEntity
  8
0
100
AcDbLine
 10
139.451603
 20
1148.668041
 30
0.0
 11
139.451603
 21
1150.268041
 31
0.0
  0
LINE
  5
12FD
330
18
100
AcDbEntity
  8
0
100
AcDbLine
 10
139.451603
 20
1154.467941
 30
0.0
 11
139.451603
 21
1152.868140999999
 31
0.0
  0
LINE
  5
12FE
330
18
100
AcDbEntity
  8
0
100
AcDbLine
 10
159.457303
 20
1160.587341
 30
0.0
 11
159.457303
 21
1154.467941
 31
0.0
  0
LINE
  5
12FF
330
18
100
AcDbEntity
  8
0
100
AcDbLine
 10
155.7046029999999
 20
1160.587641
 30
0.0
 11
155.7046029999999
 21
1154.467941
 31
0.0
  0
LINE
  5
1300
330
18
100
AcDbEntity
  8
0
100
AcDbLine
 10
148.199003
 20
1160.587641
 30
0.0
 11
148.199003
 21
1154.467941
 31
0.0
  0
LINE
  5
1301
330
18
100
AcDbEntity
  8
0
100
AcDbLine
 10
144.446303
 20
1160.587641
 30
0.0
 11
144.446303
 21
1154.467941
 31
0.0
  0
LINE
  5
1302
330
18
100
AcDbEntity
  8
0
100
AcDbLine
 10
210.4573029999999
 20
1142.548641
 30
0.0
 11
210.4573029999999
 21
1148.668041
 31
0.0
  0
LINE
  5
1303
330
18
100
AcDbEntity
  8
0
100
AcDbLine
 10
206.7046029999999
 20
1142.548440999999
 30
0.0
 11
206.7046029999999
 21
1148.668041
 31
0.0
  0
LINE
  5
1304
330
18
100
AcDbEntity
  8
0
100
AcDbLine
 10
199.199003
 20
1142.548440999999
 30
0.0
 11
199.199003
 21
1148.668041
 31
0.0
  0
LINE
  5
1305
330
18
100
AcDbEntity
  8
0
100
AcDbLine
 10
195.446303
 20
1142.548440999999
 30
0.0
 11
195.446303
 21
1148.668041
 31
0.0
  0
LINE
  5
1306
330
18
100
AcDbEntity
  8
0
100
AcDbLine
 10
183.225303
 20
1144.714541
 30
0.0
 11
183.225303
 21
1150.268041
 31
0.0
  0
LINE
  5
1307
330
18
100
AcDbEntity
  8
0
100
AcDbLine
 10
180.338603
 20
1144.714541
 30
0.0
 11
180.338603
 21
1150.268041
 31
0.0
  0
LINE
  5
1308
330
18
100
AcDbEntity
  8
0
100
AcDbLine
 10
174.564903
 20
1144.714541
 30
0.0
 11
174.564903
 21
1150.268041
 31
0.0
  0
LINE
  5
1309
330
18
100
AcDbEntity
  8
0
100
AcDbLine
 10
171.678203
 20
1144.714541
 30
0.0
 11
171.678203
 21
1150.268041
 31
0.0
  0
ARC
  5
130B
330
18
100
AcDbEntity
  8
0
100
AcDbCircle
 10
181.781703
 20
1146.823941
 30
0.0
 40
2.555833999999999
100
AcDbArc
 50
235.6159
 51
295.6154799999998
  0
ARC
  5
130C
330
18
100
AcDbEntity
  8
0
100
AcDbCircle
 10
177.451603
 20
1153.821441
 30
0.0
 40
9.553466
100
AcDbArc
 50
252.41212
 51
287.58785
  0
ARC
  5
130D
330
18
100
AcDbEntity
  8
0
100
AcDbCircle
 10
173.1218029999999
 20
1146.823941
 30
0.0
 40
2.555883
100
AcDbArc
 50
244.38495
 51
304.3833
  0
LINE
  5
130E
330
18
100
AcDbEntity
  8
0
100
AcDbLine
 10
174.951603
 20
1144.268141
 30
0.0
 11
174.951603
 21
1134.268041
 31
0.0
  0
LINE
  5
130F
330
18
100
AcDbEntity
  8
0
100
AcDbLine
 10
179.951903
 20
1144.268141
 30
0.0
 11
179.951903
 21
1134.268041
 31
0.0
  0
LINE
  5
1310
330
18
100
AcDbEntity
  8
0
100
AcDbLine
 10
182.451603
 20
1144.267841
 30
0.0
 11
183.225303
 21
1144.714541
 31
0.0
  0
LINE
  5
1311
330
18
100
AcDbEntity
  8
0
100
AcDbLine
 10
172.451903
 20
1144.268141
 30
0.0
 11
182.451603
 21
1144.268141
 31
0.0
  0
LINE
  5
1312
330
18
100
AcDbEntity
  8
0
100
AcDbLine
 10
171.678203
 20
1144.714541
 30
0.0
 11
172.451603
 21
1144.267841
 31
0.0
  0
LINE
  5
1313
330
18
100
AcDbEntity
  8
0
100
AcDbLine
 10
174.451903
 20
1134.268041
 30
0.0
 11
180.451603
 21
1134.268041
 31
0.0
  0
LINE
  5
1314
330
18
100
AcDbEntity
  8
0
100
AcDbLine
 10
180.451603
 20
1144.268141
 30
0.0
 11
180.451603
 21
1134.268041
 31
0.0
  0
LINE
  5
1315
330
18
100
AcDbEntity
  8
0
100
AcDbLine
 10
174.451903
 20
1144.268141
 30
0.0
 11
174.451903
 21
1134.268041
 31
0.0
  0
ARC
  5
1316
330
18
100
AcDbEntity
  8
0
100
AcDbCircle
 10
197.322503
 20
1145.290740999999
 30
0.0
 40
3.322668
100
AcDbArc
 50
244.38552
 51
304.38315
  0
ARC
  5
1317
330
18
100
AcDbEntity
  8
0
100
AcDbCircle
 10
202.9516029999999
 20
1154.387840999999
 30
0.0
 40
12.419868
100
AcDbArc
 50
252.4126399999999
 51
287.58735
  0
ARC
  5
1318
330
18
100
AcDbEntity
  8
0
100
AcDbCircle
 10
208.581003
 20
1145.290641
 30
0.0
 40
3.322595999999998
100
AcDbArc
 50
235.61609
 51
295.61679
  0
LINE
  5
1319
330
18
100
AcDbEntity
  8
0
100
AcDbLine
 10
206.326903
 20
1141.967941
 30
0.0
 11
206.326903
 21
1136.168041
 31
0.0
  0
LINE
  5
131A
330
18
100
AcDbEntity
  8
0
100
AcDbLine
 10
199.576903
 20
1141.967941
 30
0.0
 11
199.576903
 21
1136.168041
 31
0.0
  0
LINE
  5
131B
330
18
100
AcDbEntity
  8
0
100
AcDbLine
 10
206.9516029999999
 20
1141.967941
 30
0.0
 11
206.9516029999999
 21
1136.168041
 31
0.0
  0
LINE
  5
131C
330
18
100
AcDbEntity
  8
0
100
AcDbLine
 10
198.951903
 20
1141.967941
 30
0.0
 11
198.951903
 21
1136.168041
 31
0.0
  0
LINE
  5
131D
330
18
100
AcDbEntity
  8
0
100
AcDbLine
 10
209.451903
 20
1141.967841
 30
0.0
 11
210.4575029999999
 21
1142.548440999999
 31
0.0
  0
LINE
  5
131E
330
18
100
AcDbEntity
  8
0
100
AcDbLine
 10
195.4460029999999
 20
1142.548641
 30
0.0
 11
196.451603
 21
1141.967941
 31
0.0
  0
LINE
  5
131F
330
18
100
AcDbEntity
  8
0
100
AcDbLine
 10
196.451603
 20
1141.967941
 30
0.0
 11
209.451903
 21
1141.967941
 31
0.0
  0
LINE
  5
1320
330
18
100
AcDbEntity
  8
0
100
AcDbLine
 10
198.951903
 20
1136.168041
 30
0.0
 11
206.9516029999999
 21
1136.168041
 31
0.0
  0
LINE
  5
1321
330
18
100
AcDbEntity
  8
0
100
AcDbLine
 10
189.4521029999999
 20
1185.683341
 30
0.0
 11
194.201903
 21
1188.425741
 31
0.0
  0
LINE
  5
1323
330
18
100
AcDbEntity
  8
0
100
AcDbLine
 10
190.451603
 20
1148.668041
 30
0.0
 11
215.4519029999999
 21
1148.668041
 31
0.0
  0
LINE
  5
1324
330
18
100
AcDbEntity
  8
0
100
AcDbLine
 10
190.451603
 20
1154.467941
 30
0.0
 11
215.4519029999999
 21
1154.467941
 31
0.0
  0
LINE
  5
1325
330
18
100
AcDbEntity
  8
0
100
AcDbLine
 10
189.951603
 20
1158.867941
 30
0.0
 11
189.951603
 21
1156.868141
 31
0.0
  0
ARC
  5
1326
330
18
100
AcDbEntity
  8
0
100
AcDbCircle
 10
181.781703
 20
1160.312341
 30
0.0
 40
2.555833999999999
100
AcDbArc
 50
64.384512
 51
124.3840999999999
  0
ARC
  5
1327
330
18
100
AcDbEntity
  8
0
100
AcDbCircle
 10
177.451603
 20
1153.314640999999
 30
0.0
 40
9.553466
100
AcDbArc
 50
72.412142
 51
107.5878799999999
  0
ARC
  5
1328
330
18
100
AcDbEntity
  8
0
100
AcDbCircle
 10
173.1218029999999
 20
1160.312341
 30
0.0
 40
2.555883
100
AcDbArc
 50
55.61669699999999
 51
115.61505
  0
LINE
  5
1329
330
18
100
AcDbEntity
  8
0
100
AcDbLine
 10
182.451603
 20
1162.868140999999
 30
0.0
 11
183.2251029999999
 21
1162.421541
 31
0.0
  0
LINE
  5
132A
330
18
100
AcDbEntity
  8
0
100
AcDbLine
 10
171.678203
 20
1162.421440999998
 30
0.0
 11
172.451603
 21
1162.867941
 31
0.0
  0
LINE
  5
132B
330
18
100
AcDbEntity
  8
0
100
AcDbLine
 10
172.451903
 20
1162.868140999999
 30
0.0
 11
182.451603
 21
1162.868140999999
 31
0.0
  0
LINE
  5
132C
330
18
100
AcDbEntity
  8
0
100
AcDbLine
 10
174.564903
 20
1162.421440999998
 30
0.0
 11
174.564903
 21
1158.867941
 31
0.0
  0
LINE
  5
132D
330
18
100
AcDbEntity
  8
0
100
AcDbLine
 10
180.338603
 20
1162.421440999998
 30
0.0
 11
180.338603
 21
1158.867941
 31
0.0
  0
LINE
  5
132E
330
18
100
AcDbEntity
  8
0
100
AcDbLine
 10
183.225303
 20
1162.421440999998
 30
0.0
 11
183.225303
 21
1158.867941
 31
0.0
  0
LINE
  5
132F
330
18
100
AcDbEntity
  8
0
100
AcDbLine
 10
171.678203
 20
1162.421440999998
 30
0.0
 11
171.678203
 21
1158.867941
 31
0.0
  0
LINE
  5
1330
330
18
100
AcDbEntity
  8
0
100
AcDbLine
 10
184.7016029999999
 20
1188.425741
 30
0.0
 11
184.7016029999999
 21
1192.904841
 31
0.0
  0
LINE
  5
1331
330
18
100
AcDbEntity
  8
0
100
AcDbLine
 10
189.451603
 20
1185.683440999999
 30
0.0
 11
184.701903
 21
1188.425741
 31
0.0
  0
LINE
  5
1332
330
18
100
AcDbEntity
  8
0
100
AcDbLine
 10
164.951903
 20
1158.867941
 30
0.0
 11
164.951903
 21
1156.868141
 31
0.0
  0
LINE
  5
1333
330
18
100
AcDbEntity
  8
0
100
AcDbLine
 10
164.951903
 20
1156.868141
 30
0.0
 11
189.951603
 21
1156.868141
 31
0.0
  0
LINE
  5
1334
330
18
100
AcDbEntity
  8
0
100
AcDbLine
 10
164.951903
 20
1158.867941
 30
0.0
 11
189.951603
 21
1158.867941
 31
0.0
  0
LINE
  5
1335
330
18
100
AcDbEntity
  8
0
100
AcDbLine
 10
190.451603
 20
1148.668041
 30
0.0
 11
190.451603
 21
1150.268041
 31
0.0
  0
LINE
  5
1336
330
18
100
AcDbEntity
  8
0
100
AcDbLine
 10
190.451603
 20
1154.467941
 30
0.0
 11
190.451603
 21
1152.868140999999
 31
0.0
  0
LINE
  5
1337
330
18
100
AcDbEntity
  8
0
100
AcDbLine
 10
164.451903
 20
1148.668041
 30
0.0
 11
164.451903
 21
1150.268041
 31
0.0
  0
LINE
  5
1338
330
18
100
AcDbEntity
  8
0
100
AcDbLine
 10
164.451903
 20
1154.467941
 30
0.0
 11
164.451903
 21
1152.868140999999
 31
0.0
  0
ARC
  5
1339
330
18
100
AcDbEntity
  8
0
100
AcDbCircle
 10
172.451903
 20
1154.868140999999
 30
0.0
 40
2.0
100
AcDbArc
 50
89.999996
 51
270.0
  0
ARC
  5
133A
330
18
100
AcDbEntity
  8
0
100
AcDbCircle
 10
182.451603
 20
1154.868140999999
 30
0.0
 40
2.0
100
AcDbArc
 50
270.0
 51
90.00000300000001
  0
ARC
  5
133B
330
18
100
AcDbEntity
  8
0
100
AcDbCircle
 10
208.581003
 20
1157.845440999998
 30
0.0
 40
3.322595999999998
100
AcDbArc
 50
64.383207
 51
124.38391
  0
ARC
  5
133C
330
18
100
AcDbEntity
  8
0
100
AcDbCircle
 10
202.9516029999999
 20
1148.748241
 30
0.0
 40
12.419868
100
AcDbArc
 50
72.412655
 51
107.5873599999999
  0
ARC
  5
133D
330
18
100
AcDbEntity
  8
0
100
AcDbCircle
 10
197.322503
 20
1157.845440999998
 30
0.0
 40
3.322668
100
AcDbArc
 50
55.616854
 51
115.61448
  0
LINE
  5
133E
330
18
100
AcDbEntity
  8
0
100
AcDbLine
 10
209.451603
 20
1161.168041
 30
0.0
 11
210.4573029999999
 21
1160.587441
 31
0.0
  0
LINE
  5
133F
330
18
100
AcDbEntity
  8
0
100
AcDbLine
 10
195.446303
 20
1160.587441
 30
0.0
 11
196.451603
 21
1161.168041
 31
0.0
  0
LINE
  5
1340
330
18
100
AcDbEntity
  8
0
100
AcDbLine
 10
196.451603
 20
1161.168041
 30
0.0
 11
209.451903
 21
1161.168041
 31
0.0
  0
LINE
  5
1341
330
18
100
AcDbEntity
  8
0
100
AcDbLine
 10
206.9516029999999
 20
1181.668041
 30
0.0
 11
206.9516029999999
 21
1161.168041
 31
0.0
  0
LINE
  5
1342
330
18
100
AcDbEntity
  8
0
100
AcDbLine
 10
198.951903
 20
1181.668041
 30
0.0
 11
198.951903
 21
1161.168041
 31
0.0
  0
LINE
  5
1343
330
18
100
AcDbEntity
  8
0
100
AcDbLine
 10
194.2016029999999
 20
1188.425741
 30
0.0
 11
194.2016029999999
 21
1193.910441
 31
0.0
  0
LINE
  5
1344
330
18
100
AcDbEntity
  8
0
100
AcDbLine
 10
215.4519029999999
 20
1148.668041
 30
0.0
 11
215.4519029999999
 21
1150.268041
 31
0.0
  0
LINE
  5
1345
330
18
100
AcDbEntity
  8
0
100
AcDbLine
 10
215.4519029999999
 20
1154.467941
 30
0.0
 11
215.4519029999999
 21
1152.868140999999
 31
0.0
  0
LINE
  5
1346
330
18
100
AcDbEntity
  8
0
100
AcDbLine
 10
210.4573029999999
 20
1160.587341
 30
0.0
 11
210.4573029999999
 21
1154.467941
 31
0.0
  0
LINE
  5
1347
330
18
100
AcDbEntity
  8
0
100
AcDbLine
 10
206.7046029999999
 20
1160.587641
 30
0.0
 11
206.7046029999999
 21
1154.467941
 31
0.0
  0
LINE
  5
1348
330
18
100
AcDbEntity
  8
0
100
AcDbLine
 10
199.199003
 20
1160.587641
 30
0.0
 11
199.199003
 21
1154.467941
 31
0.0
  0
LINE
  5
1349
330
18
100
AcDbEntity
  8
0
100
AcDbLine
 10
195.446303
 20
1160.587641
 30
0.0
 11
195.446303
 21
1154.467941
 31
0.0
  0
LINE
  5
134A
330
18
100
AcDbEntity
  8
0
100
AcDbLine
 10
227.5517029999999
 20
1162.668040999998
 30
0.0
 11
227.5517029999999
 21
1125.377741
 31
0.0
  0
LINE
  5
134B
330
18
100
AcDbEntity
  8
0
100
AcDbLine
 10
249.9516029999999
 20
1165.268041
 30
0.0
 11
249.9516029999999
 21
1116.256941
 31
0.0
  0
LINE
  5
134D
330
18
100
AcDbEntity
  8
0
100
AcDbLine
 10
249.9516029999999
 20
1150.168040999999
 30
0.0
 11
268.9519029999999
 21
1150.168040999999
 31
0.0
  0
LINE
  5
134E
330
18
100
AcDbEntity
  8
0
100
AcDbLine
 10
227.5517029999999
 20
1162.668040999998
 30
0.0
 11
249.9516029999999
 21
1162.668040999998
 31
0.0
  0
LINE
  5
134F
330
18
100
AcDbEntity
  8
0
100
AcDbLine
 10
227.9519029999999
 20
1165.268041
 30
0.0
 11
249.9516029999999
 21
1165.268041
 31
0.0
  0
LINE
  5
1350
330
18
100
AcDbEntity
  8
0
100
AcDbLine
 10
224.951903
 20
1162.268041
 30
0.0
 11
224.951903
 21
1152.868140999999
 31
0.0
  0
LINE
  5
1353
330
18
100
AcDbEntity
  8
0
100
AcDbLine
 10
61.951903
 20
1295.167940999998
 30
0.0
 11
316.9518029999998
 21
1295.167940999998
 31
0.0
  0
LINE
  5
1354
330
18
100
AcDbEntity
  8
0
100
AcDbLine
 10
65.951603
 20
1291.168040999999
 30
0.0
 11
312.9519029999999
 21
1291.168040999999
 31
0.0
  0
LINE
  5
1355
330
18
100
AcDbEntity
  8
0
100
AcDbLine
 10
65.451903
 20
1287.168041
 30
0.0
 11
313.4518029999998
 21
1287.168041
 31
0.0
  0
LINE
  5
1356
330
18
100
AcDbEntity
  8
0
100
AcDbLine
 10
65.451903
 20
1277.168041
 30
0.0
 11
315.4516029999998
 21
1277.168041
 31
0.0
  0
LINE
  5
1357
330
18
100
AcDbEntity
  8
0
100
AcDbLine
 10
67.451903
 20
1223.167941
 30
0.0
 11
349.451803
 21
1223.167941
 31
0.0
  0
LINE
  5
1358
330
18
100
AcDbEntity
  8
0
100
AcDbLine
 10
65.451903
 20
1255.167941
 30
0.0
 11
209.451903
 21
1255.167941
 31
0.0
  0
LINE
  5
1359
330
18
100
AcDbEntity
  8
0
100
AcDbLine
 10
61.95160300000001
 20
1295.167940999998
 30
0.0
 11
65.951603
 21
1291.167941
 31
0.0
  0
ARC
  5
135A
330
18
100
AcDbEntity
  8
0
100
AcDbCircle
 10
67.451903
 20
1239.168041
 30
0.0
 40
16.0
100
AcDbArc
 50
90.00000300000001
 51
270.0
  0
LINE
  5
135B
330
18
100
AcDbEntity
  8
0
100
AcDbLine
 10
65.951903
 20
1291.168040999999
 30
0.0
 11
65.951903
 21
1287.168041
 31
0.0
  0
LINE
  5
135C
330
18
100
AcDbEntity
  8
0
100
AcDbLine
 10
65.451903
 20
1255.167941
 30
0.0
 11
65.451903
 21
1287.168041
 31
0.0
  0
LINE
  5
135E
330
18
100
AcDbEntity
  8
0
100
AcDbLine
 10
459.4519029999998
 20
1628.167941
 30
0.0
 11
459.4519029999998
 21
1365.167941
 31
0.0
  0
LINE
  5
135F
330
18
100
AcDbEntity
  8
0
100
AcDbLine
 10
491.451903
 20
1628.167941
 30
0.0
 11
491.451903
 21
1365.167941
 31
0.0
  0
ARC
  5
1362
330
18
100
AcDbEntity
  8
0
100
AcDbCircle
 10
349.451803
 20
1365.167941
 30
0.0
 40
110.0
100
AcDbArc
 50
270.0
 51
0.0
  0
ARC
  5
1363
330
18
100
AcDbEntity
  8
0
100
AcDbCircle
 10
349.451803
 20
1365.167941
 30
0.0
 40
142.0
100
AcDbArc
 50
270.0
 51
0.0
  0
LINE
  5
1365
330
18
100
AcDbEntity
  8
0
100
AcDbLine
 10
120.089603
 20
1325.167841
 30
0.0
 11
259.1140029999999
 21
1325.167841
 31
0.0
  0
LINE
  5
1366
330
18
100
AcDbEntity
  8
0
100
AcDbLine
 10
116.8054029999999
 20
1321.167841
 30
0.0
 11
262.5967029999999
 21
1321.167841
 31
0.0
  0
LINE
  5
1367
330
18
100
AcDbEntity
  8
0
100
AcDbLine
 10
116.202903
 20
1347.167941
 30
0.0
 11
262.7007029999999
 21
1347.167941
 31
0.0
  0
LINE
  5
1368
330
18
100
AcDbEntity
  8
0
100
AcDbLine
 10
222.4516029999999
 20
1277.168041
 30
0.0
 11
236.4516029999999
 21
1242.168141
 31
0.0
  0
LINE
  5
136A
330
18
100
AcDbEntity
  8
0
100
AcDbLine
 10
200.430203
 20
1200.168040999999
 30
0.0
 11
297.9519029999999
 21
1200.168040999999
 31
0.0
  0
LINE
  5
136B
330
18
100
AcDbEntity
  8
0
100
AcDbLine
 10
222.4516029999999
 20
1248.168141
 30
0.0
 11
222.4516029999999
 21
1277.168041
 31
0.0
  0
LINE
  5
136C
330
18
100
AcDbEntity
  8
0
100
AcDbLine
 10
209.451903
 20
1255.168041
 30
0.0
 11
209.451903
 21
1277.168041
 31
0.0
  0
LINE
  5
136D
330
18
100
AcDbEntity
  8
0
100
AcDbLine
 10
114.3430029999999
 20
1326.010941
 30
0.0
 11
115.412603
 21
1346.418040999999
 31
0.0
  0
ARC
  5
136E
330
18
100
AcDbEntity
  8
0
100
AcDbCircle
 10
113.934103
 20
1320.754241
 30
0.0
 40
3.0
100
AcDbArc
 50
115.54292
 51
176.99999
  0
ARC
  5
136F
330
18
100
AcDbEntity
  8
0
100
AcDbCircle
 10
111.346903
 20
1326.167841
 30
0.0
 40
3.0
100
AcDbArc
 50
295.54292
 51
357.0
  0
LINE
  5
1370
330
18
100
AcDbEntity
  8
0
100
AcDbLine
 10
109.589103
 20
1295.167940999998
 30
0.0
 11
110.938203
 21
1320.911441
 31
0.0
  0
LINE
  5
1372
330
18
100
AcDbEntity
  8
0
100
AcDbLine
 10
312.9518029999998
 20
1291.167941
 30
0.0
 11
316.951603
 21
1295.167841
 31
0.0
  0
LINE
  5
1374
330
18
100
AcDbEntity
  8
0
100
AcDbLine
 10
270.4516029999999
 20
1268.167940999999
 30
0.0
 11
295.4516029999998
 21
1268.167940999999
 31
0.0
  0
ARC
  5
1375
330
18
100
AcDbEntity
  8
0
100
AcDbCircle
 10
283.9519029999999
 20
1228.487741
 30
0.0
 40
12.419868
100
AcDbArc
 50
252.4126399999999
 51
287.58735
  0
LINE
  5
1376
330
18
100
AcDbEntity
  8
0
100
AcDbLine
 10
277.451603
 20
1216.067941
 30
0.0
 11
290.4519029999999
 21
1216.067941
 31
0.0
  0
LINE
  5
1377
330
18
100
AcDbEntity
  8
0
100
AcDbLine
 10
289.5857029999999
 20
1215.568041
 30
0.0
 11
278.3178029999999
 21
1215.568041
 31
0.0
  0
LINE
  5
1378
330
18
100
AcDbEntity
  8
0
100
AcDbLine
 10
288.585703
 20
1213.568041
 30
0.0
 11
279.3176029999999
 21
1213.568041
 31
0.0
  0
LINE
  5
1379
330
18
100
AcDbEntity
  8
0
100
AcDbLine
 10
292.9516029999998
 20
1221.568041
 30
0.0
 11
274.9516029999999
 21
1221.568041
 31
0.0
  0
LINE
  5
137A
330
18
100
AcDbEntity
  8
0
100
AcDbLine
 10
229.451603
 20
1240.168040999999
 30
0.0
 11
315.4516029999998
 21
1240.168040999999
 31
0.0
  0
LINE
  5
137D
330
18
100
AcDbEntity
  8
0
100
AcDbLine
 10
248.131803
 20
1200.168040999999
 30
0.0
 11
248.131803
 21
1223.167941
 31
0.0
  0
LINE
  5
137E
330
18
100
AcDbEntity
  8
0
100
AcDbLine
 10
246.0105029999999
 20
1200.168040999999
 30
0.0
 11
246.0105029999999
 21
1223.167941
 31
0.0
  0
LINE
  5
137F
330
18
100
AcDbEntity
  8
0
100
AcDbLine
 10
243.535103
 20
1200.168040999999
 30
0.0
 11
243.535103
 21
1223.167941
 31
0.0
  0
ARC
  5
1380
330
18
100
AcDbEntity
  8
0
100
AcDbCircle
 10
279.3176029999999
 20
1214.567941
 30
0.0
 40
1.0
100
AcDbArc
 50
179.9999899999999
 51
270.0
  0
ARC
  5
1381
330
18
100
AcDbEntity
  8
0
100
AcDbCircle
 10
278.322503
 20
1219.390841
 30
0.0
 40
3.322668
100
AcDbArc
 50
244.38552
 51
304.38315
  0
LINE
  5
1382
330
18
100
AcDbEntity
  8
0
100
AcDbLine
 10
278.3178029999999
 20
1215.568041
 30
0.0
 11
278.3178029999999
 21
1214.567941
 31
0.0
  0
LINE
  5
1383
330
18
100
AcDbEntity
  8
0
100
AcDbLine
 10
276.4463029999999
 20
1216.648541
 30
0.0
 11
278.3176029999999
 21
1215.568041
 31
0.0
  0
LINE
  5
1384
330
18
100
AcDbEntity
  8
0
100
AcDbLine
 10
280.199003
 20
1216.648541
 30
0.0
 11
280.199003
 21
1221.568041
 31
0.0
  0
LINE
  5
1385
330
18
100
AcDbEntity
  8
0
100
AcDbLine
 10
276.4463029999999
 20
1216.648541
 30
0.0
 11
276.4463029999999
 21
1221.568041
 31
0.0
  0
LINE
  5
1386
330
18
100
AcDbEntity
  8
0
100
AcDbLine
 10
279.3017029999999
 20
1223.167941
 30
0.0
 11
279.3017029999999
 21
1221.568041
 31
0.0
  0
LINE
  5
1387
330
18
100
AcDbEntity
  8
0
100
AcDbLine
 10
274.9516029999999
 20
1223.167941
 30
0.0
 11
274.9516029999999
 21
1221.568041
 31
0.0
  0
LINE
  5
1388
330
18
100
AcDbEntity
  8
0
100
AcDbLine
 10
270.4516029999999
 20
1261.168141
 30
0.0
 11
270.4516029999999
 21
1277.168041
 31
0.0
  0
LINE
  5
1389
330
18
100
AcDbEntity
  8
0
100
AcDbLine
 10
315.4516029999998
 20
1240.168040999999
 30
0.0
 11
315.4516029999998
 21
1277.168041
 31
0.0
  0
ARC
  5
138A
330
18
100
AcDbEntity
  8
0
100
AcDbCircle
 10
288.585703
 20
1214.567941
 30
0.0
 40
1.0
100
AcDbArc
 50
270.0
 51
0.000003
  0
ARC
  5
138B
330
18
100
AcDbEntity
  8
0
100
AcDbCircle
 10
289.5808029999999
 20
1219.390441
 30
0.0
 40
3.322595999999998
100
AcDbArc
 50
235.61609
 51
295.61679
  0
LINE
  5
138C
330
18
100
AcDbEntity
  8
0
100
AcDbLine
 10
297.9519029999999
 20
1200.168040999999
 30
0.0
 11
297.9519029999999
 21
1223.167941
 31
0.0
  0
LINE
  5
138D
330
18
100
AcDbEntity
  8
0
100
AcDbLine
 10
289.5857029999999
 20
1215.568041
 30
0.0
 11
289.5857029999999
 21
1214.567941
 31
0.0
  0
LINE
  5
138E
330
18
100
AcDbEntity
  8
0
100
AcDbLine
 10
289.5854029999998
 20
1215.568041
 30
0.0
 11
291.4570029999998
 21
1216.648641
 31
0.0
  0
LINE
  5
138F
330
18
100
AcDbEntity
  8
0
100
AcDbLine
 10
291.4573029999999
 20
1216.648541
 30
0.0
 11
291.4573029999999
 21
1221.568041
 31
0.0
  0
LINE
  5
1390
330
18
100
AcDbEntity
  8
0
100
AcDbLine
 10
287.7046029999998
 20
1216.648541
 30
0.0
 11
287.7046029999998
 21
1221.568041
 31
0.0
  0
LINE
  5
1391
330
18
100
AcDbEntity
  8
0
100
AcDbLine
 10
288.6018029999998
 20
1223.167941
 30
0.0
 11
288.6018029999998
 21
1221.568041
 31
0.0
  0
LINE
  5
1392
330
18
100
AcDbEntity
  8
0
100
AcDbLine
 10
292.9516029999998
 20
1223.167941
 30
0.0
 11
292.9516029999998
 21
1221.568041
 31
0.0
  0
LINE
  5
1393
330
18
100
AcDbEntity
  8
0
100
AcDbLine
 10
315.4516029999998
 20
1255.167941
 30
0.0
 11
349.451803
 21
1255.167941
 31
0.0
  0
ARC
  5
1394
330
18
100
AcDbEntity
  8
0
100
AcDbCircle
 10
312.4516029999998
 20
1278.168141
 30
0.0
 40
1.0
100
AcDbArc
 50
270.0
 51
0.0
  0
LINE
  5
1395
330
18
100
AcDbEntity
  8
0
100
AcDbLine
 10
312.9519029999999
 20
1291.168040999999
 30
0.0
 11
312.9519029999999
 21
1287.168041
 31
0.0
  0
LINE
  5
1396
330
18
100
AcDbEntity
  8
0
100
AcDbLine
 10
313.4518029999998
 20
1278.168141
 30
0.0
 11
313.4518029999998
 21
1287.168041
 31
0.0
  0
ARC
  5
1397
330
18
100
AcDbEntity
  8
0
100
AcDbCircle
 10
299.4516029999998
 20
1263.168141
 30
0.0
 40
2.0
100
AcDbArc
 50
179.9999899999999
 51
270.0
  0
ARC
  5
1398
330
18
100
AcDbEntity
  8
0
100
AcDbCircle
 10
295.4516029999998
 20
1266.168041
 30
0.0
 40
2.0
100
AcDbArc
 50
0.0
 51
90.00000300000001
  0
LINE
  5
1399
330
18
100
AcDbEntity
  8
0
100
AcDbLine
 10
297.4516029999998
 20
1263.168141
 30
0.0
 11
297.4516029999998
 21
1266.168041
 31
0.0
  0
LINE
  5
139A
330
18
100
AcDbEntity
  8
0
100
AcDbLine
 10
299.4516029999998
 20
1261.168141
 30
0.0
 11
315.4516029999998
 21
1261.168141
 31
0.0
  0
LINE
  5
139B
330
18
100
AcDbEntity
  8
0
100
AcDbLine
 10
264.560503
 20
1326.010841
 30
0.0
 11
263.490903
 21
1346.417941
 31
0.0
  0
ARC
  5
139C
330
18
100
AcDbEntity
  8
0
100
AcDbCircle
 10
267.556603
 20
1326.167841
 30
0.0
 40
3.0
100
AcDbArc
 50
183.00001
 51
244.45708
  0
ARC
  5
139D
330
18
100
AcDbEntity
  8
0
100
AcDbCircle
 10
264.969203
 20
1320.754241
 30
0.0
 40
3.0
100
AcDbArc
 50
3.0
 51
64.457076
  0
LINE
  5
139E
330
18
100
AcDbEntity
  8
0
100
AcDbLine
 10
269.3142029999999
 20
1295.167940999998
 30
0.0
 11
267.965103
 21
1320.911341
 31
0.0
  0
LINE
  5
13A1
330
18
100
AcDbEntity
  8
0
100
AcDbLine
 10
459.4519029999998
 20
1623.167940999999
 30
0.0
 11
491.451903
 21
1623.167940999999
 31
0.0
  0
LINE
  5
13A2
330
18
100
AcDbEntity
  8
0
100
AcDbLine
 10
459.4519029999998
 20
1628.167941
 30
0.0
 11
491.451903
 21
1628.167941
 31
0.0
  0
LINE
  5
13A4
330
18
100
AcDbEntity
  8
0
100
AcDbLine
 10
1287.475602999998
 20
1193.910540999999
 30
0.0
 11
1282.725702999998
 21
1196.652941
 31
0.0
  0
LINE
  5
13A5
330
18
100
AcDbEntity
  8
0
100
AcDbLine
 10
1282.725903
 20
1196.652741
 30
0.0
 11
1277.976103
 21
1193.910441
 31
0.0
  0
CIRCLE
  5
13A6
330
18
100
AcDbEntity
  8
0
100
AcDbCircle
 10
1282.725702999998
 20
1191.168040999998
 30
0.0
 40
6.5
  0
LINE
  5
13A7
330
18
100
AcDbEntity
  8
0
100
AcDbLine
 10
1362.225813
 20
1150.168040999999
 30
0.0
 11
1362.225813
 21
1200.168040999999
 31
0.0
  0
LINE
  5
13A8
330
18
100
AcDbEntity
  8
0
100
AcDbLine
 10
1203.225702999999
 20
1150.168040999999
 30
0.0
 11
1203.225702999999
 21
1200.168040999999
 31
0.0
  0
CIRCLE
  5
13A9
330
18
100
AcDbEntity
  8
0
100
AcDbCircle
 10
1380.725753
 20
1207.168041
 30
0.0
 40
16.0
  0
LINE
  5
13AC
330
18
100
AcDbEntity
  8
0
100
AcDbLine
 10
832.725703
 20
1207.168041
 30
0.0
 11
832.725703
 21
1165.268041
 31
0.0
  0
LINE
  5
13AD
330
18
100
AcDbEntity
  8
0
100
AcDbLine
 10
840.725703
 20
1207.168041
 30
0.0
 11
840.725703
 21
1165.268041
 31
0.0
  0
LINE
  5
13AE
330
18
100
AcDbEntity
  8
0
100
AcDbLine
 10
816.7258030000001
 20
1223.167941
 30
0.0
 11
816.7258030000001
 21
1191.168040999998
 31
0.0
  0
LINE
  5
13B6
330
18
100
AcDbEntity
  8
0
100
AcDbLine
 10
840.725703
 20
1191.168040999998
 30
0.0
 11
986.9169150000001
 21
1191.168040999998
 31
0.0
  0
LINE
  5
13B7
330
18
100
AcDbEntity
  8
0
100
AcDbLine
 10
882.0257029999996
 20
817.225241
 30
0.0
 11
882.0257029999996
 21
783.2252409999998
 31
0.0
  0
LINE
  5
13B8
330
18
100
AcDbEntity
  8
0
100
AcDbLine
 10
861.0257029999997
 20
803.725241
 30
0.0
 11
861.0257029999997
 21
790.7254410000001
 31
0.0
  0
LINE
  5
13B9
330
18
100
AcDbEntity
  8
0
100
AcDbLine
 10
866.0257029999996
 20
817.225241
 30
0.0
 11
866.0257029999996
 21
783.2252409999998
 31
0.0
  0
LINE
  5
13BA
330
18
100
AcDbEntity
  8
0
100
AcDbLine
 10
837.6105029999999
 20
765.8203409999998
 30
0.0
 11
779.7853029999998
 21
904.915841
 31
0.0
  0
LINE
  5
13BB
330
18
100
AcDbEntity
  8
0
100
AcDbLine
 10
832.282103
 20
770.822041
 30
0.0
 11
772.232603
 21
915.268041
 31
0.0
  0
LINE
  5
13BC
330
18
100
AcDbEntity
  8
0
100
AcDbLine
 10
885.025903
 20
1140.268041
 30
0.0
 11
885.025903
 21
668.2680709999998
 31
0.0
  0
LINE
  5
13BD
330
18
100
AcDbEntity
  8
0
100
AcDbLine
 10
900.025903
 20
1155.268041
 30
0.0
 11
900.025903
 21
654.7680109999999
 31
0.0
  0
LINE
  5
13BE
330
18
100
AcDbEntity
  8
0
100
AcDbLine
 10
897.7258029999998
 20
1155.268041
 30
0.0
 11
897.7258029999998
 21
654.7680109999999
 31
0.0
  0
LINE
  5
13BF
330
18
100
AcDbEntity
  8
0
100
AcDbLine
 10
827.525203
 20
753.088741
 30
0.0
 11
852.525003
 21
753.088741
 31
0.0
  0
LINE
  5
13C0
330
18
100
AcDbEntity
  8
0
100
AcDbLine
 10
827.5256030000001
 20
662.268011
 30
0.0
 11
852.5256029999997
 21
662.268011
 31
0.0
  0
LINE
  5
13C1
330
18
100
AcDbEntity
  8
0
100
AcDbLine
 10
823.5257029999997
 20
631.668041
 30
0.0
 11
856.5257029999997
 21
631.668041
 31
0.0
  0
LINE
  5
13C2
330
18
100
AcDbEntity
  8
0
100
AcDbLine
 10
825.025903
 20
651.2680709999998
 30
0.0
 11
877.0257029999998
 21
651.2680709999998
 31
0.0
  0
LINE
  5
13C3
330
18
100
AcDbEntity
  8
0
100
AcDbLine
 10
825.025903
 20
658.2680709999998
 30
0.0
 11
875.0256029999999
 21
658.2680709999998
 31
0.0
  0
LINE
  5
13C4
330
18
100
AcDbEntity
  8
0
100
AcDbLine
 10
825.025903
 20
638.2680709999998
 30
0.0
 11
877.0257029999998
 21
638.2680709999998
 31
0.0
  0
LINE
  5
13C5
330
18
100
AcDbEntity
  8
0
100
AcDbLine
 10
846.525903
 20
617.668041
 30
0.0
 11
861.0257029999997
 21
628.6679709999998
 31
0.0
  0
LINE
  5
13C6
330
18
100
AcDbEntity
  8
0
100
AcDbLine
 10
819.0257029999997
 20
628.6681009999998
 30
0.0
 11
861.0257029999997
 21
628.6681009999998
 31
0.0
  0
LINE
  5
13D0
330
18
100
AcDbEntity
  8
0
100
AcDbLine
 10
841.5258029999996
 20
617.668041
 30
0.0
 11
841.5258029999996
 21
353.2714159999998
 31
0.0
  0
LINE
  5
13D3
330
18
100
AcDbEntity
  8
0
100
AcDbLine
 10
835.5258029999998
 20
373.494509
 30
0.0
 11
835.5258029999998
 21
353.10361
 31
0.0
  0
LINE
  5
13DC
330
18
100
AcDbEntity
  8
0
100
AcDbLine
 10
830.032203
 20
662.268011
 30
0.0
 11
830.032203
 21
753.078241
 31
0.0
  0
LINE
  5
13DD
330
18
100
AcDbEntity
  8
0
100
AcDbLine
 10
825.025903
 20
658.2680709999998
 30
0.0
 11
825.025903
 21
638.2680709999998
 31
0.0
  0
LINE
  5
13DE
330
18
100
AcDbEntity
  8
0
100
AcDbLine
 10
819.0257029999997
 20
642.668041
 30
0.0
 11
823.5257029999997
 21
639.668041
 31
0.0
  0
LINE
  5
13DF
330
18
100
AcDbEntity
  8
0
100
AcDbLine
 10
825.025703
 20
647.2197309999998
 30
0.0
 11
819.0259029999998
 21
642.668101
 31
0.0
  0
LINE
  5
13E0
330
18
100
AcDbEntity
  8
0
100
AcDbLine
 10
823.5257029999997
 20
639.6679709999999
 30
0.0
 11
825.025903
 21
639.6679709999999
 31
0.0
  0
LINE
  5
13E1
330
18
100
AcDbEntity
  8
0
100
AcDbLine
 10
823.5257029999997
 20
639.6679709999999
 30
0.0
 11
823.5257029999997
 21
631.668041
 31
0.0
  0
LINE
  5
13E2
330
18
100
AcDbEntity
  8
0
100
AcDbLine
 10
819.0257029999997
 20
642.668041
 30
0.0
 11
825.025903
 21
642.668041
 31
0.0
  0
LINE
  5
13E3
330
18
100
AcDbEntity
  8
0
100
AcDbLine
 10
833.5257030000001
 20
617.668041
 30
0.0
 11
819.0259029999998
 21
628.6679709999998
 31
0.0
  0
LINE
  5
13E5
330
18
100
AcDbEntity
  8
0
100
AcDbLine
 10
819.025603
 20
628.668041
 30
0.0
 11
823.5257029999997
 21
631.6681009999999
 31
0.0
  0
LINE
  5
13E6
330
18
100
AcDbEntity
  8
0
100
AcDbLine
 10
827.5256030000001
 20
662.268011
 30
0.0
 11
827.5256030000001
 21
658.2680709999998
 31
0.0
  0
LINE
  5
13E7
330
18
100
AcDbEntity
  8
0
100
AcDbLine
 10
827.532303
 20
753.078241
 30
0.0
 11
827.532303
 21
778.2143409999998
 31
0.0
  0
LINE
  5
1419
330
18
100
AcDbEntity
  8
0
100
AcDbLine
 10
850.032303
 20
662.268011
 30
0.0
 11
850.032303
 21
753.078241
 31
0.0
  0
ARC
  5
141A
330
18
100
AcDbEntity
  8
0
100
AcDbCircle
 10
890.0256029999997
 20
654.7680109999999
 30
0.0
 40
7.7
100
AcDbArc
 50
270.0
 51
0.0
  0
ARC
  5
141B
330
18
100
AcDbEntity
  8
0
100
AcDbCircle
 10
890.0256029999997
 20
654.7680109999999
 30
0.0
 40
10.0
100
AcDbArc
 50
270.0
 51
0.0
  0
LINE
  5
141C
330
18
100
AcDbEntity
  8
0
100
AcDbLine
 10
877.0257029999998
 20
647.068061
 30
0.0
 11
890.0256029999997
 21
647.068061
 31
0.0
  0
LINE
  5
141D
330
18
100
AcDbEntity
  8
0
100
AcDbLine
 10
877.0257029999998
 20
644.768071
 30
0.0
 11
890.0256029999997
 21
644.768071
 31
0.0
  0
LINE
  5
141E
330
18
100
AcDbEntity
  8
0
100
AcDbLine
 10
877.0257029999998
 20
651.2680709999998
 30
0.0
 11
877.0257029999998
 21
638.2680709999998
 31
0.0
  0
LINE
  5
141F
330
18
100
AcDbEntity
  8
0
100
AcDbLine
 10
856.5257029999997
 20
638.2680709999998
 30
0.0
 11
856.5257029999997
 21
631.668041
 31
0.0
  0
LINE
  5
1420
330
18
100
AcDbEntity
  8
0
100
AcDbLine
 10
861.025603
 20
628.6681009999998
 30
0.0
 11
856.5257029999997
 21
631.668041
 31
0.0
  0
ARC
  5
1421
330
18
100
AcDbEntity
  8
0
100
AcDbCircle
 10
875.0256029999999
 20
668.2680709999998
 30
0.0
 40
10.0
100
AcDbArc
 50
270.0
 51
0.0
  0
LINE
  5
1422
330
18
100
AcDbEntity
  8
0
100
AcDbLine
 10
852.5256029999997
 20
662.268011
 30
0.0
 11
852.5256029999997
 21
658.2680709999998
 31
0.0
  0
LINE
  5
1423
330
18
100
AcDbEntity
  8
0
100
AcDbLine
 10
852.5256029999997
 20
661.4959809999998
 30
0.0
 11
852.5256029999997
 21
658.2680709999998
 31
0.0
  0
LINE
  5
1424
330
18
100
AcDbEntity
  8
0
100
AcDbLine
 10
866.0257029999996
 20
783.2252409999998
 30
0.0
 11
882.0257029999996
 21
783.2252409999998
 31
0.0
  0
LINE
  5
1426
330
18
100
AcDbEntity
  8
0
100
AcDbLine
 10
861.0257029999997
 20
790.7254410000001
 30
0.0
 11
866.0257029999996
 21
790.7254410000001
 31
0.0
  0
LINE
  5
1427
330
18
100
AcDbEntity
  8
0
100
AcDbLine
 10
852.5322029999998
 20
753.078241
 30
0.0
 11
852.5322029999998
 21
778.215441
 31
0.0
  0
LINE
  5
1428
330
18
100
AcDbEntity
  8
0
100
AcDbLine
 10
882.0257029999996
 20
786.225441
 30
0.0
 11
885.025903
 21
786.225441
 31
0.0
  0
LINE
  5
1429
330
18
100
AcDbEntity
  8
0
100
AcDbLine
 10
882.0257029999996
 20
789.225441
 30
0.0
 11
885.025903
 21
789.225441
 31
0.0
  0
LINE
  5
142A
330
18
100
AcDbEntity
  8
0
100
AcDbLine
 10
837.795303
 20
825.403041
 30
0.0
 11
851.025903
 21
1066.350440999998
 31
0.0
  0
LINE
  5
142B
330
18
100
AcDbEntity
  8
0
100
AcDbLine
 10
765.758303
 20
924.142441
 30
0.0
 11
851.025703
 21
807.268041
 31
0.0
  0
LINE
  5
142C
330
18
100
AcDbEntity
  8
0
100
AcDbLine
 10
772.5609030000001
 20
1031.495840999999
 30
0.0
 11
851.025703
 21
1130.281941
 31
0.0
  0
LINE
  5
142E
330
18
100
AcDbEntity
  8
0
100
AcDbLine
 10
780.725703
 20
1150.268041
 30
0.0
 11
875.0256029999999
 21
1150.268041
 31
0.0
  0
LINE
  5
142F
330
18
100
AcDbEntity
  8
0
100
AcDbLine
 10
780.725703
 20
1162.668040999998
 30
0.0
 11
892.1542029999997
 21
1162.668040999998
 31
0.0
  0
LINE
  5
1430
330
18
100
AcDbEntity
  8
0
100
AcDbLine
 10
780.725703
 20
1165.268041
 30
0.0
 11
890.0256029999997
 21
1165.268041
 31
0.0
  0
LINE
  5
1431
330
18
100
AcDbEntity
  8
0
100
AcDbLine
 10
831.320803
 20
834.277241
 30
0.0
 11
847.3183029999999
 21
1125.614041
 31
0.0
  0
LINE
  5
1432
330
18
100
AcDbEntity
  8
0
100
AcDbLine
 10
824.8463029999998
 20
843.151641
 30
0.0
 11
839.8396029999997
 21
1116.198540999999
 31
0.0
  0
LINE
  5
1433
330
18
100
AcDbEntity
  8
0
100
AcDbLine
 10
818.3718029999999
 20
852.025841
 30
0.0
 11
832.360803
 21
1106.783040999999
 31
0.0
  0
LINE
  5
1434
330
18
100
AcDbEntity
  8
0
100
AcDbLine
 10
798.949003
 20
878.6487409999999
 30
0.0
 11
809.9249029999999
 21
1078.536341
 31
0.0
  0
LINE
  5
1435
330
18
100
AcDbEntity
  8
0
100
AcDbLine
 10
792.474503
 20
887.523241
 30
0.0
 11
802.4461029999999
 21
1069.120840999999
 31
0.0
  0
LINE
  5
1436
330
18
100
AcDbEntity
  8
0
100
AcDbLine
 10
786.0001030000002
 20
896.397441
 30
0.0
 11
794.967503
 21
1059.705241
 31
0.0
  0
LINE
  5
1437
330
18
100
AcDbEntity
  8
0
100
AcDbLine
 10
765.758303
 20
924.142241
 30
0.0
 11
771.585803
 21
1030.268141
 31
0.0
  0
LINE
  5
1438
330
18
100
AcDbEntity
  8
0
100
AcDbLine
 10
772.2328029999999
 20
915.268041
 30
0.0
 11
779.064603
 21
1039.683641
 31
0.0
  0
LINE
  5
1439
330
18
100
AcDbEntity
  8
0
100
AcDbLine
 10
779.525603
 20
905.271641
 30
0.0
 11
787.4886029999998
 21
1050.289741
 31
0.0
  0
LINE
  5
143A
330
18
100
AcDbEntity
  8
0
100
AcDbLine
 10
757.025703
 20
1022.768041
 30
0.0
 11
757.025703
 21
915.268041
 31
0.0
  0
LINE
  5
143B
330
18
100
AcDbEntity
  8
0
100
AcDbLine
 10
751.025703
 20
1022.768041
 30
0.0
 11
751.025703
 21
915.268041
 31
0.0
  0
LINE
  5
143C
330
18
100
AcDbEntity
  8
0
100
AcDbLine
 10
811.897603
 20
860.9003409999997
 30
0.0
 11
824.8822029999999
 21
1097.367541
 31
0.0
  0
LINE
  5
143D
330
18
100
AcDbEntity
  8
0
100
AcDbLine
 10
805.423103
 20
869.774441
 30
0.0
 11
817.4034029999997
 21
1087.951841
 31
0.0
  0
LINE
  5
143E
330
18
100
AcDbEntity
  8
0
100
AcDbLine
 10
751.025703
 20
915.268041
 30
0.0
 11
757.025703
 21
915.268041
 31
0.0
  0
LINE
  5
143F
330
18
100
AcDbEntity
  8
0
100
AcDbLine
 10
757.025703
 20
925.272541
 30
0.0
 11
767.037203
 21
925.272541
 31
0.0
  0
LINE
  5
1440
330
18
100
AcDbEntity
  8
0
100
AcDbLine
 10
751.025703
 20
1022.768041
 30
0.0
 11
757.025703
 21
1022.768041
 31
0.0
  0
LINE
  5
1441
330
18
100
AcDbEntity
  8
0
100
AcDbLine
 10
757.025703
 20
1020.263541
 30
0.0
 11
771.036403
 21
1020.263541
 31
0.0
  0
LINE
  5
1442
330
18
100
AcDbEntity
  8
0
100
AcDbLine
 10
780.725703
 20
1165.268041
 30
0.0
 11
780.725703
 21
1150.268041
 31
0.0
  0
LINE
  5
1443
330
18
100
AcDbEntity
  8
0
100
AcDbLine
 10
843.2257029999997
 20
1143.167940999999
 30
0.0
 11
843.2257029999997
 21
1148.668041
 31
0.0
  0
LINE
  5
1444
330
18
100
AcDbEntity
  8
0
100
AcDbLine
 10
830.225803
 20
1143.167940999999
 30
0.0
 11
830.225803
 21
1148.668041
 31
0.0
  0
LINE
  5
1445
330
18
100
AcDbEntity
  8
0
100
AcDbLine
 10
836.7257030000001
 20
1145.348541
 30
0.0
 11
836.7257030000001
 21
1150.268041
 31
0.0
  0
LINE
  5
1446
330
18
100
AcDbEntity
  8
0
100
AcDbLine
 10
840.725703
 20
1143.167940999999
 30
0.0
 11
840.725703
 21
1136.168041
 31
0.0
  0
ARC
  5
1447
330
18
100
AcDbEntity
  8
0
100
AcDbCircle
 10
833.475703
 20
1152.555441
 30
0.0
 40
9.387464999999997
100
AcDbArc
 50
249.7445299999999
 51
290.2554499999999
  0
LINE
  5
1448
330
18
100
AcDbEntity
  8
0
100
AcDbLine
 10
832.725703
 20
1143.167940999999
 30
0.0
 11
832.725703
 21
1136.168041
 31
0.0
  0
ARC
  5
1449
330
18
100
AcDbEntity
  8
0
100
AcDbCircle
 10
839.9758029999997
 20
1152.555441
 30
0.0
 40
9.387464999999997
100
AcDbArc
 50
249.7445299999999
 51
290.2554499999999
  0
LINE
  5
144A
330
18
100
AcDbEntity
  8
0
100
AcDbLine
 10
830.225803
 20
1143.167940999999
 30
0.0
 11
843.2257029999997
 21
1143.167940999999
 31
0.0
  0
LINE
  5
144B
330
18
100
AcDbEntity
  8
0
100
AcDbLine
 10
832.725703
 20
1136.168041
 30
0.0
 11
840.725703
 21
1136.168041
 31
0.0
  0
LINE
  5
144C
330
18
100
AcDbEntity
  8
0
100
AcDbLine
 10
816.7258030000001
 20
1191.168040999998
 30
0.0
 11
832.725703
 21
1191.168040999998
 31
0.0
  0
LINE
  5
144D
330
18
100
AcDbEntity
  8
0
100
AcDbLine
 10
849.2258029999996
 20
1150.268041
 30
0.0
 11
849.2258029999996
 21
1148.668041
 31
0.0
  0
LINE
  5
144E
330
18
100
AcDbEntity
  8
0
100
AcDbLine
 10
824.225803
 20
1150.268041
 30
0.0
 11
824.225803
 21
1148.668041
 31
0.0
  0
LINE
  5
144F
330
18
100
AcDbEntity
  8
0
100
AcDbLine
 10
824.225803
 20
1148.668041
 30
0.0
 11
849.2258029999996
 21
1148.668041
 31
0.0
  0
LINE
  5
1450
330
18
100
AcDbEntity
  8
0
100
AcDbLine
 10
882.0257029999996
 20
1110.268041
 30
0.0
 11
882.0257029999996
 21
830.2681409999999
 31
0.0
  0
LINE
  5
1451
330
18
100
AcDbEntity
  8
0
100
AcDbLine
 10
851.025703
 20
1133.268041
 30
0.0
 11
851.025703
 21
807.268041
 31
0.0
  0
LINE
  5
1452
330
18
100
AcDbEntity
  8
0
100
AcDbLine
 10
861.0257029999997
 20
1133.268041
 30
0.0
 11
861.0257029999997
 21
807.268041
 31
0.0
  0
LINE
  5
1453
330
18
100
AcDbEntity
  8
0
100
AcDbLine
 10
861.0257029999997
 20
817.225241
 30
0.0
 11
882.0257029999996
 21
817.225241
 31
0.0
  0
LINE
  5
1454
330
18
100
AcDbEntity
  8
0
100
AcDbLine
 10
861.0257029999997
 20
820.268141
 30
0.0
 11
880.0259029999999
 21
820.268141
 31
0.0
  0
LINE
  5
1455
330
18
100
AcDbEntity
  8
0
100
AcDbLine
 10
861.0257029999997
 20
825.268141
 30
0.0
 11
880.0259029999999
 21
825.268141
 31
0.0
  0
LINE
  5
1456
330
18
100
AcDbEntity
  8
0
100
AcDbLine
 10
861.0257029999997
 20
830.2681409999999
 30
0.0
 11
880.0259029999999
 21
830.2681409999999
 31
0.0
  0
LINE
  5
1457
330
18
100
AcDbEntity
  8
0
100
AcDbLine
 10
861.0257029999997
 20
835.268141
 30
0.0
 11
880.0259029999999
 21
835.268141
 31
0.0
  0
LINE
  5
1458
330
18
100
AcDbEntity
  8
0
100
AcDbLine
 10
861.0257029999997
 20
840.2681409999999
 30
0.0
 11
880.0259029999999
 21
840.2681409999999
 31
0.0
  0
LINE
  5
1459
330
18
100
AcDbEntity
  8
0
100
AcDbLine
 10
861.0257029999997
 20
803.725241
 30
0.0
 11
866.0257029999996
 21
803.725241
 31
0.0
  0
LINE
  5
145A
330
18
100
AcDbEntity
  8
0
100
AcDbLine
 10
880.0259029999999
 20
840.2681409999999
 30
0.0
 11
880.0259029999999
 21
817.225241
 31
0.0
  0
LINE
  5
145B
330
18
100
AcDbEntity
  8
0
100
AcDbLine
 10
851.025703
 20
807.268041
 30
0.0
 11
861.0257029999997
 21
807.268041
 31
0.0
  0
LINE
  5
145C
330
18
100
AcDbEntity
  8
0
100
AcDbLine
 10
882.0257029999996
 20
830.2681409999999
 30
0.0
 11
885.025903
 21
830.2681409999999
 31
0.0
  0
LINE
  5
145D
330
18
100
AcDbEntity
  8
0
100
AcDbLine
 10
882.0257029999996
 20
808.225241
 30
0.0
 11
885.025903
 21
808.225241
 31
0.0
  0
LINE
  5
145E
330
18
100
AcDbEntity
  8
0
100
AcDbLine
 10
882.0257029999996
 20
805.2252409999999
 30
0.0
 11
885.025903
 21
805.2252409999999
 31
0.0
  0
ARC
  5
1467
330
18
100
AcDbEntity
  8
0
100
AcDbCircle
 10
875.0256029999999
 20
1140.268041
 30
0.0
 40
10.0
100
AcDbArc
 50
0.0
 51
90.00000300000001
  0
LINE
  5
1468
330
18
100
AcDbEntity
  8
0
100
AcDbLine
 10
861.0257029999997
 20
1100.268041
 30
0.0
 11
882.0257029999996
 21
1100.268041
 31
0.0
  0
LINE
  5
1469
330
18
100
AcDbEntity
  8
0
100
AcDbLine
 10
861.0257029999997
 20
1123.310741
 30
0.0
 11
880.0259029999999
 21
1123.310741
 31
0.0
  0
LINE
  5
146A
330
18
100
AcDbEntity
  8
0
100
AcDbLine
 10
861.0257029999997
 20
1120.268041
 30
0.0
 11
880.0259029999999
 21
1120.268041
 31
0.0
  0
LINE
  5
146B
330
18
100
AcDbEntity
  8
0
100
AcDbLine
 10
861.0257029999997
 20
1115.268040999999
 30
0.0
 11
880.0259029999999
 21
1115.268040999999
 31
0.0
  0
LINE
  5
146C
330
18
100
AcDbEntity
  8
0
100
AcDbLine
 10
861.0257029999997
 20
1110.268041
 30
0.0
 11
880.0259029999999
 21
1110.268041
 31
0.0
  0
LINE
  5
146D
330
18
100
AcDbEntity
  8
0
100
AcDbLine
 10
861.0257029999997
 20
1105.268041
 30
0.0
 11
880.0259029999999
 21
1105.268041
 31
0.0
  0
LINE
  5
146E
330
18
100
AcDbEntity
  8
0
100
AcDbLine
 10
861.0257029999997
 20
1100.268041
 30
0.0
 11
880.0259029999999
 21
1100.268041
 31
0.0
  0
LINE
  5
146F
330
18
100
AcDbEntity
  8
0
100
AcDbLine
 10
880.0259029999999
 20
1100.268041
 30
0.0
 11
880.0259029999999
 21
1123.310741
 31
0.0
  0
LINE
  5
1470
330
18
100
AcDbEntity
  8
0
100
AcDbLine
 10
851.025703
 20
1133.268041
 30
0.0
 11
861.0257029999997
 21
1133.268041
 31
0.0
  0
LINE
  5
1471
330
18
100
AcDbEntity
  8
0
100
AcDbLine
 10
882.0257029999996
 20
1110.268041
 30
0.0
 11
885.025903
 21
1110.268041
 31
0.0
  0
ARC
  5
147D
330
18
100
AcDbEntity
  8
0
100
AcDbCircle
 10
890.0256029999997
 20
1155.268041
 30
0.0
 40
7.7
100
AcDbArc
 50
0.0
 51
73.953758
  0
ARC
  5
147E
330
18
100
AcDbEntity
  8
0
100
AcDbCircle
 10
890.0256029999997
 20
1155.268041
 30
0.0
 40
10.0
100
AcDbArc
 50
0.0
 51
90.00000300000001
  0
LINE
  5
1507
330
18
100
AcDbEntity
  8
0
100
AcDbLine
 10
1203.225702999999
 20
1150.168040999999
 30
0.0
 11
1362.225813
 21
1150.168040999999
 31
0.0
  0
LINE
  5
15A3
330
18
100
AcDbEntity
  8
0
100
AcDbLine
 10
1282.726103
 20
1185.683140999999
 30
0.0
 11
1287.475903
 21
1188.425641
 31
0.0
  0
LINE
  5
15A8
330
18
100
AcDbEntity
  8
0
100
AcDbLine
 10
1282.725702999998
 20
1185.683440999999
 30
0.0
 11
1277.975703
 21
1188.425840999998
 31
0.0
  0
LINE
  5
15A9
330
18
100
AcDbEntity
  8
0
100
AcDbLine
 10
1277.975703
 20
1188.425741
 30
0.0
 11
1277.975703
 21
1193.910441
 31
0.0
  0
LINE
  5
15AB
330
18
100
AcDbEntity
  8
0
100
AcDbLine
 10
1287.475602999998
 20
1188.425741
 30
0.0
 11
1287.475602999998
 21
1193.910441
 31
0.0
  0
LINE
  5
15AC
330
18
100
AcDbEntity
  8
0
100
AcDbLine
 10
1362.225813
 20
1191.168040999998
 30
0.0
 11
1380.725813
 21
1191.168040999998
 31
0.0
  0
ARC
  5
15AF
330
18
100
AcDbEntity
  8
0
100
AcDbCircle
 10
1094.714803
 20
1329.440341
 30
0.0
 40
15.143854
100
AcDbArc
 50
100.0
 51
319.9999899999999
  0
ARC
  5
15B0
330
18
100
AcDbEntity
  8
0
100
AcDbCircle
 10
1094.714803
 20
1329.440341
 30
0.0
 40
18.143854
100
AcDbArc
 50
100.0
 51
319.9999899999999
  0
LINE
  5
15B1
330
18
100
AcDbEntity
  8
0
100
AcDbLine
 10
1132.594303
 20
1354.543241
 30
0.0
 11
1091.564202999999
 21
1347.308541
 31
0.0
  0
LINE
  5
15B2
330
18
100
AcDbEntity
  8
0
100
AcDbLine
 10
1133.060303
 20
1351.579141
 30
0.0
 11
1092.085103
 21
1344.354041
 31
0.0
  0
LINE
  5
15B4
330
18
100
AcDbEntity
  8
0
100
AcDbLine
 10
1079.602402999998
 20
1330.415741
 30
0.0
 11
1210.259503
 21
1365.425241
 31
0.0
  0
LINE
  5
15B5
330
18
100
AcDbEntity
  8
0
100
AcDbLine
 10
1080.175002999999
 20
1333.675041
 30
0.0
 11
1209.483103
 21
1368.322941
 31
0.0
  0
LINE
  5
15B8
330
18
100
AcDbEntity
  8
0
100
AcDbLine
 10
816.7258030000001
 20
1223.167941
 30
0.0
 11
1023.496519999999
 21
1223.167941
 31
0.0
  0
ARC
  5
15B9
330
18
100
AcDbEntity
  8
0
100
AcDbCircle
 10
836.7257030000001
 20
1207.168041
 30
0.0
 40
4.0
100
AcDbArc
 50
0.0
 51
180.00001
  0
LINE
  5
15BA
330
18
100
AcDbEntity
  8
0
100
AcDbLine
 10
1045.804703
 20
1296.137241
 30
0.0
 11
1045.804703
 21
1254.474341
 31
0.0
  0
LINE
  5
15BB
330
18
100
AcDbEntity
  8
0
100
AcDbLine
 10
1042.804502999999
 20
1296.081441
 30
0.0
 11
1042.804502999999
 21
1254.474341
 31
0.0
  0
LINE
  5
15BC
330
18
100
AcDbEntity
  8
0
100
AcDbLine
 10
1042.804802999999
 20
1296.081441
 30
0.0
 11
1016.060002999998
 21
1264.208441
 31
0.0
  0
LINE
  5
15BD
330
18
100
AcDbEntity
  8
0
100
AcDbLine
 10
1040.542502999999
 20
1298.052640999999
 30
0.0
 11
1013.761803
 21
1266.136941
 31
0.0
  0
ARC
  5
15BE
330
18
100
AcDbEntity
  8
0
100
AcDbCircle
 10
1027.660902999999
 20
1254.474341
 30
0.0
 40
18.143854
100
AcDbArc
 50
269.480895
 51
0.0
  0
ARC
  5
15BF
330
18
100
AcDbEntity
  8
0
100
AcDbCircle
 10
1027.660902999999
 20
1254.474341
 30
0.0
 40
15.143854
100
AcDbArc
 50
269.3780559999999
 51
0.0
  0
ARC
  5
15C0
330
18
100
AcDbEntity
  8
0
100
AcDbCircle
 10
1027.660902999999
 20
1254.474341
 30
0.0
 40
15.143854
100
AcDbArc
 50
140.0
 51
254.038682
  0
ARC
  5
15C1
330
18
100
AcDbEntity
  8
0
100
AcDbCircle
 10
1027.660902999999
 20
1254.474341
 30
0.0
 40
18.143854
100
AcDbArc
 50
140.0
 51
256.731168
  0
LINE
  5
15C5
330
18
100
AcDbEntity
  8
0
100
AcDbLine
 10
1062.969803
 20
1329.064841
 30
0.0
 11
1076.883302999998
 21
1332.792941
 31
0.0
  0
LINE
  5
15C6
330
18
100
AcDbEntity
  8
0
100
AcDbLine
 10
1063.746303
 20
1326.167040999999
 30
0.0
 11
1076.571802999999
 21
1329.603540999999
 31
0.0
  0
ARC
  5
15C7
330
18
100
AcDbEntity
  8
0
100
AcDbCircle
 10
1068.534402999999
 20
1308.297341
 30
0.0
 40
21.49999999999999
100
AcDbArc
 50
105.0
 51
160.0
  0
ARC
  5
15C8
330
18
100
AcDbEntity
  8
0
100
AcDbCircle
 10
1068.534402999999
 20
1308.297341
 30
0.0
 40
18.5
100
AcDbArc
 50
105.0
 51
160.0
  0
LINE
  5
15CA
330
18
100
AcDbEntity
  8
0
100
AcDbLine
 10
1051.150003
 20
1314.624741
 30
0.0
 11
1049.713402999999
 21
1310.677541
 31
0.0
  0
LINE
  5
15CB
330
18
100
AcDbEntity
  8
0
100
AcDbLine
 10
1048.330802999998
 20
1315.650841
 30
0.0
 11
1046.894102999998
 21
1311.703541
 31
0.0
  0
LINE
  5
15CC
330
18
100
AcDbEntity
  8
0
100
AcDbLine
 10
1045.484702999998
 20
1312.216641
 30
0.0
 11
1051.122802999999
 21
1310.164541
 31
0.0
  0
LINE
  5
15CD
330
18
100
AcDbEntity
  8
0
100
AcDbLine
 10
1040.354503
 20
1298.121141
 30
0.0
 11
1045.992403
 21
1296.069141
 31
0.0
  0
LINE
  5
15CF
330
18
100
AcDbEntity
  8
0
100
AcDbLine
 10
1051.122802999999
 20
1310.164541
 30
0.0
 11
1045.992403
 21
1296.069141
 31
0.0
  0
LINE
  5
15D0
330
18
100
AcDbEntity
  8
0
100
AcDbLine
 10
1045.484702999998
 20
1312.216641
 30
0.0
 11
1040.354503
 21
1298.121141
 31
0.0
  0
LINE
  5
15D1
330
18
100
AcDbEntity
  8
0
100
AcDbLine
 10
1200.725602999999
 20
1628.168041
 30
0.0
 11
1200.725602999999
 21
1365.976541
 31
0.0
  0
LINE
  5
15D3
330
18
100
AcDbEntity
  8
0
100
AcDbLine
 10
1364.725753
 20
1628.168041
 30
0.0
 11
1364.725753
 21
1239.168041
 31
0.0
  0
LINE
  5
15D4
330
18
100
AcDbEntity
  8
0
100
AcDbLine
 10
1396.725693
 20
1628.168041
 30
0.0
 11
1396.725693
 21
1239.168041
 31
0.0
  0
LINE
  5
15D6
330
18
100
AcDbEntity
  8
0
100
AcDbLine
 10
1168.725803
 20
1628.168041
 30
0.0
 11
1168.725803
 21
1357.402141
 31
0.0
  0
LINE
  5
15D7
330
18
100
AcDbEntity
  8
0
100
AcDbLine
 10
1210.079303
 20
1321.167841
 30
0.0
 11
1355.870702999999
 21
1321.167841
 31
0.0
  0
LINE
  5
15D8
330
18
100
AcDbEntity
  8
0
100
AcDbLine
 10
1213.363503
 20
1325.167841
 30
0.0
 11
1352.388003
 21
1325.167841
 31
0.0
  0
LINE
  5
15D9
330
18
100
AcDbEntity
  8
0
100
AcDbLine
 10
1209.476702999999
 20
1347.167941
 30
0.0
 11
1355.974602999999
 21
1347.167941
 31
0.0
  0
LINE
  5
15DA
330
18
100
AcDbEntity
  8
0
100
AcDbLine
 10
1282.725702999998
 20
1255.167941
 30
0.0
 11
1361.725623
 21
1255.167941
 31
0.0
  0
LINE
  5
15DB
330
18
100
AcDbEntity
  8
0
100
AcDbLine
 10
1282.725702999998
 20
1278.022941
 30
0.0
 11
1361.725692999999
 21
1256.538741
 31
0.0
  0
LINE
  5
15DC
330
18
100
AcDbEntity
  8
0
100
AcDbLine
 10
1282.725803
 20
1282.168041
 30
0.0
 11
1364.725873
 21
1259.867941
 31
0.0
  0
LINE
  5
15DD
330
18
100
AcDbEntity
  8
0
100
AcDbLine
 10
1203.725602999998
 20
1255.168041
 30
0.0
 11
1361.725623
 21
1255.168041
 31
0.0
  0
LINE
  5
15DE
330
18
100
AcDbEntity
  8
0
100
AcDbLine
 10
1201.225603
 20
1200.168040999999
 30
0.0
 11
1364.225692999998
 21
1200.168040999999
 31
0.0
  0
LINE
  5
15DF
330
18
100
AcDbEntity
  8
0
100
AcDbLine
 10
1200.725602999999
 20
1291.168040999999
 30
0.0
 11
1364.725753
 21
1291.168040999999
 31
0.0
  0
LINE
  5
15E0
330
18
100
AcDbEntity
  8
0
100
AcDbLine
 10
1200.725602999999
 20
1287.168041
 30
0.0
 11
1364.725753
 21
1287.168041
 31
0.0
  0
LINE
  5
15E1
330
18
100
AcDbEntity
  8
0
100
AcDbLine
 10
1200.725602999999
 20
1295.167940999998
 30
0.0
 11
1364.725753
 21
1295.167940999998
 31
0.0
  0
ARC
  5
15E2
330
18
100
AcDbEntity
  8
0
100
AcDbCircle
 10
1206.558803
 20
1379.235941
 30
0.0
 40
14.29792
100
AcDbArc
 50
285.0
 51
114.0779399999999
  0
LINE
  5
15E4
330
18
100
AcDbEntity
  8
0
100
AcDbLine
 10
1282.725603
 20
1282.168041
 30
0.0
 11
1200.725602999999
 21
1259.867941
 31
0.0
  0
LINE
  5
15E5
330
18
100
AcDbEntity
  8
0
100
AcDbLine
 10
1282.725702999998
 20
1278.022941
 30
0.0
 11
1203.725602999998
 21
1256.538741
 31
0.0
  0
LINE
  5
15E6
330
18
100
AcDbEntity
  8
0
100
AcDbLine
 10
1200.725602999999
 20
1362.870541
 30
0.0
 11
1200.725602999999
 21
1239.168041
 31
0.0
  0
LINE
  5
15E7
330
18
100
AcDbEntity
  8
0
100
AcDbLine
 10
1155.225803
 20
1295.167841
 30
0.0
 11
1159.225802999998
 21
1291.167841
 31
0.0
  0
LINE
  5
15E8
330
18
100
AcDbEntity
  8
0
100
AcDbLine
 10
1168.725803
 20
1354.296241
 30
0.0
 11
1168.725803
 21
1239.168041
 31
0.0
  0
LINE
  5
15E9
330
18
100
AcDbEntity
  8
0
100
AcDbLine
 10
1158.725702999998
 20
1277.168041
 30
0.0
 11
1168.725803
 21
1277.168041
 31
0.0
  0
LINE
  5
15EA
330
18
100
AcDbEntity
  8
0
100
AcDbLine
 10
1159.225603
 20
1291.168040999999
 30
0.0
 11
1168.725803
 21
1291.168040999999
 31
0.0
  0
LINE
  5
15EB
330
18
100
AcDbEntity
  8
0
100
AcDbLine
 10
1158.725702999998
 20
1287.168041
 30
0.0
 11
1168.725803
 21
1287.168041
 31
0.0
  0
LINE
  5
15EC
330
18
100
AcDbEntity
  8
0
100
AcDbLine
 10
1158.725702999998
 20
1277.168041
 30
0.0
 11
1158.725702999998
 21
1287.168041
 31
0.0
  0
LINE
  5
15ED
330
18
100
AcDbEntity
  8
0
100
AcDbLine
 10
1159.225802999998
 20
1291.168040999999
 30
0.0
 11
1159.225802999998
 21
1287.168041
 31
0.0
  0
LINE
  5
15EE
330
18
100
AcDbEntity
  8
0
100
AcDbLine
 10
1203.725602999998
 20
1240.168040999999
 30
0.0
 11
1203.725602999998
 21
1256.538641
 31
0.0
  0
LINE
  5
15EF
330
18
100
AcDbEntity
  8
0
100
AcDbLine
 10
1224.045402999998
 20
1200.168040999999
 30
0.0
 11
1224.045402999998
 21
1245.168041
 31
0.0
  0
LINE
  5
15F0
330
18
100
AcDbEntity
  8
0
100
AcDbLine
 10
1204.725703
 20
1200.168040999999
 30
0.0
 11
1204.725703
 21
1255.168041
 31
0.0
  0
LINE
  5
15F1
330
18
100
AcDbEntity
  8
0
100
AcDbLine
 10
1162.725702999999
 20
1240.168040999999
 30
0.0
 11
1162.725702999999
 21
1277.168041
 31
0.0
  0
ARC
  5
15F2
330
18
100
AcDbEntity
  8
0
100
AcDbCircle
 10
1184.725702999998
 20
1239.168041
 30
0.0
 40
16.0
100
AcDbArc
 50
179.9999899999999
 51
0.00001
  0
LINE
  5
15F3
330
18
100
AcDbEntity
  8
0
100
AcDbLine
 10
1168.725803
 20
1240.168040999999
 30
0.0
 11
1162.725702999999
 21
1240.168040999999
 31
0.0
  0
LINE
  5
15F4
330
18
100
AcDbEntity
  8
0
100
AcDbLine
 10
1203.725602999998
 20
1240.168040999999
 30
0.0
 11
1200.725602999999
 21
1240.168040999999
 31
0.0
  0
LINE
  5
15F5
330
18
100
AcDbEntity
  8
0
100
AcDbLine
 10
1201.225603
 20
1240.168040999999
 30
0.0
 11
1200.725602999999
 21
1240.168040999999
 31
0.0
  0
LINE
  5
15F6
330
18
100
AcDbEntity
  8
0
100
AcDbLine
 10
1201.225603
 20
1200.168040999999
 30
0.0
 11
1201.225603
 21
1240.168040999999
 31
0.0
  0
LINE
  5
15F8
330
18
100
AcDbEntity
  8
0
100
AcDbLine
 10
1168.725803
 20
1370.438641
 30
0.0
 11
1147.734703
 21
1358.319441
 31
0.0
  0
LINE
  5
15F9
330
18
100
AcDbEntity
  8
0
100
AcDbLine
 10
1168.725803
 20
1373.902741
 30
0.0
 11
1146.234702999999
 21
1360.917541
 31
0.0
  0
LINE
  5
15FA
330
18
100
AcDbEntity
  8
0
100
AcDbLine
 10
1155.225702999999
 20
1295.167940999998
 30
0.0
 11
1168.725803
 21
1295.167940999998
 31
0.0
  0
LINE
  5
15FC
330
18
100
AcDbEntity
  8
0
100
AcDbLine
 10
1130.708703
 20
1344.109641
 30
0.0
 11
1108.613603
 21
1317.777741
 31
0.0
  0
LINE
  5
15FD
330
18
100
AcDbEntity
  8
0
100
AcDbLine
 10
1125.656603
 20
1342.755941
 30
0.0
 11
1106.315503
 21
1319.706241
 31
0.0
  0
LINE
  5
15FE
330
18
100
AcDbEntity
  8
0
100
AcDbLine
 10
1133.060303
 20
1351.579341
 30
0.0
 11
1129.018502999999
 21
1346.762641
 31
0.0
  0
LINE
  5
15FF
330
18
100
AcDbEntity
  8
0
100
AcDbLine
 10
1145.484702999999
 20
1362.216641
 30
0.0
 11
1148.484602999998
 21
1357.020541
 31
0.0
  0
LINE
  5
1600
330
18
100
AcDbEntity
  8
0
100
AcDbLine
 10
1132.494402999999
 20
1354.716641
 30
0.0
 11
1135.494203
 21
1349.520541
 31
0.0
  0
LINE
  5
1601
330
18
100
AcDbEntity
  8
0
100
AcDbLine
 10
1135.394103
 20
1349.693541
 30
0.0
 11
1134.070702999999
 21
1348.116241
 31
0.0
  0
LINE
  5
1602
330
18
100
AcDbEntity
  8
0
100
AcDbLine
 10
1148.484602999998
 20
1357.020541
 30
0.0
 11
1135.494203
 21
1349.520541
 31
0.0
  0
LINE
  5
1603
330
18
100
AcDbEntity
  8
0
100
AcDbLine
 10
1145.484702999999
 20
1362.216641
 30
0.0
 11
1132.494402999999
 21
1354.716641
 31
0.0
  0
LINE
  5
1604
330
18
100
AcDbEntity
  8
0
100
AcDbLine
 10
1207.617002999999
 20
1326.010841
 30
0.0
 11
1208.686503
 21
1346.417941
 31
0.0
  0
ARC
  5
1605
330
18
100
AcDbEntity
  8
0
100
AcDbCircle
 10
1207.208003
 20
1320.754241
 30
0.0
 40
3.0
100
AcDbArc
 50
115.54292
 51
176.99999
  0
ARC
  5
1606
330
18
100
AcDbEntity
  8
0
100
AcDbCircle
 10
1204.620903
 20
1326.167841
 30
0.0
 40
3.0
100
AcDbArc
 50
295.54292
 51
357.0
  0
LINE
  5
1607
330
18
100
AcDbEntity
  8
0
100
AcDbLine
 10
1202.863103
 20
1295.168041
 30
0.0
 11
1204.212403
 21
1320.911241
 31
0.0
  0
CIRCLE
  5
1609
330
18
100
AcDbEntity
  8
0
100
AcDbCircle
 10
1184.725702999998
 20
1348.167941
 30
0.0
 40
4.75
  0
ARC
  5
160B
330
18
100
AcDbEntity
  8
0
100
AcDbCircle
 10
1206.558803
 20
1379.235941
 30
0.0
 40
11.297921
100
AcDbArc
 50
285.0
 51
121.0851799999999
  0
LINE
  5
160D
330
18
100
AcDbEntity
  8
0
100
AcDbLine
 10
1272.725702999998
 20
1200.168040999999
 30
0.0
 11
1271.225602999999
 21
1255.168141
 31
0.0
  0
LINE
  5
160E
330
18
100
AcDbEntity
  8
0
100
AcDbLine
 10
1226.166702999998
 20
1200.168040999999
 30
0.0
 11
1226.166702999998
 21
1245.168041
 31
0.0
  0
LINE
  5
160F
330
18
100
AcDbEntity
  8
0
100
AcDbLine
 10
1228.642202999999
 20
1200.168040999999
 30
0.0
 11
1228.642202999999
 21
1253.167941
 31
0.0
  0
ARC
  5
1610
330
18
100
AcDbEntity
  8
0
100
AcDbCircle
 10
1226.642103
 20
1253.167941
 30
0.0
 40
2.0
100
AcDbArc
 50
0.0
 51
90.00000300000001
  0
ARC
  5
1611
330
18
100
AcDbEntity
  8
0
100
AcDbCircle
 10
1269.279502999999
 20
1253.168141
 30
0.0
 40
2.0
100
AcDbArc
 50
1.562224
 51
90.00000300000001
  0
LINE
  5
1612
330
18
100
AcDbEntity
  8
0
100
AcDbLine
 10
1292.725603
 20
1200.168040999999
 30
0.0
 11
1294.172603
 21
1253.222641
 31
0.0
  0
LINE
  5
1613
330
18
100
AcDbEntity
  8
0
100
AcDbLine
 10
1341.405803
 20
1200.168040999999
 30
0.0
 11
1341.405803
 21
1245.168041
 31
0.0
  0
LINE
  5
1614
330
18
100
AcDbEntity
  8
0
100
AcDbLine
 10
1339.284402999999
 20
1200.168040999999
 30
0.0
 11
1339.284402999999
 21
1245.168041
 31
0.0
  0
LINE
  5
1615
330
18
100
AcDbEntity
  8
0
100
AcDbLine
 10
1336.809102999999
 20
1200.168040999999
 30
0.0
 11
1336.809102999999
 21
1253.167941
 31
0.0
  0
ARC
  5
1616
330
18
100
AcDbEntity
  8
0
100
AcDbCircle
 10
1296.171903
 20
1253.168141
 30
0.0
 40
2.0
100
AcDbArc
 50
90.00000300000001
 51
178.43778
  0
ARC
  5
1618
330
18
100
AcDbEntity
  8
0
100
AcDbCircle
 10
1338.809203
 20
1253.167941
 30
0.0
 40
2.0
100
AcDbArc
 50
90.00000300000001
 51
180.00001
  0
LINE
  5
161A
330
18
100
AcDbEntity
  8
0
100
AcDbLine
 10
1406.225692999999
 20
1291.167941
 30
0.0
 11
1410.225623
 21
1295.167940999998
 31
0.0
  0
ARC
  5
161B
330
18
100
AcDbEntity
  8
0
100
AcDbCircle
 10
1382.725693
 20
1239.168041
 30
0.0
 40
20.5
100
AcDbArc
 50
2.796367
 51
46.92710499999999
  0
LINE
  5
161C
330
18
100
AcDbEntity
  8
0
100
AcDbLine
 10
1403.201213
 20
1277.168041
 30
0.0
 11
1403.201213
 21
1240.168040999999
 31
0.0
  0
LINE
  5
161D
330
18
100
AcDbEntity
  8
0
100
AcDbLine
 10
1402.725623
 20
1240.168040999999
 30
0.0
 11
1402.725623
 21
1277.168041
 31
0.0
  0
LINE
  5
161E
330
18
100
AcDbEntity
  8
0
100
AcDbLine
 10
1361.725623
 20
1240.168040999999
 30
0.0
 11
1361.725623
 21
1256.538641
 31
0.0
  0
LINE
  5
161F
330
18
100
AcDbEntity
  8
0
100
AcDbLine
 10
1360.725623
 20
1200.168040999999
 30
0.0
 11
1360.725623
 21
1255.168041
 31
0.0
  0
ARC
  5
1620
330
18
100
AcDbEntity
  8
0
100
AcDbCircle
 10
1380.725753
 20
1239.168041
 30
0.0
 40
16.0
100
AcDbArc
 50
179.9999899999999
 51
0.00001
  0
LINE
  5
1621
330
18
100
AcDbEntity
  8
0
100
AcDbLine
 10
1364.225692999998
 20
1223.167941
 30
0.0
 11
1380.725813
 21
1223.167941
 31
0.0
  0
LINE
  5
1622
330
18
100
AcDbEntity
  8
0
100
AcDbLine
 10
1361.725623
 20
1240.168040999999
 30
0.0
 11
1364.725753
 21
1240.168040999999
 31
0.0
  0
LINE
  5
1623
330
18
100
AcDbEntity
  8
0
100
AcDbLine
 10
1364.225692999998
 20
1200.168040999999
 30
0.0
 11
1364.225692999998
 21
1240.168040999999
 31
0.0
  0
LINE
  5
1624
330
18
100
AcDbEntity
  8
0
100
AcDbLine
 10
1396.725693
 20
1240.168040999999
 30
0.0
 11
1402.725623
 21
1240.168040999999
 31
0.0
  0
LINE
  5
1625
330
18
100
AcDbEntity
  8
0
100
AcDbLine
 10
1398.694373
 20
1240.168040999999
 30
0.0
 11
1403.201213
 21
1240.168040999999
 31
0.0
  0
ARC
  5
1626
330
18
100
AcDbEntity
  8
0
100
AcDbCircle
 10
1405.725623
 20
1278.168141
 30
0.0
 40
1.0
100
AcDbArc
 50
270.0
 51
0.0
  0
LINE
  5
1627
330
18
100
AcDbEntity
  8
0
100
AcDbLine
 10
1396.725693
 20
1277.168041
 30
0.0
 11
1405.725623
 21
1277.168041
 31
0.0
  0
LINE
  5
1628
330
18
100
AcDbEntity
  8
0
100
AcDbLine
 10
1406.725563
 20
1278.168141
 30
0.0
 11
1406.725563
 21
1287.168041
 31
0.0
  0
LINE
  5
1629
330
18
100
AcDbEntity
  8
0
100
AcDbLine
 10
1396.725693
 20
1291.168040999999
 30
0.0
 11
1406.225753
 21
1291.168040999999
 31
0.0
  0
LINE
  5
162A
330
18
100
AcDbEntity
  8
0
100
AcDbLine
 10
1396.725693
 20
1287.168041
 30
0.0
 11
1406.725622999999
 21
1287.168041
 31
0.0
  0
LINE
  5
162B
330
18
100
AcDbEntity
  8
0
100
AcDbLine
 10
1406.225753
 20
1291.168040999999
 30
0.0
 11
1406.225753
 21
1287.168041
 31
0.0
  0
LINE
  5
162C
330
18
100
AcDbEntity
  8
0
100
AcDbLine
 10
1357.834513
 20
1326.010841
 30
0.0
 11
1356.765003
 21
1346.417841
 31
0.0
  0
ARC
  5
162D
330
18
100
AcDbEntity
  8
0
100
AcDbCircle
 10
1360.830482999999
 20
1326.167841
 30
0.0
 40
3.0
100
AcDbArc
 50
183.00001
 51
244.45708
  0
ARC
  5
162E
330
18
100
AcDbEntity
  8
0
100
AcDbCircle
 10
1358.243203
 20
1320.754241
 30
0.0
 40
3.0
100
AcDbArc
 50
3.0
 51
64.457076
  0
LINE
  5
162F
330
18
100
AcDbEntity
  8
0
100
AcDbLine
 10
1362.588423
 20
1295.167641
 30
0.0
 11
1361.239242999999
 21
1320.911341
 31
0.0
  0
LINE
  5
1630
330
18
100
AcDbEntity
  8
0
100
AcDbLine
 10
1396.725693
 20
1295.167940999998
 30
0.0
 11
1410.225693
 21
1295.167940999998
 31
0.0
  0
CIRCLE
  5
1631
330
18
100
AcDbEntity
  8
0
100
AcDbCircle
 10
1380.725813
 20
1348.167941
 30
0.0
 40
4.75
  0
LINE
  5
1637
330
18
100
AcDbEntity
  8
0
100
AcDbLine
 10
1168.725803
 20
1628.168041
 30
0.0
 11
1200.725602999999
 21
1628.168041
 31
0.0
  0
CIRCLE
  5
163A
330
18
100
AcDbEntity
  8
0
100
AcDbCircle
 10
1184.725702999998
 20
1598.167940999999
 30
0.0
 40
4.75
  0
LINE
  5
163B
330
18
100
AcDbEntity
  8
0
100
AcDbLine
 10
1168.725803
 20
1623.168041
 30
0.0
 11
1200.725602999999
 21
1623.168041
 31
0.0
  0
LINE
  5
163C
330
18
100
AcDbEntity
  8
0
100
AcDbLine
 10
1364.725753
 20
1628.168041
 30
0.0
 11
1396.725693
 21
1628.168041
 31
0.0
  0
CIRCLE
  5
163D
330
18
100
AcDbEntity
  8
0
100
AcDbCircle
 10
1380.725813
 20
1598.167940999999
 30
0.0
 40
4.75
  0
LINE
  5
2847
330
18
100
AcDbEntity
  8
0
100
AcDbLine
 10
833.5257030000001
 20
617.668041
 30
0.0
 11
846.525903
 21
617.668041
 31
0.0
  0
LINE
  5
2851
330
18
100
AcDbEntity
  8
0
100
AcDbLine
 10
1364.725753
 20
1623.168041
 30
0.0
 11
1396.725693
 21
1623.168041
 31
0.0
  0
LINE
  5
35FA
330
18
100
AcDbEntity
  8
0
100
AcDbLine
 10
838.5258029999999
 20
617.668041
 30
0.0
 11
838.5258029999999
 21
353.2714159999998
 31
0.0
  0
ARC
  5
35FC
330
18
100
AcDbEntity
  8
0
100
AcDbCircle
 10
840.0258029999999
 20
353.187514
 30
0.0
 40
1.502345
100
AcDbArc
 50
176.7985159999999
 51
3.201484
  0
ARC
  5
35FD
330
18
100
AcDbEntity
  8
0
100
AcDbCircle
 10
837.025803
 20
353.187514
 30
0.0
 40
1.502345
100
AcDbArc
 50
176.7985159999999
 51
3.201484
  0
LINE
  5
3B69
330
18
100
AcDbEntity
  8
0
100
AcDbLine
 10
827.532303
 20
778.2143409999998
 30
0.0
 11
829.2089240000001
 21
778.214415
 31
0.0
  0
LINE
  5
3B6A
330
18
100
AcDbEntity
  8
0
100
AcDbLine
 10
832.457941
 20
778.2145579999999
 30
0.0
 11
852.5322029999998
 21
778.215441
 31
0.0
  0
LINE
  5
4BD9
330
18
100
AcDbEntity
  8
0
100
AcDbLine
 10
1218.725758
 20
1073.668041
 30
0.0
 11
1218.725758
 21
1067.172843999999
 31
0.0
  0
LINE
  5
4BE1
330
18
100
AcDbEntity
  8
0
100
AcDbLine
 10
256.139875
 20
523.16294
 30
0.0
 11
123.130282
 21
516.1922019999998
 31
0.0
  0
LINE
  5
4BE2
330
18
100
AcDbEntity
  8
0
100
AcDbLine
 10
256.139875
 20
623.16294
 30
0.0
 11
186.375842
 21
619.5067609999998
 31
0.0
  0
LINE
  5
4BE7
330
18
100
AcDbEntity
  8
0
100
AcDbLine
 10
256.139875
 20
643.16294
 30
0.0
 11
237.4151439999999
 21
642.1816179999998
 31
0.0
  0
LINE
  5
4BE8
330
18
100
AcDbEntity
  8
0
100
AcDbLine
 10
255.773523
 20
650.1533459999998
 30
0.0
 11
236.2698959999999
 21
649.131204
 31
0.0
  0
LINE
  5
4BE9
330
18
100
AcDbEntity
  8
0
100
AcDbLine
 10
255.773523
 20
630.1533459999998
 30
0.0
 11
196.3014689999999
 21
627.036548
 31
0.0
  0
LINE
  5
4BEA
330
18
100
AcDbEntity
  8
0
100
AcDbLine
 10
256.139875
 20
603.16294
 30
0.0
 11
190.9522029999999
 21
599.7465980000002
 31
0.0
  0
LINE
  5
4BEB
330
18
100
AcDbEntity
  8
0
100
AcDbLine
 10
255.773523
 20
610.1533459999998
 30
0.0
 11
190.9522029999999
 21
606.756205
 31
0.0
  0
LINE
  5
4BEC
330
18
100
AcDbEntity
  8
0
100
AcDbLine
 10
256.139875
 20
583.16294
 30
0.0
 11
190.9522029999999
 21
579.7465980000001
 31
0.0
  0
LINE
  5
4BED
330
18
100
AcDbEntity
  8
0
100
AcDbLine
 10
255.773523
 20
590.1533459999998
 30
0.0
 11
190.9522029999999
 21
586.756205
 31
0.0
  0
LINE
  5
4BEE
330
18
100
AcDbEntity
  8
0
100
AcDbLine
 10
256.139875
 20
563.16294
 30
0.0
 11
123.130282
 21
556.1922019999998
 31
0.0
  0
LINE
  5
4BEF
330
18
100
AcDbEntity
  8
0
100
AcDbLine
 10
255.773523
 20
570.1533459999998
 30
0.0
 11
190.9522029999999
 21
566.7562049999998
 31
0.0
  0
LINE
  5
4BF0
330
18
100
AcDbEntity
  8
0
100
AcDbLine
 10
256.139875
 20
543.16294
 30
0.0
 11
123.130282
 21
536.1922019999998
 31
0.0
  0
LINE
  5
4BF1
330
18
100
AcDbEntity
  8
0
100
AcDbLine
 10
255.773523
 20
550.1533459999998
 30
0.0
 11
122.76393
 21
543.1826089999998
 31
0.0
  0
LINE
  5
4BF2
330
18
100
AcDbEntity
  8
0
100
AcDbLine
 10
255.773523
 20
530.1533459999998
 30
0.0
 11
122.76393
 21
523.1826089999998
 31
0.0
  0
LINE
  5
4BF3
330
18
100
AcDbEntity
  8
0
100
AcDbLine
 10
125.4519029999999
 20
616.313873
 30
0.0
 11
125.4519029999999
 21
603.32348
 31
0.0
  0
ARC
  5
4BF6
330
18
100
AcDbEntity
  8
0
100
AcDbCircle
 10
122.947106
 20
639.687405
 30
0.0
 40
3.5
100
AcDbArc
 50
180.6461389999999
 51
273.0
  0
LINE
  5
4BF7
330
18
100
AcDbEntity
  8
0
100
AcDbLine
 10
125.4519029999999
 20
648.116026
 30
0.0
 11
125.4519029999999
 21
643.32348
 31
0.0
  0
ARC
  5
4BF9
330
18
100
AcDbEntity
  8
0
100
AcDbCircle
 10
122.947106
 20
619.6874049999999
 30
0.0
 40
3.5
100
AcDbArc
 50
93.0
 51
273.0
  0
LINE
  5
4BFA
330
18
100
AcDbEntity
  8
0
100
AcDbLine
 10
125.4519029999999
 20
636.3138730000001
 30
0.0
 11
125.4519029999999
 21
623.3234799999999
 31
0.0
  0
ARC
  5
4BFB
330
18
100
AcDbEntity
  8
0
100
AcDbCircle
 10
122.947106
 20
539.687405
 30
0.0
 40
3.5
100
AcDbArc
 50
93.0
 51
273.0
  0
LINE
  5
4BFC
330
18
100
AcDbEntity
  8
0
100
AcDbLine
 10
125.4519029999999
 20
576.313873
 30
0.0
 11
125.4519029999999
 21
563.32348
 31
0.0
  0
LINE
  5
4BFD
330
18
100
AcDbEntity
  8
0
100
AcDbLine
 10
125.4519029999999
 20
596.313873
 30
0.0
 11
125.4519029999999
 21
583.32348
 31
0.0
  0
ARC
  5
4BFE
330
18
100
AcDbEntity
  8
0
100
AcDbCircle
 10
122.947106
 20
599.687405
 30
0.0
 40
3.5
100
AcDbArc
 50
93.0
 51
273.0
  0
ARC
  5
4BFF
330
18
100
AcDbEntity
  8
0
100
AcDbCircle
 10
122.947106
 20
579.687405
 30
0.0
 40
3.5
100
AcDbArc
 50
93.0
 51
273.0
  0
LINE
  5
4C00
330
18
100
AcDbEntity
  8
0
100
AcDbLine
 10
125.4519029999999
 20
556.313873
 30
0.0
 11
125.4519029999999
 21
543.32348
 31
0.0
  0
ARC
  5
4C01
330
18
100
AcDbEntity
  8
0
100
AcDbCircle
 10
122.947106
 20
559.687405
 30
0.0
 40
3.5
100
AcDbArc
 50
93.0
 51
273.0
  0
LINE
  5
4C03
330
18
100
AcDbEntity
  8
0
100
AcDbLine
 10
125.4519029999999
 20
516.313873
 30
0.0
 11
125.4519029999999
 21
510.0746459999998
 31
0.0
  0
ARC
  5
4C04
330
18
100
AcDbEntity
  8
0
100
AcDbCircle
 10
122.947106
 20
519.6874049999999
 30
0.0
 40
3.5
100
AcDbArc
 50
93.0
 51
273.0
  0
LINE
  5
4C05
330
18
100
AcDbEntity
  8
0
100
AcDbLine
 10
125.4519029999999
 20
536.3138730000001
 30
0.0
 11
125.4519029999999
 21
523.3234799999999
 31
0.0
  0
ARC
  5
4C0D
330
18
100
AcDbEntity
  8
0
100
AcDbCircle
 10
255.9566989999999
 20
606.658143
 30
0.0
 40
3.5
100
AcDbArc
 50
273.0
 51
93.0
  0
LINE
  5
4C11
330
18
100
AcDbEntity
  8
0
100
AcDbLine
 10
253.4519029999999
 20
643.0220689999998
 30
0.0
 11
253.4519029999999
 21
630.0316749999998
 31
0.0
  0
ARC
  5
4C13
330
18
100
AcDbEntity
  8
0
100
AcDbCircle
 10
255.9566989999999
 20
646.6581429999998
 30
0.0
 40
3.5
100
AcDbArc
 50
273.0
 51
93.0
  0
LINE
  5
4C14
330
18
100
AcDbEntity
  8
0
100
AcDbLine
 10
253.4519029999999
 20
663.0220689999998
 30
0.0
 11
253.4519029999999
 21
650.0316749999998
 31
0.0
  0
ARC
  5
4C15
330
18
100
AcDbEntity
  8
0
100
AcDbCircle
 10
255.9566989999999
 20
626.658143
 30
0.0
 40
3.5
100
AcDbArc
 50
273.0
 51
93.0
  0
LINE
  5
4C16
330
18
100
AcDbEntity
  8
0
100
AcDbLine
 10
253.4519029999999
 20
623.022069
 30
0.0
 11
253.4519029999999
 21
610.0316749999998
 31
0.0
  0
LINE
  5
4C18
330
18
100
AcDbEntity
  8
0
100
AcDbLine
 10
253.4519029999999
 20
543.0220689999998
 30
0.0
 11
253.4519029999999
 21
530.0316749999998
 31
0.0
  0
LINE
  5
4C19
330
18
100
AcDbEntity
  8
0
100
AcDbLine
 10
253.4519029999999
 20
583.0220689999999
 30
0.0
 11
253.4519029999999
 21
570.0316749999998
 31
0.0
  0
ARC
  5
4C1A
330
18
100
AcDbEntity
  8
0
100
AcDbCircle
 10
255.9566989999999
 20
586.658143
 30
0.0
 40
3.5
100
AcDbArc
 50
273.0
 51
93.0
  0
LINE
  5
4C1B
330
18
100
AcDbEntity
  8
0
100
AcDbLine
 10
253.4519029999999
 20
603.022069
 30
0.0
 11
253.4519029999999
 21
590.0316749999998
 31
0.0
  0
ARC
  5
4C1C
330
18
100
AcDbEntity
  8
0
100
AcDbCircle
 10
255.9566989999999
 20
566.6581429999999
 30
0.0
 40
3.5
100
AcDbArc
 50
273.0
 51
93.0
  0
ARC
  5
4C1D
330
18
100
AcDbEntity
  8
0
100
AcDbCircle
 10
255.9566989999999
 20
546.6581429999998
 30
0.0
 40
3.5
100
AcDbArc
 50
273.0
 51
93.0
  0
LINE
  5
4C1E
330
18
100
AcDbEntity
  8
0
100
AcDbLine
 10
253.4519029999999
 20
563.0220689999998
 30
0.0
 11
253.4519029999999
 21
550.0316749999998
 31
0.0
  0
ARC
  5
4C21
330
18
100
AcDbEntity
  8
0
100
AcDbCircle
 10
255.9566989999999
 20
526.658143
 30
0.0
 40
3.5
100
AcDbArc
 50
273.0
 51
93.0
  0
LINE
  5
4C22
330
18
100
AcDbEntity
  8
0
100
AcDbLine
 10
253.4519029999999
 20
523.022069
 30
0.0
 11
253.4519029999999
 21
510.0746459999998
 31
0.0
  0
LINE
  5
4C2F
330
18
100
AcDbEntity
  8
0
100
AcDbLine
 10
1349.41373
 20
947.0123039999997
 30
0.0
 11
1216.404137
 21
940.0415669999999
 31
0.0
  0
LINE
  5
4C30
330
18
100
AcDbEntity
  8
0
100
AcDbLine
 10
1349.047378
 20
954.002711
 30
0.0
 11
1216.037785
 21
947.031974
 31
0.0
  0
LINE
  5
4C31
330
18
100
AcDbEntity
  8
0
100
AcDbLine
 10
1349.41373
 20
1047.012303999999
 30
0.0
 11
1216.404137
 21
1040.041567
 31
0.0
  0
LINE
  5
4C32
330
18
100
AcDbEntity
  8
0
100
AcDbLine
 10
1349.047378
 20
1034.002711
 30
0.0
 11
1216.037785
 21
1027.031974
 31
0.0
  0
LINE
  5
4C33
330
18
100
AcDbEntity
  8
0
100
AcDbLine
 10
1349.41373
 20
1027.012304
 30
0.0
 11
1216.404137
 21
1020.041567
 31
0.0
  0
LINE
  5
4C34
330
18
100
AcDbEntity
  8
0
100
AcDbLine
 10
1349.047378
 20
1014.002711
 30
0.0
 11
1216.037785
 21
1007.031973999999
 31
0.0
  0
LINE
  5
4C35
330
18
100
AcDbEntity
  8
0
100
AcDbLine
 10
1349.41373
 20
1007.012303999998
 30
0.0
 11
1278.486481
 21
1003.295164999999
 31
0.0
  0
LINE
  5
4C38
330
18
100
AcDbEntity
  8
0
100
AcDbLine
 10
1349.047378
 20
974.0027109999999
 30
0.0
 11
1216.037785
 21
967.031974
 31
0.0
  0
LINE
  5
4C39
330
18
100
AcDbEntity
  8
0
100
AcDbLine
 10
1349.41373
 20
967.0123039999998
 30
0.0
 11
1216.404137
 21
960.041567
 31
0.0
  0
LINE
  5
4C3A
330
18
100
AcDbEntity
  8
0
100
AcDbLine
 10
1342.661494999998
 20
1073.668041
 30
0.0
 11
1216.037785
 21
1067.031974
 31
0.0
  0
LINE
  5
4C3B
330
18
100
AcDbEntity
  8
0
100
AcDbLine
 10
1349.41373
 20
1067.012303999999
 30
0.0
 11
1216.404137
 21
1060.041567
 31
0.0
  0
LINE
  5
4C3C
330
18
100
AcDbEntity
  8
0
100
AcDbLine
 10
1349.047378
 20
1054.002710999998
 30
0.0
 11
1216.037785
 21
1047.031974
 31
0.0
  0
ARC
  5
4C3D
330
18
100
AcDbEntity
  8
0
100
AcDbCircle
 10
1216.220961
 20
943.5367699999996
 30
0.0
 40
3.5
100
AcDbArc
 50
93.0
 51
273.0
  0
LINE
  5
4C3E
330
18
100
AcDbEntity
  8
0
100
AcDbLine
 10
1218.725758
 20
1020.163238
 30
0.0
 11
1218.725758
 21
1007.172844
 31
0.0
  0
ARC
  5
4C3F
330
18
100
AcDbEntity
  8
0
100
AcDbCircle
 10
1216.220961
 20
1043.53677
 30
0.0
 40
3.5
100
AcDbArc
 50
93.0
 51
273.0
  0
ARC
  5
4C40
330
18
100
AcDbEntity
  8
0
100
AcDbCircle
 10
1216.220961
 20
1063.53677
 30
0.0
 40
3.5
100
AcDbArc
 50
93.0
 51
273.0
  0
LINE
  5
4C41
330
18
100
AcDbEntity
  8
0
100
AcDbLine
 10
1218.725758
 20
1060.163238
 30
0.0
 11
1218.725758
 21
1047.172844
 31
0.0
  0
LINE
  5
4C42
330
18
100
AcDbEntity
  8
0
100
AcDbLine
 10
1218.725758
 20
1040.163238
 30
0.0
 11
1218.725758
 21
1027.172844
 31
0.0
  0
ARC
  5
4C43
330
18
100
AcDbEntity
  8
0
100
AcDbCircle
 10
1216.220961
 20
1023.536769999998
 30
0.0
 40
3.5
100
AcDbArc
 50
93.0
 51
273.0
  0
LINE
  5
4C44
330
18
100
AcDbEntity
  8
0
100
AcDbLine
 10
1218.725758
 20
971.3238720000001
 30
0.0
 11
1218.725758
 21
967.1728439999997
 31
0.0
  0
LINE
  5
4C45
330
18
100
AcDbEntity
  8
0
100
AcDbLine
 10
1218.725758
 20
1000.163238
 30
0.0
 11
1218.725758
 21
993.500726
 31
0.0
  0
ARC
  5
4C46
330
18
100
AcDbEntity
  8
0
100
AcDbCircle
 10
1216.220961
 20
1003.536769999999
 30
0.0
 40
3.5
100
AcDbArc
 50
93.0
 51
273.0
  0
ARC
  5
4C49
330
18
100
AcDbEntity
  8
0
100
AcDbCircle
 10
1216.220961
 20
963.5367700000001
 30
0.0
 40
3.5
100
AcDbArc
 50
93.0
 51
273.0
  0
ARC
  5
4C4A
330
18
100
AcDbEntity
  8
0
100
AcDbCircle
 10
1216.220961
 20
963.5367700000001
 30
0.0
 40
3.5
100
AcDbArc
 50
93.0
 51
273.0
  0
LINE
  5
4C4B
330
18
100
AcDbEntity
  8
0
100
AcDbLine
 10
1218.725758
 20
960.1632379999999
 30
0.0
 11
1218.725758
 21
947.1728440000001
 31
0.0
  0
ARC
  5
4C53
330
18
100
AcDbEntity
  8
0
100
AcDbCircle
 10
1349.230554
 20
1010.507508
 30
0.0
 40
3.5
100
AcDbArc
 50
273.0
 51
93.0
  0
LINE
  5
4C54
330
18
100
AcDbEntity
  8
0
100
AcDbLine
 10
1346.725758
 20
1046.871434
 30
0.0
 11
1346.725758
 21
1033.88104
 31
0.0
  0
ARC
  5
4C55
330
18
100
AcDbEntity
  8
0
100
AcDbCircle
 10
1349.230554
 20
1070.507507999999
 30
0.0
 40
3.5
100
AcDbArc
 50
273.0
 51
64.556523
  0
ARC
  5
4C56
330
18
100
AcDbEntity
  8
0
100
AcDbCircle
 10
1349.230554
 20
1050.507507999999
 30
0.0
 40
3.5
100
AcDbArc
 50
273.0
 51
93.0
  0
LINE
  5
4C57
330
18
100
AcDbEntity
  8
0
100
AcDbLine
 10
1346.725758
 20
1066.871434
 30
0.0
 11
1346.725758
 21
1053.88104
 31
0.0
  0
ARC
  5
4C58
330
18
100
AcDbEntity
  8
0
100
AcDbCircle
 10
1349.230554
 20
1030.507508
 30
0.0
 40
3.5
100
AcDbArc
 50
273.0
 51
93.0
  0
LINE
  5
4C59
330
18
100
AcDbEntity
  8
0
100
AcDbLine
 10
1346.725758
 20
1026.871434
 30
0.0
 11
1346.725758
 21
1013.88104
 31
0.0
  0
LINE
  5
4C5A
330
18
100
AcDbEntity
  8
0
100
AcDbLine
 10
1346.725758
 20
981.6414979999999
 30
0.0
 11
1346.725758
 21
973.88104
 31
0.0
  0
LINE
  5
4C5C
330
18
100
AcDbEntity
  8
0
100
AcDbLine
 10
1346.725758
 20
1006.871434
 30
0.0
 11
1346.725758
 21
1003.620254
 31
0.0
  0
ARC
  5
4C5D
330
18
100
AcDbEntity
  8
0
100
AcDbCircle
 10
1349.230554
 20
950.5075080000001
 30
0.0
 40
3.5
100
AcDbArc
 50
273.0
 51
93.0
  0
ARC
  5
4C5E
330
18
100
AcDbEntity
  8
0
100
AcDbCircle
 10
1349.230554
 20
970.507508
 30
0.0
 40
3.5
100
AcDbArc
 50
273.0
 51
93.0
  0
ARC
  5
4C5F
330
18
100
AcDbEntity
  8
0
100
AcDbCircle
 10
1349.230554
 20
970.507508
 30
0.0
 40
3.5
100
AcDbArc
 50
273.0
 51
93.0
  0
LINE
  5
4C60
330
18
100
AcDbEntity
  8
0
100
AcDbLine
 10
1346.725758
 20
966.8714340000001
 30
0.0
 11
1346.725758
 21
953.88104
 31
0.0
  0
LINE
  5
4CC5
330
18
100
AcDbEntity
  8
0
100
AcDbLine
 10
159.6803659999999
 20
645.1173169999998
 30
0.0
 11
129.83708
 21
643.5532969999997
 31
0.0
  0
LINE
  5
4CC8
330
18
100
AcDbEntity
  8
0
100
AcDbLine
 10
127.107601
 20
643.410251
 30
0.0
 11
119.957563
 21
643.035533
 31
0.0
  0
LINE
  5
4CC9
330
18
100
AcDbEntity
  8
0
100
AcDbLine
 10
160.9516029999998
 20
638.1743339999998
 30
0.0
 11
123.130282
 21
636.1922019999998
 31
0.0
  0
LINE
  5
4CCA
330
18
100
AcDbEntity
  8
0
100
AcDbLine
 10
161.0382879999999
 20
625.188483
 30
0.0
 11
122.76393
 21
623.1826089999998
 31
0.0
  0
LINE
  5
4CCB
330
18
100
AcDbEntity
  8
0
100
AcDbLine
 10
169.681193
 20
618.631832
 30
0.0
 11
123.130282
 21
616.1922019999998
 31
0.0
  0
LINE
  5
4CCD
330
18
100
AcDbEntity
  8
0
100
AcDbLine
 10
187.951903
 20
606.598966
 30
0.0
 11
122.76393
 21
603.182609
 31
0.0
  0
LINE
  5
4CCE
330
18
100
AcDbEntity
  8
0
100
AcDbLine
 10
187.951903
 20
599.5893589999998
 30
0.0
 11
123.130282
 21
596.1922019999998
 31
0.0
  0
LINE
  5
4CCF
330
18
100
AcDbEntity
  8
0
100
AcDbLine
 10
187.951903
 20
586.598966
 30
0.0
 11
122.76393
 21
583.1826089999998
 31
0.0
  0
LINE
  5
4CD0
330
18
100
AcDbEntity
  8
0
100
AcDbLine
 10
187.951903
 20
579.5893589999998
 30
0.0
 11
123.130282
 21
576.1922019999998
 31
0.0
  0
LINE
  5
4CD1
330
18
100
AcDbEntity
  8
0
100
AcDbLine
 10
187.951903
 20
566.598966
 30
0.0
 11
122.76393
 21
563.1826089999998
 31
0.0
  0
LINE
  5
4CD2
330
18
100
AcDbEntity
  8
0
100
AcDbLine
 10
125.4519029999999
 20
510.0746459999998
 30
0.0
 11
253.4519029999999
 21
510.0746459999998
 31
0.0
  0
LINE
  5
4CD5
330
18
100
AcDbEntity
  8
0
100
AcDbLine
 10
1292.725658
 20
1101.918041
 30
0.0
 11
1348.225618
 21
1101.918041
 31
0.0
  0
LINE
  5
4CD6
330
18
100
AcDbEntity
  8
0
100
AcDbLine
 10
1292.725658
 20
1089.918040999999
 30
0.0
 11
1348.225618
 21
1089.918040999999
 31
0.0
  0
LINE
  5
4CD7
330
18
100
AcDbEntity
  8
0
100
AcDbLine
 10
1217.225558
 20
1073.668041
 30
0.0
 11
1350.734226
 21
1073.668041
 31
0.0
  0
LINE
  5
4CD8
330
18
100
AcDbEntity
  8
0
100
AcDbLine
 10
1348.225618
 20
1118.168040999999
 30
0.0
 11
1217.225558
 21
1118.168040999999
 31
0.0
  0
LINE
  5
4CDA
330
18
100
AcDbEntity
  8
0
100
AcDbLine
 10
1220.225558
 20
1133.166341
 30
0.0
 11
1345.225617999999
 21
1133.166341
 31
0.0
  0
LINE
  5
4CDB
330
18
100
AcDbEntity
  8
0
100
AcDbLine
 10
1203.225558
 20
1150.168141
 30
0.0
 11
1220.225658
 21
1133.168041
 31
0.0
  0
LINE
  5
4CDC
330
18
100
AcDbEntity
  8
0
100
AcDbLine
 10
1217.225558
 20
1101.918041
 30
0.0
 11
1272.725658
 21
1101.918041
 31
0.0
  0
LINE
  5
4CDD
330
18
100
AcDbEntity
  8
0
100
AcDbLine
 10
1217.225558
 20
1089.918040999999
 30
0.0
 11
1272.725658
 21
1089.918040999999
 31
0.0
  0
LINE
  5
4CDE
330
18
100
AcDbEntity
  8
0
100
AcDbLine
 10
1215.225658
 20
1110.168141
 30
0.0
 11
1215.225658
 21
1081.668041
 31
0.0
  0
LINE
  5
4CDF
330
18
100
AcDbEntity
  8
0
100
AcDbLine
 10
1217.225558
 20
1118.168040999999
 30
0.0
 11
1217.225558
 21
1073.668041
 31
0.0
  0
LINE
  5
4CE0
330
18
100
AcDbEntity
  8
0
100
AcDbLine
 10
1231.993858
 20
1093.418041
 30
0.0
 11
1232.431358
 21
1098.418040999999
 31
0.0
  0
LINE
  5
4CE1
330
18
100
AcDbEntity
  8
0
100
AcDbLine
 10
1231.427558
 20
1098.417940999999
 30
0.0
 11
1232.431358
 21
1098.417940999999
 31
0.0
  0
LINE
  5
4CE3
330
18
100
AcDbEntity
  8
0
100
AcDbLine
 10
1220.225558
 20
1089.918040999999
 30
0.0
 11
1220.225558
 21
1073.668041
 31
0.0
  0
LINE
  5
4CE5
330
18
100
AcDbEntity
  8
0
100
AcDbLine
 10
1215.225658
 20
1081.668141
 30
0.0
 11
1217.225658
 21
1073.668041
 31
0.0
  0
LINE
  5
4CE6
330
18
100
AcDbEntity
  8
0
100
AcDbLine
 10
1219.993858
 20
1093.418041
 30
0.0
 11
1220.431358
 21
1098.418040999999
 31
0.0
  0
LINE
  5
4CE7
330
18
100
AcDbEntity
  8
0
100
AcDbLine
 10
1219.427558
 20
1098.417940999999
 30
0.0
 11
1220.431358
 21
1098.417940999999
 31
0.0
  0
LINE
  5
4CE8
330
18
100
AcDbEntity
  8
0
100
AcDbLine
 10
1218.990158
 20
1093.417941
 30
0.0
 11
1219.427558
 21
1098.418040999999
 31
0.0
  0
LINE
  5
4CE9
330
18
100
AcDbEntity
  8
0
100
AcDbLine
 10
1218.990058
 20
1093.418141
 30
0.0
 11
1219.993858
 21
1093.418141
 31
0.0
  0
LINE
  5
4CEA
330
18
100
AcDbEntity
  8
0
100
AcDbLine
 10
1222.993858
 20
1093.418041
 30
0.0
 11
1223.431358
 21
1098.418040999999
 31
0.0
  0
LINE
  5
4CEB
330
18
100
AcDbEntity
  8
0
100
AcDbLine
 10
1222.427558
 20
1098.417940999999
 30
0.0
 11
1223.431358
 21
1098.417940999999
 31
0.0
  0
LINE
  5
4CEC
330
18
100
AcDbEntity
  8
0
100
AcDbLine
 10
1221.990058
 20
1093.417941
 30
0.0
 11
1222.427558
 21
1098.418040999999
 31
0.0
  0
LINE
  5
4CED
330
18
100
AcDbEntity
  8
0
100
AcDbLine
 10
1221.990058
 20
1093.418141
 30
0.0
 11
1222.993957999999
 21
1093.418141
 31
0.0
  0
LINE
  5
4CEE
330
18
100
AcDbEntity
  8
0
100
AcDbLine
 10
1230.990158
 20
1093.418041
 30
0.0
 11
1231.427558
 21
1098.418040999999
 31
0.0
  0
LINE
  5
4CEF
330
18
100
AcDbEntity
  8
0
100
AcDbLine
 10
1230.990158
 20
1093.418141
 30
0.0
 11
1231.993858
 21
1093.418141
 31
0.0
  0
LINE
  5
4CF0
330
18
100
AcDbEntity
  8
0
100
AcDbLine
 10
1228.993958
 20
1093.418141
 30
0.0
 11
1229.431358
 21
1098.418040999999
 31
0.0
  0
LINE
  5
4CF1
330
18
100
AcDbEntity
  8
0
100
AcDbLine
 10
1228.427558
 20
1098.417940999999
 30
0.0
 11
1229.431358
 21
1098.417940999999
 31
0.0
  0
LINE
  5
4CF2
330
18
100
AcDbEntity
  8
0
100
AcDbLine
 10
1227.990158
 20
1093.417941
 30
0.0
 11
1228.427658
 21
1098.418040999999
 31
0.0
  0
LINE
  5
4CF3
330
18
100
AcDbEntity
  8
0
100
AcDbLine
 10
1227.990058
 20
1093.418141
 30
0.0
 11
1228.993858
 21
1093.418141
 31
0.0
  0
LINE
  5
4CF4
330
18
100
AcDbEntity
  8
0
100
AcDbLine
 10
1225.993858
 20
1093.418041
 30
0.0
 11
1226.431358
 21
1098.418040999999
 31
0.0
  0
LINE
  5
4CF5
330
18
100
AcDbEntity
  8
0
100
AcDbLine
 10
1225.427558
 20
1098.417940999999
 30
0.0
 11
1226.431358
 21
1098.417940999999
 31
0.0
  0
LINE
  5
4CF6
330
18
100
AcDbEntity
  8
0
100
AcDbLine
 10
1224.990158
 20
1093.417941
 30
0.0
 11
1225.427558
 21
1098.418040999999
 31
0.0
  0
LINE
  5
4CF7
330
18
100
AcDbEntity
  8
0
100
AcDbLine
 10
1224.990058
 20
1093.418141
 30
0.0
 11
1225.993858
 21
1093.418141
 31
0.0
  0
LINE
  5
4CF8
330
18
100
AcDbEntity
  8
0
100
AcDbLine
 10
1245.989958
 20
1093.418141
 30
0.0
 11
1246.427458
 21
1098.418040999999
 31
0.0
  0
LINE
  5
4CF9
330
18
100
AcDbEntity
  8
0
100
AcDbLine
 10
1245.990158
 20
1093.418141
 30
0.0
 11
1246.993858
 21
1093.418141
 31
0.0
  0
LINE
  5
4CFA
330
18
100
AcDbEntity
  8
0
100
AcDbLine
 10
1243.427558
 20
1098.417940999999
 30
0.0
 11
1244.431358
 21
1098.417940999999
 31
0.0
  0
LINE
  5
4CFB
330
18
100
AcDbEntity
  8
0
100
AcDbLine
 10
1243.993858
 20
1093.417941
 30
0.0
 11
1244.431358
 21
1098.418040999999
 31
0.0
  0
LINE
  5
4CFC
330
18
100
AcDbEntity
  8
0
100
AcDbLine
 10
1242.990158
 20
1093.418041
 30
0.0
 11
1243.427558
 21
1098.418040999999
 31
0.0
  0
LINE
  5
4CFD
330
18
100
AcDbEntity
  8
0
100
AcDbLine
 10
1242.990058
 20
1093.418141
 30
0.0
 11
1243.993858
 21
1093.418141
 31
0.0
  0
LINE
  5
4CFE
330
18
100
AcDbEntity
  8
0
100
AcDbLine
 10
1240.427558
 20
1098.417940999999
 30
0.0
 11
1241.431358
 21
1098.417940999999
 31
0.0
  0
LINE
  5
4CFF
330
18
100
AcDbEntity
  8
0
100
AcDbLine
 10
1240.993958
 20
1093.417941
 30
0.0
 11
1241.431358
 21
1098.418040999999
 31
0.0
  0
LINE
  5
4D00
330
18
100
AcDbEntity
  8
0
100
AcDbLine
 10
1239.990058
 20
1093.418041
 30
0.0
 11
1240.427558
 21
1098.418040999999
 31
0.0
  0
LINE
  5
4D01
330
18
100
AcDbEntity
  8
0
100
AcDbLine
 10
1239.990058
 20
1093.418141
 30
0.0
 11
1240.993858
 21
1093.418141
 31
0.0
  0
LINE
  5
4D02
330
18
100
AcDbEntity
  8
0
100
AcDbLine
 10
1237.427558
 20
1098.417940999999
 30
0.0
 11
1238.431358
 21
1098.417940999999
 31
0.0
  0
LINE
  5
4D03
330
18
100
AcDbEntity
  8
0
100
AcDbLine
 10
1237.993958
 20
1093.418041
 30
0.0
 11
1238.431457999999
 21
1098.417940999999
 31
0.0
  0
LINE
  5
4D04
330
18
100
AcDbEntity
  8
0
100
AcDbLine
 10
1236.990058
 20
1093.418041
 30
0.0
 11
1237.427458
 21
1098.418040999999
 31
0.0
  0
LINE
  5
4D05
330
18
100
AcDbEntity
  8
0
100
AcDbLine
 10
1236.990058
 20
1093.418141
 30
0.0
 11
1237.993958
 21
1093.418141
 31
0.0
  0
LINE
  5
4D06
330
18
100
AcDbEntity
  8
0
100
AcDbLine
 10
1234.993958
 20
1093.418041
 30
0.0
 11
1235.431358
 21
1098.417940999999
 31
0.0
  0
LINE
  5
4D07
330
18
100
AcDbEntity
  8
0
100
AcDbLine
 10
1233.990158
 20
1093.417941
 30
0.0
 11
1234.427658
 21
1098.418040999999
 31
0.0
  0
LINE
  5
4D08
330
18
100
AcDbEntity
  8
0
100
AcDbLine
 10
1234.427558
 20
1098.417940999999
 30
0.0
 11
1235.431358
 21
1098.417940999999
 31
0.0
  0
LINE
  5
4D09
330
18
100
AcDbEntity
  8
0
100
AcDbLine
 10
1233.990058
 20
1093.418141
 30
0.0
 11
1234.993858
 21
1093.418141
 31
0.0
  0
LINE
  5
4D0A
330
18
100
AcDbEntity
  8
0
100
AcDbLine
 10
1261.427558
 20
1098.417940999999
 30
0.0
 11
1262.431358
 21
1098.417940999999
 31
0.0
  0
LINE
  5
4D0B
330
18
100
AcDbEntity
  8
0
100
AcDbLine
 10
1261.993858
 20
1093.418041
 30
0.0
 11
1262.431358
 21
1098.418040999999
 31
0.0
  0
LINE
  5
4D0C
330
18
100
AcDbEntity
  8
0
100
AcDbLine
 10
1260.990158
 20
1093.417941
 30
0.0
 11
1261.427558
 21
1098.418040999999
 31
0.0
  0
LINE
  5
4D0D
330
18
100
AcDbEntity
  8
0
100
AcDbLine
 10
1260.990158
 20
1093.418141
 30
0.0
 11
1261.993858
 21
1093.418141
 31
0.0
  0
LINE
  5
4D0E
330
18
100
AcDbEntity
  8
0
100
AcDbLine
 10
1258.427558
 20
1098.417940999999
 30
0.0
 11
1259.431358
 21
1098.417940999999
 31
0.0
  0
LINE
  5
4D0F
330
18
100
AcDbEntity
  8
0
100
AcDbLine
 10
1258.993958
 20
1093.417941
 30
0.0
 11
1259.431358
 21
1098.418040999999
 31
0.0
  0
LINE
  5
4D10
330
18
100
AcDbEntity
  8
0
100
AcDbLine
 10
1257.990058
 20
1093.417941
 30
0.0
 11
1258.427558
 21
1098.418040999999
 31
0.0
  0
LINE
  5
4D11
330
18
100
AcDbEntity
  8
0
100
AcDbLine
 10
1257.990058
 20
1093.418141
 30
0.0
 11
1258.993858
 21
1093.418141
 31
0.0
  0
LINE
  5
4D12
330
18
100
AcDbEntity
  8
0
100
AcDbLine
 10
1255.427558
 20
1098.417940999999
 30
0.0
 11
1256.431358
 21
1098.417940999999
 31
0.0
  0
LINE
  5
4D13
330
18
100
AcDbEntity
  8
0
100
AcDbLine
 10
1255.993958
 20
1093.417941
 30
0.0
 11
1256.431458
 21
1098.418040999999
 31
0.0
  0
LINE
  5
4D14
330
18
100
AcDbEntity
  8
0
100
AcDbLine
 10
1254.990058
 20
1093.418041
 30
0.0
 11
1255.427458
 21
1098.418040999999
 31
0.0
  0
LINE
  5
4D15
330
18
100
AcDbEntity
  8
0
100
AcDbLine
 10
1254.990058
 20
1093.418141
 30
0.0
 11
1255.993858
 21
1093.418141
 31
0.0
  0
LINE
  5
4D16
330
18
100
AcDbEntity
  8
0
100
AcDbLine
 10
1252.427558
 20
1098.417940999999
 30
0.0
 11
1253.431358
 21
1098.417940999999
 31
0.0
  0
LINE
  5
4D17
330
18
100
AcDbEntity
  8
0
100
AcDbLine
 10
1252.993958
 20
1093.418041
 30
0.0
 11
1253.431358
 21
1098.418040999999
 31
0.0
  0
LINE
  5
4D18
330
18
100
AcDbEntity
  8
0
100
AcDbLine
 10
1251.990158
 20
1093.418041
 30
0.0
 11
1252.427658
 21
1098.417940999999
 31
0.0
  0
LINE
  5
4D19
330
18
100
AcDbEntity
  8
0
100
AcDbLine
 10
1251.990058
 20
1093.418141
 30
0.0
 11
1252.993958
 21
1093.418141
 31
0.0
  0
LINE
  5
4D1A
330
18
100
AcDbEntity
  8
0
100
AcDbLine
 10
1249.427558
 20
1098.417940999999
 30
0.0
 11
1250.431358
 21
1098.417940999999
 31
0.0
  0
LINE
  5
4D1B
330
18
100
AcDbEntity
  8
0
100
AcDbLine
 10
1249.993858
 20
1093.418041
 30
0.0
 11
1250.431358
 21
1098.418040999999
 31
0.0
  0
LINE
  5
4D1C
330
18
100
AcDbEntity
  8
0
100
AcDbLine
 10
1248.990158
 20
1093.418041
 30
0.0
 11
1249.427558
 21
1098.417940999999
 31
0.0
  0
LINE
  5
4D1D
330
18
100
AcDbEntity
  8
0
100
AcDbLine
 10
1248.990058
 20
1093.418141
 30
0.0
 11
1249.993858
 21
1093.418141
 31
0.0
  0
LINE
  5
4D1E
330
18
100
AcDbEntity
  8
0
100
AcDbLine
 10
1246.427558
 20
1098.417940999999
 30
0.0
 11
1247.431358
 21
1098.417940999999
 31
0.0
  0
LINE
  5
4D1F
330
18
100
AcDbEntity
  8
0
100
AcDbLine
 10
1246.994058
 20
1093.418041
 30
0.0
 11
1247.431458
 21
1098.418040999999
 31
0.0
  0
LINE
  5
4D20
330
18
100
AcDbEntity
  8
0
100
AcDbLine
 10
1220.225558
 20
1133.168041
 30
0.0
 11
1220.225558
 21
1101.918041
 31
0.0
  0
LINE
  5
4D21
330
18
100
AcDbEntity
  8
0
100
AcDbLine
 10
1215.225558
 20
1110.168040999998
 30
0.0
 11
1217.225658
 21
1118.168141
 31
0.0
  0
LINE
  5
4D22
330
18
100
AcDbEntity
  8
0
100
AcDbLine
 10
1272.725658
 20
1104.918041
 30
0.0
 11
1272.725658
 21
1086.918040999998
 31
0.0
  0
LINE
  5
4D23
330
18
100
AcDbEntity
  8
0
100
AcDbLine
 10
1292.725658
 20
1104.918041
 30
0.0
 11
1292.725658
 21
1086.918040999998
 31
0.0
  0
LINE
  5
4D24
330
18
100
AcDbEntity
  8
0
100
AcDbLine
 10
1297.725658
 20
1100.418040999999
 30
0.0
 11
1297.725658
 21
1091.418141
 31
0.0
  0
LINE
  5
4D25
330
18
100
AcDbEntity
  8
0
100
AcDbLine
 10
1295.725558
 20
1100.418040999999
 30
0.0
 11
1295.725558
 21
1091.418141
 31
0.0
  0
LINE
  5
4D28
330
18
100
AcDbEntity
  8
0
100
AcDbLine
 10
1272.725658
 20
1086.918040999998
 30
0.0
 11
1292.725658
 21
1086.918040999998
 31
0.0
  0
LINE
  5
4D29
330
18
100
AcDbEntity
  8
0
100
AcDbLine
 10
1273.232657999999
 20
1090.418040999999
 30
0.0
 11
1291.688358
 21
1090.418040999999
 31
0.0
  0
LINE
  5
4D2A
330
18
100
AcDbEntity
  8
0
100
AcDbLine
 10
1267.427558
 20
1098.417940999999
 30
0.0
 11
1268.431358
 21
1098.417940999999
 31
0.0
  0
LINE
  5
4D2B
330
18
100
AcDbEntity
  8
0
100
AcDbLine
 10
1267.993858
 20
1093.418141
 30
0.0
 11
1268.431358
 21
1098.418040999999
 31
0.0
  0
LINE
  5
4D2C
330
18
100
AcDbEntity
  8
0
100
AcDbLine
 10
1266.990158
 20
1093.418041
 30
0.0
 11
1267.427658
 21
1098.418040999999
 31
0.0
  0
LINE
  5
4D2D
330
18
100
AcDbEntity
  8
0
100
AcDbLine
 10
1266.990058
 20
1093.418141
 30
0.0
 11
1267.993958
 21
1093.418141
 31
0.0
  0
LINE
  5
4D2E
330
18
100
AcDbEntity
  8
0
100
AcDbLine
 10
1264.427558
 20
1098.417940999999
 30
0.0
 11
1265.431358
 21
1098.417940999999
 31
0.0
  0
LINE
  5
4D2F
330
18
100
AcDbEntity
  8
0
100
AcDbLine
 10
1264.994058
 20
1093.418041
 30
0.0
 11
1265.431458
 21
1098.418040999999
 31
0.0
  0
LINE
  5
4D30
330
18
100
AcDbEntity
  8
0
100
AcDbLine
 10
1263.989958
 20
1093.418041
 30
0.0
 11
1264.427458
 21
1098.418040999999
 31
0.0
  0
LINE
  5
4D31
330
18
100
AcDbEntity
  8
0
100
AcDbLine
 10
1263.990058
 20
1093.418141
 30
0.0
 11
1264.993858
 21
1093.418141
 31
0.0
  0
LINE
  5
4D32
330
18
100
AcDbEntity
  8
0
100
AcDbLine
 10
1270.427558
 20
1098.417940999999
 30
0.0
 11
1271.431358
 21
1098.417940999999
 31
0.0
  0
LINE
  5
4D33
330
18
100
AcDbEntity
  8
0
100
AcDbLine
 10
1270.993958
 20
1093.418041
 30
0.0
 11
1271.431358
 21
1098.418040999999
 31
0.0
  0
LINE
  5
4D34
330
18
100
AcDbEntity
  8
0
100
AcDbLine
 10
1269.990358
 20
1093.418041
 30
0.0
 11
1270.427658
 21
1098.418040999999
 31
0.0
  0
LINE
  5
4D35
330
18
100
AcDbEntity
  8
0
100
AcDbLine
 10
1269.990058
 20
1093.418141
 30
0.0
 11
1270.993858
 21
1093.418141
 31
0.0
  0
LINE
  5
4D36
330
18
100
AcDbEntity
  8
0
100
AcDbLine
 10
1302.725678
 20
1099.418040999998
 30
0.0
 11
1302.725678
 21
1092.418040999999
 31
0.0
  0
LINE
  5
4D37
330
18
100
AcDbEntity
  8
0
100
AcDbLine
 10
1295.725558
 20
1091.418141
 30
0.0
 11
1297.725658
 21
1091.418141
 31
0.0
  0
LINE
  5
4D38
330
18
100
AcDbEntity
  8
0
100
AcDbLine
 10
1297.725658
 20
1099.418040999998
 30
0.0
 11
1302.725678
 21
1099.418040999998
 31
0.0
  0
LINE
  5
4D39
330
18
100
AcDbEntity
  8
0
100
AcDbLine
 10
1297.725658
 20
1092.418040999999
 30
0.0
 11
1302.725678
 21
1092.418040999999
 31
0.0
  0
LINE
  5
4D3A
330
18
100
AcDbEntity
  8
0
100
AcDbLine
 10
1297.725658
 20
1095.918141
 30
0.0
 11
1302.725678
 21
1095.918141
 31
0.0
  0
LINE
  5
4D3B
330
18
100
AcDbEntity
  8
0
100
AcDbLine
 10
1272.725658
 20
1104.918041
 30
0.0
 11
1292.725658
 21
1104.918041
 31
0.0
  0
LINE
  5
4D3C
330
18
100
AcDbEntity
  8
0
100
AcDbLine
 10
1273.541258
 20
1101.418041
 30
0.0
 11
1291.688358
 21
1101.418041
 31
0.0
  0
LINE
  5
4D3D
330
18
100
AcDbEntity
  8
0
100
AcDbLine
 10
1295.725558
 20
1100.418040999999
 30
0.0
 11
1297.725658
 21
1100.418040999999
 31
0.0
  0
LINE
  5
4D3E
330
18
100
AcDbEntity
  8
0
100
AcDbLine
 10
1345.225678
 20
1133.167940999999
 30
0.0
 11
1362.225798
 21
1150.168040999999
 31
0.0
  0
LINE
  5
4D3F
330
18
100
AcDbEntity
  8
0
100
AcDbLine
 10
1350.225678
 20
1110.168141
 30
0.0
 11
1350.225678
 21
1081.668041
 31
0.0
  0
LINE
  5
4D40
330
18
100
AcDbEntity
  8
0
100
AcDbLine
 10
1348.225618
 20
1118.168040999999
 30
0.0
 11
1348.225618
 21
1073.668041
 31
0.0
  0
LINE
  5
4D42
330
18
100
AcDbEntity
  8
0
100
AcDbLine
 10
1345.225678
 20
1089.918040999999
 30
0.0
 11
1345.225678
 21
1073.668041
 31
0.0
  0
LINE
  5
4D43
330
18
100
AcDbEntity
  8
0
100
AcDbLine
 10
1348.225618
 20
1073.668041
 30
0.0
 11
1350.225678
 21
1081.668041
 31
0.0
  0
LINE
  5
4D44
330
18
100
AcDbEntity
  8
0
100
AcDbLine
 10
1345.225678
 20
1133.167940999999
 30
0.0
 11
1345.225678
 21
1101.918041
 31
0.0
  0
LINE
  5
4D45
330
18
100
AcDbEntity
  8
0
100
AcDbLine
 10
1348.225798
 20
1118.168040999999
 30
0.0
 11
1350.225738
 21
1110.168040999998
 31
0.0
  0
LINE
  5
4D63
330
18
100
AcDbEntity
  8
0
100
AcDbLine
 10
617.6726
 20
-179.020255
 30
0.0
 11
484.663007
 21
-185.9909919999999
 31
0.0
  0
LINE
  5
4D64
330
18
100
AcDbEntity
  8
0
100
AcDbLine
 10
618.038952
 20
-166.0106609999999
 30
0.0
 11
485.0293579999997
 21
-172.981399
 31
0.0
  0
LINE
  5
4D69
330
18
100
AcDbEntity
  8
0
100
AcDbLine
 10
618.038952
 20
-226.010661
 30
0.0
 11
561.391192
 21
-228.979445
 31
0.0
  0
LINE
  5
4D6A
330
18
100
AcDbEntity
  8
0
100
AcDbLine
 10
617.6726
 20
-219.0202549999999
 30
0.0
 11
544.957211
 21
-222.8311069999999
 31
0.0
  0
LINE
  5
4D6B
330
18
100
AcDbEntity
  8
0
100
AcDbLine
 10
618.038952
 20
-206.010661
 30
0.0
 11
485.0293579999997
 21
-212.981399
 31
0.0
  0
LINE
  5
4D6C
330
18
100
AcDbEntity
  8
0
100
AcDbLine
 10
617.6726
 20
-199.020255
 30
0.0
 11
484.663007
 21
-205.9909919999999
 31
0.0
  0
LINE
  5
4D6D
330
18
100
AcDbEntity
  8
0
100
AcDbLine
 10
618.038952
 20
-186.010661
 30
0.0
 11
485.0293579999997
 21
-192.981399
 31
0.0
  0
LINE
  5
4D7F
330
18
100
AcDbEntity
  8
0
100
AcDbLine
 10
487.3509789999998
 20
-172.8597279999999
 30
0.0
 11
487.3509789999998
 21
-185.850121
 31
0.0
  0
ARC
  5
4D80
330
18
100
AcDbEntity
  8
0
100
AcDbCircle
 10
484.8461829999997
 20
-229.4861959999999
 30
0.0
 40
3.5
100
AcDbArc
 50
93.0
 51
206.812009
  0
ARC
  5
4D87
330
18
100
AcDbEntity
  8
0
100
AcDbCircle
 10
484.8461829999997
 20
-189.486196
 30
0.0
 40
3.5
100
AcDbArc
 50
93.0
 51
273.0
  0
LINE
  5
4D88
330
18
100
AcDbEntity
  8
0
100
AcDbLine
 10
487.3509789999998
 20
-192.8597279999999
 30
0.0
 11
487.3509789999998
 21
-205.850121
 31
0.0
  0
LINE
  5
4D89
330
18
100
AcDbEntity
  8
0
100
AcDbLine
 10
487.3509789999998
 20
-212.859728
 30
0.0
 11
487.3509789999998
 21
-225.8501209999999
 31
0.0
  0
ARC
  5
4D8A
330
18
100
AcDbEntity
  8
0
100
AcDbCircle
 10
484.8461829999997
 20
-209.486196
 30
0.0
 40
3.5
100
AcDbArc
 50
93.0
 51
273.0
  0
ARC
  5
4D8B
330
18
100
AcDbEntity
  8
0
100
AcDbCircle
 10
484.8461829999997
 20
-169.486196
 30
0.0
 40
3.5
100
AcDbArc
 50
93.0
 51
273.0
  0
LINE
  5
4D8C
330
18
100
AcDbEntity
  8
0
100
AcDbLine
 10
487.3509789999998
 20
-152.8597279999999
 30
0.0
 11
487.3509789999998
 21
-165.850121
 31
0.0
  0
ARC
  5
4D94
330
18
100
AcDbEntity
  8
0
100
AcDbCircle
 10
617.855776
 20
-182.5154579999999
 30
0.0
 40
3.5
100
AcDbArc
 50
273.0
 51
93.0
  0
LINE
  5
4D95
330
18
100
AcDbEntity
  8
0
100
AcDbLine
 10
615.3509790000001
 20
-226.1515319999999
 30
0.0
 11
615.3509790000001
 21
-230.098014
 31
0.0
  0
LINE
  5
4D9A
330
18
100
AcDbEntity
  8
0
100
AcDbLine
 10
615.3509790000001
 20
-186.151532
 30
0.0
 11
615.3509790000001
 21
-199.141926
 31
0.0
  0
ARC
  5
4D9B
330
18
100
AcDbEntity
  8
0
100
AcDbCircle
 10
617.855776
 20
-202.515458
 30
0.0
 40
3.5
100
AcDbArc
 50
273.0
 51
93.0
  0
ARC
  5
4D9C
330
18
100
AcDbEntity
  8
0
100
AcDbCircle
 10
617.855776
 20
-222.5154579999998
 30
0.0
 40
3.5
100
AcDbArc
 50
273.0
 51
93.0
  0
LINE
  5
4D9D
330
18
100
AcDbEntity
  8
0
100
AcDbLine
 10
615.3509790000001
 20
-206.151532
 30
0.0
 11
615.3509790000001
 21
-219.1419259999999
 31
0.0
  0
LINE
  5
4D9E
330
18
100
AcDbEntity
  8
0
100
AcDbLine
 10
615.3509790000001
 20
-146.1515319999999
 30
0.0
 11
615.3509790000001
 21
-159.141926
 31
0.0
  0
LINE
  5
4D9F
330
18
100
AcDbEntity
  8
0
100
AcDbLine
 10
615.3509790000001
 20
-166.151532
 30
0.0
 11
615.3509790000001
 21
-179.141926
 31
0.0
  0
ARC
  5
4DA0
330
18
100
AcDbEntity
  8
0
100
AcDbCircle
 10
617.855776
 20
-162.515458
 30
0.0
 40
3.5
100
AcDbArc
 50
273.0
 51
93.0
  0
LINE
  5
4DCC
330
18
100
AcDbEntity
  8
0
100
AcDbLine
 10
1349.41373
 20
927.0123039999999
 30
0.0
 11
1216.404137
 21
920.0415669999999
 31
0.0
  0
LINE
  5
4DCD
330
18
100
AcDbEntity
  8
0
100
AcDbLine
 10
1349.047378
 20
934.0027109999999
 30
0.0
 11
1216.037785
 21
927.0319739999999
 31
0.0
  0
ARC
  5
4DCE
330
18
100
AcDbEntity
  8
0
100
AcDbCircle
 10
1349.230554
 20
930.5075079999999
 30
0.0
 40
3.5
100
AcDbArc
 50
273.0
 51
93.0
  0
LINE
  5
4DCF
330
18
100
AcDbEntity
  8
0
100
AcDbLine
 10
1346.725758
 20
946.871434
 30
0.0
 11
1346.725758
 21
933.8810399999999
 31
0.0
  0
LINE
  5
4DD0
330
18
100
AcDbEntity
  8
0
100
AcDbLine
 10
1218.725758
 20
940.163238
 30
0.0
 11
1218.725758
 21
927.172844
 31
0.0
  0
ARC
  5
4DD1
330
18
100
AcDbEntity
  8
0
100
AcDbCircle
 10
1216.220961
 20
923.5367700000001
 30
0.0
 40
3.5
100
AcDbArc
 50
93.0
 51
273.0
  0
LINE
  5
4DD2
330
18
100
AcDbEntity
  8
0
100
AcDbLine
 10
1349.41373
 20
907.0123039999996
 30
0.0
 11
1216.404137
 21
900.041567
 31
0.0
  0
LINE
  5
4DD3
330
18
100
AcDbEntity
  8
0
100
AcDbLine
 10
1349.047378
 20
914.002711
 30
0.0
 11
1216.037785
 21
907.031974
 31
0.0
  0
ARC
  5
4DD4
330
18
100
AcDbEntity
  8
0
100
AcDbCircle
 10
1349.230554
 20
910.507508
 30
0.0
 40
3.5
100
AcDbArc
 50
273.0
 51
93.0
  0
LINE
  5
4DD5
330
18
100
AcDbEntity
  8
0
100
AcDbLine
 10
1346.725758
 20
926.871434
 30
0.0
 11
1346.725758
 21
913.88104
 31
0.0
  0
LINE
  5
4DD6
330
18
100
AcDbEntity
  8
0
100
AcDbLine
 10
1218.725758
 20
920.1632379999999
 30
0.0
 11
1218.725758
 21
907.1728440000001
 31
0.0
  0
ARC
  5
4DD7
330
18
100
AcDbEntity
  8
0
100
AcDbCircle
 10
1216.220961
 20
903.53677
 30
0.0
 40
3.5
100
AcDbArc
 50
93.0
 51
273.0
  0
LINE
  5
4DD8
330
18
100
AcDbEntity
  8
0
100
AcDbLine
 10
1349.41373
 20
887.0123039999999
 30
0.0
 11
1216.404137
 21
880.0415669999999
 31
0.0
  0
LINE
  5
4DD9
330
18
100
AcDbEntity
  8
0
100
AcDbLine
 10
1349.047378
 20
894.002711
 30
0.0
 11
1216.037785
 21
887.0319739999999
 31
0.0
  0
ARC
  5
4DDA
330
18
100
AcDbEntity
  8
0
100
AcDbCircle
 10
1349.230554
 20
890.5075080000001
 30
0.0
 40
3.5
100
AcDbArc
 50
273.0
 51
93.0
  0
LINE
  5
4DDB
330
18
100
AcDbEntity
  8
0
100
AcDbLine
 10
1346.725758
 20
906.8714339999999
 30
0.0
 11
1346.725758
 21
893.8810399999999
 31
0.0
  0
LINE
  5
4DDC
330
18
100
AcDbEntity
  8
0
100
AcDbLine
 10
1218.725758
 20
900.1632380000001
 30
0.0
 11
1218.725758
 21
887.172844
 31
0.0
  0
ARC
  5
4DDD
330
18
100
AcDbEntity
  8
0
100
AcDbCircle
 10
1216.220961
 20
883.5367699999999
 30
0.0
 40
3.5
100
AcDbArc
 50
93.0
 51
273.0
  0
LINE
  5
4DDE
330
18
100
AcDbEntity
  8
0
100
AcDbLine
 10
1349.41373
 20
867.0123039999998
 30
0.0
 11
1216.404137
 21
860.041567
 31
0.0
  0
LINE
  5
4DDF
330
18
100
AcDbEntity
  8
0
100
AcDbLine
 10
1349.047378
 20
874.0027109999997
 30
0.0
 11
1216.037785
 21
867.031974
 31
0.0
  0
ARC
  5
4DE0
330
18
100
AcDbEntity
  8
0
100
AcDbCircle
 10
1349.230554
 20
870.507508
 30
0.0
 40
3.5
100
AcDbArc
 50
273.0
 51
93.0
  0
LINE
  5
4DE1
330
18
100
AcDbEntity
  8
0
100
AcDbLine
 10
1346.725758
 20
886.871434
 30
0.0
 11
1346.725758
 21
873.88104
 31
0.0
  0
LINE
  5
4DE2
330
18
100
AcDbEntity
  8
0
100
AcDbLine
 10
1218.725758
 20
880.163238
 30
0.0
 11
1218.725758
 21
867.1728439999997
 31
0.0
  0
ARC
  5
4DE3
330
18
100
AcDbEntity
  8
0
100
AcDbCircle
 10
1216.220961
 20
863.5367699999997
 30
0.0
 40
3.5
100
AcDbArc
 50
93.0
 51
273.0
  0
LINE
  5
4DE4
330
18
100
AcDbEntity
  8
0
100
AcDbLine
 10
1349.41373
 20
847.0123039999997
 30
0.0
 11
1216.404137
 21
840.0415669999999
 31
0.0
  0
LINE
  5
4DE5
330
18
100
AcDbEntity
  8
0
100
AcDbLine
 10
1349.047378
 20
854.002711
 30
0.0
 11
1216.037785
 21
847.031974
 31
0.0
  0
ARC
  5
4DE6
330
18
100
AcDbEntity
  8
0
100
AcDbCircle
 10
1349.230554
 20
850.5075080000001
 30
0.0
 40
3.5
100
AcDbArc
 50
273.0
 51
93.0
  0
LINE
  5
4DE7
330
18
100
AcDbEntity
  8
0
100
AcDbLine
 10
1346.725758
 20
866.8714340000001
 30
0.0
 11
1346.725758
 21
853.88104
 31
0.0
  0
LINE
  5
4DE8
330
18
100
AcDbEntity
  8
0
100
AcDbLine
 10
1218.725758
 20
860.1632380000001
 30
0.0
 11
1218.725758
 21
847.1728439999997
 31
0.0
  0
ARC
  5
4DE9
330
18
100
AcDbEntity
  8
0
100
AcDbCircle
 10
1216.220961
 20
843.5367699999996
 30
0.0
 40
3.5
100
AcDbArc
 50
93.0
 51
273.0
  0
LINE
  5
4DEA
330
18
100
AcDbEntity
  8
0
100
AcDbLine
 10
1349.41373
 20
827.0123039999997
 30
0.0
 11
1216.404137
 21
820.0415669999998
 31
0.0
  0
LINE
  5
4DEB
330
18
100
AcDbEntity
  8
0
100
AcDbLine
 10
1349.047378
 20
834.0027110000002
 30
0.0
 11
1216.037785
 21
827.0319739999999
 31
0.0
  0
ARC
  5
4DEC
330
18
100
AcDbEntity
  8
0
100
AcDbCircle
 10
1349.230554
 20
830.5075079999998
 30
0.0
 40
3.5
100
AcDbArc
 50
273.0
 51
93.0
  0
LINE
  5
4DED
330
18
100
AcDbEntity
  8
0
100
AcDbLine
 10
1346.725758
 20
846.871434
 30
0.0
 11
1346.725758
 21
833.8810399999998
 31
0.0
  0
LINE
  5
4DEE
330
18
100
AcDbEntity
  8
0
100
AcDbLine
 10
1218.725758
 20
840.163238
 30
0.0
 11
1218.725758
 21
827.172844
 31
0.0
  0
ARC
  5
4DEF
330
18
100
AcDbEntity
  8
0
100
AcDbCircle
 10
1216.220961
 20
823.5367700000001
 30
0.0
 40
3.5
100
AcDbArc
 50
93.0
 51
273.0
  0
LINE
  5
4DF0
330
18
100
AcDbEntity
  8
0
100
AcDbLine
 10
1349.41373
 20
807.012304
 30
0.0
 11
1216.404137
 21
800.041567
 31
0.0
  0
LINE
  5
4DF1
330
18
100
AcDbEntity
  8
0
100
AcDbLine
 10
1349.047378
 20
814.0027110000001
 30
0.0
 11
1216.037785
 21
807.031974
 31
0.0
  0
ARC
  5
4DF2
330
18
100
AcDbEntity
  8
0
100
AcDbCircle
 10
1349.230554
 20
810.507508
 30
0.0
 40
3.5
100
AcDbArc
 50
273.0
 51
93.0
  0
LINE
  5
4DF3
330
18
100
AcDbEntity
  8
0
100
AcDbLine
 10
1346.725758
 20
826.871434
 30
0.0
 11
1346.725758
 21
813.88104
 31
0.0
  0
LINE
  5
4DF4
330
18
100
AcDbEntity
  8
0
100
AcDbLine
 10
1218.725758
 20
820.1632379999999
 30
0.0
 11
1218.725758
 21
807.1728440000001
 31
0.0
  0
ARC
  5
4DF5
330
18
100
AcDbEntity
  8
0
100
AcDbCircle
 10
1216.220961
 20
803.53677
 30
0.0
 40
3.5
100
AcDbArc
 50
93.0
 51
273.0
  0
LINE
  5
4DF6
330
18
100
AcDbEntity
  8
0
100
AcDbLine
 10
1349.41373
 20
787.012304
 30
0.0
 11
1216.404137
 21
780.041567
 31
0.0
  0
LINE
  5
4DF7
330
18
100
AcDbEntity
  8
0
100
AcDbLine
 10
1349.047378
 20
794.002711
 30
0.0
 11
1216.037785
 21
787.031974
 31
0.0
  0
ARC
  5
4DF8
330
18
100
AcDbEntity
  8
0
100
AcDbCircle
 10
1349.230554
 20
790.507508
 30
0.0
 40
3.5
100
AcDbArc
 50
273.0
 51
93.0
  0
LINE
  5
4DF9
330
18
100
AcDbEntity
  8
0
100
AcDbLine
 10
1346.725758
 20
806.8714339999997
 30
0.0
 11
1346.725758
 21
793.88104
 31
0.0
  0
LINE
  5
4DFA
330
18
100
AcDbEntity
  8
0
100
AcDbLine
 10
1218.725758
 20
800.163238
 30
0.0
 11
1218.725758
 21
787.172844
 31
0.0
  0
ARC
  5
4DFB
330
18
100
AcDbEntity
  8
0
100
AcDbCircle
 10
1216.220961
 20
783.53677
 30
0.0
 40
3.5
100
AcDbArc
 50
93.0
 51
273.0
  0
LINE
  5
4DFC
330
18
100
AcDbEntity
  8
0
100
AcDbLine
 10
1349.41373
 20
767.012304
 30
0.0
 11
1216.404137
 21
760.041567
 31
0.0
  0
LINE
  5
4DFD
330
18
100
AcDbEntity
  8
0
100
AcDbLine
 10
1349.047378
 20
774.002711
 30
0.0
 11
1216.037785
 21
767.031974
 31
0.0
  0
ARC
  5
4DFE
330
18
100
AcDbEntity
  8
0
100
AcDbCircle
 10
1349.230554
 20
770.507508
 30
0.0
 40
3.5
100
AcDbArc
 50
273.0
 51
93.0
  0
LINE
  5
4DFF
330
18
100
AcDbEntity
  8
0
100
AcDbLine
 10
1346.725758
 20
786.871434
 30
0.0
 11
1346.725758
 21
773.88104
 31
0.0
  0
LINE
  5
4E00
330
18
100
AcDbEntity
  8
0
100
AcDbLine
 10
1218.725758
 20
780.163238
 30
0.0
 11
1218.725758
 21
767.172844
 31
0.0
  0
ARC
  5
4E01
330
18
100
AcDbEntity
  8
0
100
AcDbCircle
 10
1216.220961
 20
763.53677
 30
0.0
 40
3.5
100
AcDbArc
 50
93.0
 51
273.0
  0
LINE
  5
4E30
330
18
100
AcDbEntity
  8
0
100
AcDbLine
 10
1350.100231999999
 20
746.4973409999998
 30
0.0
 11
1217.569965
 21
733.2356879999998
 31
0.0
  0
ARC
  5
4E31
330
18
100
AcDbEntity
  8
0
100
AcDbCircle
 10
1349.751743999999
 20
749.979949
 30
0.0
 40
3.5
100
AcDbArc
 50
275.7142859999999
 51
95.714286
  0
ARC
  5
4E32
330
18
100
AcDbEntity
  8
0
100
AcDbCircle
 10
1217.221477
 20
736.718295
 30
0.0
 40
3.5
100
AcDbArc
 50
95.714286
 51
275.7142859999999
  0
LINE
  5
4E33
330
18
100
AcDbEntity
  8
0
100
AcDbLine
 10
1349.403257
 20
753.4625570000001
 30
0.0
 11
1216.87299
 21
740.200903
 31
0.0
  0
LINE
  5
4E34
330
18
100
AcDbEntity
  8
0
100
AcDbLine
 10
1351.757458999998
 20
726.037903
 30
0.0
 11
1220.003891
 21
706.5150909999998
 31
0.0
  0
ARC
  5
4E35
330
18
100
AcDbEntity
  8
0
100
AcDbCircle
 10
1351.244442
 20
729.500101
 30
0.0
 40
3.5
100
AcDbArc
 50
278.4285709999999
 51
98.42857100000001
  0
ARC
  5
4E36
330
18
100
AcDbEntity
  8
0
100
AcDbCircle
 10
1219.490873
 20
709.977288
 30
0.0
 40
3.5
100
AcDbArc
 50
98.42857100000001
 51
278.4285709999999
  0
LINE
  5
4E37
330
18
100
AcDbEntity
  8
0
100
AcDbLine
 10
1350.731425
 20
732.962299
 30
0.0
 11
1218.977856
 21
713.439486
 31
0.0
  0
LINE
  5
4E38
330
18
100
AcDbEntity
  8
0
100
AcDbLine
 10
1354.381695
 20
705.679898
 30
0.0
 11
1223.700453
 21
679.9397309999998
 31
0.0
  0
ARC
  5
4E39
330
18
100
AcDbEntity
  8
0
100
AcDbCircle
 10
1353.705299
 20
709.1139169999999
 30
0.0
 40
3.5
100
AcDbArc
 50
281.1428569999999
 51
101.1428569999999
  0
ARC
  5
4E3A
330
18
100
AcDbEntity
  8
0
100
AcDbCircle
 10
1223.024058
 20
683.3737499999998
 30
0.0
 40
3.5
100
AcDbArc
 50
101.1428569999999
 51
281.1428569999999
  0
LINE
  5
4E3B
330
18
100
AcDbEntity
  8
0
100
AcDbLine
 10
1353.028903
 20
712.547937
 30
0.0
 11
1222.347662
 21
686.80777
 31
0.0
  0
LINE
  5
4E3C
330
18
100
AcDbEntity
  8
0
100
AcDbLine
 10
1357.96705
 20
685.469004
 30
0.0
 11
1228.651358
 21
653.5692389999998
 31
0.0
  0
ARC
  5
4E3D
330
18
100
AcDbEntity
  8
0
100
AcDbCircle
 10
1357.128792999999
 20
688.86714
 30
0.0
 40
3.5
100
AcDbArc
 50
283.857143
 51
103.857143
  0
ARC
  5
4E3E
330
18
100
AcDbEntity
  8
0
100
AcDbCircle
 10
1227.813101999998
 20
656.9673749999998
 30
0.0
 40
3.5
100
AcDbArc
 50
103.857143
 51
283.857143
  0
LINE
  5
4E3F
330
18
100
AcDbEntity
  8
0
100
AcDbLine
 10
1356.290537
 20
692.265276
 30
0.0
 11
1226.974844999999
 21
660.36551
 31
0.0
  0
LINE
  5
4E40
330
18
100
AcDbEntity
  8
0
100
AcDbLine
 10
1362.50548
 20
665.4505719999998
 30
0.0
 11
1234.845497
 21
627.4627849999998
 31
0.0
  0
ARC
  5
4E41
330
18
100
AcDbEntity
  8
0
100
AcDbCircle
 10
1361.507243
 20
668.8051989999999
 30
0.0
 40
3.5
100
AcDbArc
 50
286.571429
 51
106.571429
  0
ARC
  5
4E42
330
18
100
AcDbEntity
  8
0
100
AcDbCircle
 10
1233.84726
 20
630.817412
 30
0.0
 40
3.5
100
AcDbArc
 50
106.571429
 51
286.571429
  0
LINE
  5
4E43
330
18
100
AcDbEntity
  8
0
100
AcDbLine
 10
1360.509006
 20
672.1598259999998
 30
0.0
 11
1232.849024
 21
634.1720389999998
 31
0.0
  0
LINE
  5
4E44
330
18
100
AcDbEntity
  8
0
100
AcDbLine
 10
1367.986801
 20
645.669517
 30
0.0
 11
1242.268971
 21
601.678946
 31
0.0
  0
ARC
  5
4E45
330
18
100
AcDbEntity
  8
0
100
AcDbCircle
 10
1366.830824
 20
648.973109
 30
0.0
 40
3.5
100
AcDbArc
 50
289.2857140000001
 51
109.2857139999999
  0
ARC
  5
4E46
330
18
100
AcDbEntity
  8
0
100
AcDbCircle
 10
1241.112993999998
 20
604.9825379999998
 30
0.0
 40
3.5
100
AcDbArc
 50
109.2857139999999
 51
289.2857140000001
  0
LINE
  5
4E47
330
18
100
AcDbEntity
  8
0
100
AcDbLine
 10
1365.674847
 20
652.2767009999999
 30
0.0
 11
1239.957017
 21
608.2861289999998
 31
0.0
  0
LINE
  5
4E48
330
18
100
AcDbEntity
  8
0
100
AcDbLine
 10
1374.398714
 20
626.1702259999998
 30
0.0
 11
1250.905123
 21
576.275577
 31
0.0
  0
ARC
  5
4E49
330
18
100
AcDbEntity
  8
0
100
AcDbCircle
 10
1373.087590999999
 20
629.41537
 30
0.0
 40
3.5
100
AcDbArc
 50
292.0
 51
112.0
  0
ARC
  5
4E4A
330
18
100
AcDbEntity
  8
0
100
AcDbCircle
 10
1249.594
 20
579.52072
 30
0.0
 40
3.5
100
AcDbArc
 50
112.0
 51
292.0
  0
LINE
  5
4E4B
330
18
100
AcDbEntity
  8
0
100
AcDbLine
 10
1371.776468
 20
632.660513
 30
0.0
 11
1248.282877
 21
582.765864
 31
0.0
  0
LINE
  5
4E4C
330
18
100
AcDbEntity
  8
0
100
AcDbLine
 10
1381.726832
 20
606.99645
 30
0.0
 11
1260.734575
 21
551.3096759999998
 31
0.0
  0
ARC
  5
4E4D
330
18
100
AcDbEntity
  8
0
100
AcDbCircle
 10
1380.263505
 20
610.1758639999998
 30
0.0
 40
3.5
100
AcDbArc
 50
294.7142859999999
 51
114.714286
  0
ARC
  5
4E4E
330
18
100
AcDbEntity
  8
0
100
AcDbCircle
 10
1259.271248
 20
554.48909
 30
0.0
 40
3.5
100
AcDbArc
 50
114.714286
 51
294.7142859999999
  0
LINE
  5
4E4F
330
18
100
AcDbEntity
  8
0
100
AcDbLine
 10
1378.800177
 20
613.355278
 30
0.0
 11
1257.80792
 21
557.668504
 31
0.0
  0
LINE
  5
4E50
330
18
100
AcDbEntity
  8
0
100
AcDbLine
 10
1389.954713
 20
588.1912129999998
 30
0.0
 11
1271.735272999999
 21
526.8372639999999
 31
0.0
  0
ARC
  5
4E51
330
18
100
AcDbEntity
  8
0
100
AcDbCircle
 10
1388.342465
 20
591.297763
 30
0.0
 40
3.5
100
AcDbArc
 50
297.4285709999998
 51
117.4285709999999
  0
ARC
  5
4E52
330
18
100
AcDbEntity
  8
0
100
AcDbCircle
 10
1270.123024
 20
529.9438150000002
 30
0.0
 40
3.5
100
AcDbArc
 50
117.4285709999999
 51
297.4285709999998
  0
LINE
  5
4E53
330
18
100
AcDbEntity
  8
0
100
AcDbLine
 10
1386.730216
 20
594.4043129999998
 30
0.0
 11
1268.510776
 21
533.050365
 31
0.0
  0
LINE
  5
4E54
330
18
100
AcDbEntity
  8
0
100
AcDbLine
 10
1399.063895
 20
569.7967079999998
 30
0.0
 11
1283.882532
 21
502.913251
 31
0.0
  0
ARC
  5
4E55
330
18
100
AcDbEntity
  8
0
100
AcDbCircle
 10
1397.306343
 20
572.823424
 30
0.0
 40
3.5
100
AcDbArc
 50
300.1428569999998
 51
120.142857
  0
ARC
  5
4E56
330
18
100
AcDbEntity
  8
0
100
AcDbCircle
 10
1282.12498
 20
505.9399679999998
 30
0.0
 40
3.5
100
AcDbArc
 50
120.142857
 51
300.1428569999998
  0
LINE
  5
4E57
330
18
100
AcDbEntity
  8
0
100
AcDbLine
 10
1395.548791
 20
575.85014
 30
0.0
 11
1280.367428
 21
508.9666839999998
 31
0.0
  0
LINE
  5
4E58
330
18
100
AcDbEntity
  8
0
100
AcDbLine
 10
1409.033938
 20
551.8542099999998
 30
0.0
 11
1297.149098
 21
479.5913179999998
 31
0.0
  0
ARC
  5
4E59
330
18
100
AcDbEntity
  8
0
100
AcDbCircle
 10
1407.135025999999
 20
554.794301
 30
0.0
 40
3.5
100
AcDbArc
 50
302.8571429999999
 51
122.8571429999999
  0
ARC
  5
4E5A
330
18
100
AcDbEntity
  8
0
100
AcDbCircle
 10
1295.250186
 20
482.531409
 30
0.0
 40
3.5
100
AcDbArc
 50
122.8571429999999
 51
302.8571429999999
  0
LINE
  5
4E5B
330
18
100
AcDbEntity
  8
0
100
AcDbLine
 10
1405.236114
 20
557.7343919999998
 30
0.0
 11
1293.351274
 21
485.4714999999997
 31
0.0
  0
LINE
  5
4E5C
330
18
100
AcDbEntity
  8
0
100
AcDbLine
 10
1419.842472
 20
534.4039780000001
 30
0.0
 11
1311.505201
 21
456.923795
 31
0.0
  0
ARC
  5
4E5D
330
18
100
AcDbEntity
  8
0
100
AcDbCircle
 10
1417.806461
 20
537.250847
 30
0.0
 40
3.5
100
AcDbArc
 50
305.571429
 51
125.571429
  0
ARC
  5
4E5E
330
18
100
AcDbEntity
  8
0
100
AcDbCircle
 10
1309.46919
 20
459.7706639999998
 30
0.0
 40
3.5
100
AcDbArc
 50
125.571429
 51
305.571429
  0
LINE
  5
4E5F
330
18
100
AcDbEntity
  8
0
100
AcDbLine
 10
1415.77045
 20
540.097715
 30
0.0
 11
1307.433179
 21
462.617532
 31
0.0
  0
LINE
  5
4E60
330
18
100
AcDbEntity
  8
0
100
AcDbLine
 10
1431.465243999999
 20
517.485167
 30
0.0
 11
1326.91863
 21
434.9615429999998
 31
0.0
  0
ARC
  5
4E61
330
18
100
AcDbEntity
  8
0
100
AcDbCircle
 10
1429.296703
 20
520.232426
 30
0.0
 40
3.5
100
AcDbArc
 50
308.285714
 51
128.2857139999999
  0
ARC
  5
4E62
330
18
100
AcDbEntity
  8
0
100
AcDbCircle
 10
1324.750088
 20
437.708801
 30
0.0
 40
3.5
100
AcDbArc
 50
128.2857139999999
 51
308.285714
  0
LINE
  5
4E63
330
18
100
AcDbEntity
  8
0
100
AcDbLine
 10
1427.128160999999
 20
522.979684
 30
0.0
 11
1322.581547
 21
440.4560599999999
 31
0.0
  0
ARC
  5
4E85
330
18
100
AcDbEntity
  8
0
100
AcDbCircle
 10
1445.37971
 20
498.339316
 30
0.0
 40
3.5
100
AcDbArc
 50
303.3714289999998
 51
123.3714289999999
  0
LINE
  5
4E86
330
18
100
AcDbEntity
  8
0
100
AcDbLine
 10
1443.454484
 20
501.262244
 30
0.0
 11
1332.222772
 21
427.998001
 31
0.0
  0
LINE
  5
4E87
330
18
100
AcDbEntity
  8
0
100
AcDbLine
 10
1447.304935
 20
495.416388
 30
0.0
 11
1336.073223
 21
422.152145
 31
0.0
  0
ARC
  5
4E88
330
18
100
AcDbEntity
  8
0
100
AcDbCircle
 10
1334.147998
 20
425.075073
 30
0.0
 40
3.5
100
AcDbArc
 50
123.3714289999999
 51
303.3714289999998
  0
ARC
  5
4E89
330
18
100
AcDbEntity
  8
0
100
AcDbCircle
 10
1459.528114
 20
475.14893
 30
0.0
 40
3.5
100
AcDbArc
 50
298.457143
 51
118.4571429999998
  0
LINE
  5
4E8A
330
18
100
AcDbEntity
  8
0
100
AcDbLine
 10
1457.860359999999
 20
478.226038
 30
0.0
 11
1340.761333
 21
414.759819
 31
0.0
  0
LINE
  5
4E8B
330
18
100
AcDbEntity
  8
0
100
AcDbLine
 10
1461.195868999999
 20
472.071821
 30
0.0
 11
1344.096841999999
 21
408.6056029999999
 31
0.0
  0
ARC
  5
4E8C
330
18
100
AcDbEntity
  8
0
100
AcDbCircle
 10
1342.429087
 20
411.682711
 30
0.0
 40
3.5
100
AcDbArc
 50
118.4571429999998
 51
298.457143
  0
ARC
  5
4E8D
330
18
100
AcDbEntity
  8
0
100
AcDbCircle
 10
1471.637897
 20
450.8317639999998
 30
0.0
 40
3.5
100
AcDbArc
 50
293.5428569999999
 51
113.542857
  0
LINE
  5
4E8E
330
18
100
AcDbEntity
  8
0
100
AcDbLine
 10
1470.239875
 20
454.040429
 30
0.0
 11
1348.134452
 21
400.838843
 31
0.0
  0
LINE
  5
4E8F
330
18
100
AcDbEntity
  8
0
100
AcDbLine
 10
1473.035918999999
 20
447.623099
 30
0.0
 11
1350.930496
 21
394.4215119999998
 31
0.0
  0
ARC
  5
4E90
330
18
100
AcDbEntity
  8
0
100
AcDbCircle
 10
1349.532474
 20
397.630177
 30
0.0
 40
3.5
100
AcDbArc
 50
113.542857
 51
293.5428569999999
  0
ARC
  5
4E91
330
18
100
AcDbEntity
  8
0
100
AcDbCircle
 10
1481.620024999999
 20
425.5665999999997
 30
0.0
 40
3.5
100
AcDbArc
 50
288.628571
 51
108.628571
  0
LINE
  5
4E92
330
18
100
AcDbEntity
  8
0
100
AcDbLine
 10
1480.502013
 20
428.8832329999998
 30
0.0
 11
1354.287922
 21
386.3374199999998
 31
0.0
  0
LINE
  5
4E93
330
18
100
AcDbEntity
  8
0
100
AcDbLine
 10
1482.738036999999
 20
422.2499679999998
 30
0.0
 11
1356.523945
 21
379.7041549999998
 31
0.0
  0
ARC
  5
4E94
330
18
100
AcDbEntity
  8
0
100
AcDbCircle
 10
1355.405933999999
 20
383.0207869999998
 30
0.0
 40
3.5
100
AcDbArc
 50
108.628571
 51
288.628571
  0
ARC
  5
4E95
330
18
100
AcDbEntity
  8
0
100
AcDbCircle
 10
1489.40111
 20
399.5391899999998
 30
0.0
 40
3.5
100
AcDbArc
 50
283.7142859999999
 51
103.714286
  0
LINE
  5
4E96
330
18
100
AcDbEntity
  8
0
100
AcDbLine
 10
1488.571328
 20
402.9394049999998
 30
0.0
 11
1359.176502
 21
371.362165
 31
0.0
  0
LINE
  5
4E97
330
18
100
AcDbEntity
  8
0
100
AcDbLine
 10
1490.230891
 20
396.138975
 30
0.0
 11
1360.836064999999
 21
364.561735
 31
0.0
  0
ARC
  5
4E98
330
18
100
AcDbEntity
  8
0
100
AcDbCircle
 10
1360.006284
 20
367.96195
 30
0.0
 40
3.5
100
AcDbArc
 50
103.714286
 51
283.7142859999999
  0
ARC
  5
4E99
330
18
100
AcDbEntity
  8
0
100
AcDbCircle
 10
1494.923943999999
 20
372.9408879999998
 30
0.0
 40
3.5
100
AcDbArc
 50
278.8
 51
98.8
  0
LINE
  5
4E9A
330
18
100
AcDbEntity
  8
0
100
AcDbLine
 10
1494.388492999999
 20
376.399687
 30
0.0
 11
1362.764252
 21
356.0231779999998
 31
0.0
  0
LINE
  5
4E9B
330
18
100
AcDbEntity
  8
0
100
AcDbLine
 10
1495.459394
 20
369.482089
 30
0.0
 11
1363.835153
 21
349.1055789999998
 31
0.0
  0
ARC
  5
4E9C
330
18
100
AcDbEntity
  8
0
100
AcDbCircle
 10
1363.299702
 20
352.564379
 30
0.0
 40
3.5
100
AcDbArc
 50
98.8
 51
278.8
  0
ARC
  5
4E9D
330
18
100
AcDbEntity
  8
0
100
AcDbCircle
 10
1498.147923
 20
345.967246
 30
0.0
 40
3.5
100
AcDbArc
 50
273.8857139999999
 51
93.885714
  0
LINE
  5
4E9E
330
18
100
AcDbEntity
  8
0
100
AcDbLine
 10
1497.91074
 20
349.4592009999998
 30
0.0
 11
1365.024793
 21
340.4332319999998
 31
0.0
  0
LINE
  5
4E9F
330
18
100
AcDbEntity
  8
0
100
AcDbLine
 10
1498.385105999999
 20
342.4752919999999
 30
0.0
 11
1365.499159
 21
333.449323
 31
0.0
  0
ARC
  5
4EA0
330
18
100
AcDbEntity
  8
0
100
AcDbCircle
 10
1365.261976
 20
336.9412779999998
 30
0.0
 40
3.5
100
AcDbArc
 50
93.885714
 51
273.8857139999999
  0
ARC
  5
4EA1
330
18
100
AcDbEntity
  8
0
100
AcDbCircle
 10
1499.049344999999
 20
318.8165779999998
 30
0.0
 40
3.5
100
AcDbArc
 50
268.9714289999999
 51
88.971429
  0
LINE
  5
4EA2
330
18
100
AcDbEntity
  8
0
100
AcDbLine
 10
1499.112173
 20
322.316014
 30
0.0
 11
1365.941507
 21
324.706945
 31
0.0
  0
LINE
  5
4EA3
330
18
100
AcDbEntity
  8
0
100
AcDbLine
 10
1498.986515999999
 20
315.317142
 30
0.0
 11
1365.815849999999
 21
317.708073
 31
0.0
  0
ARC
  5
4EA4
330
18
100
AcDbEntity
  8
0
100
AcDbCircle
 10
1365.878678
 20
321.2075089999999
 30
0.0
 40
3.5
100
AcDbArc
 50
88.971429
 51
268.9714289999999
  0
ARC
  5
4EA5
330
18
100
AcDbEntity
  8
0
100
AcDbCircle
 10
1497.621582
 20
291.688495
 30
0.0
 40
3.5
100
AcDbArc
 50
264.057143
 51
84.05714300000003
  0
LINE
  5
4EA6
330
18
100
AcDbEntity
  8
0
100
AcDbLine
 10
1497.98396
 20
295.169685
 30
0.0
 11
1365.507652
 21
308.9599379999999
 31
0.0
  0
LINE
  5
4EA7
330
18
100
AcDbEntity
  8
0
100
AcDbLine
 10
1497.259204
 20
288.2073049999998
 30
0.0
 11
1364.782896
 21
301.997558
 31
0.0
  0
ARC
  5
4EA8
330
18
100
AcDbEntity
  8
0
100
AcDbCircle
 10
1365.145274
 20
305.4787479999999
 30
0.0
 40
3.5
100
AcDbArc
 50
84.05714300000003
 51
264.057143
  0
ARC
  5
4EA9
330
18
100
AcDbEntity
  8
0
100
AcDbCircle
 10
1493.87513
 20
264.7824459999999
 30
0.0
 40
3.5
100
AcDbArc
 50
259.142857
 51
79.14285699999997
  0
LINE
  5
4EAA
330
18
100
AcDbEntity
  8
0
100
AcDbLine
 10
1494.534394
 20
268.2197959999999
 30
0.0
 11
1363.72642
 21
293.307983
 31
0.0
  0
LINE
  5
4EAB
330
18
100
AcDbEntity
  8
0
100
AcDbLine
 10
1493.215866999999
 20
261.345097
 30
0.0
 11
1362.407894
 21
286.4332839999999
 31
0.0
  0
ARC
  5
4EAC
330
18
100
AcDbEntity
  8
0
100
AcDbCircle
 10
1363.067157
 20
289.870634
 30
0.0
 40
3.5
100
AcDbArc
 50
79.14285699999997
 51
259.142857
  0
ARC
  5
4EAD
330
18
100
AcDbEntity
  8
0
100
AcDbCircle
 10
1487.837534999999
 20
238.2962459999999
 30
0.0
 40
3.5
100
AcDbArc
 50
254.2285709999999
 51
74.228571
  0
LINE
  5
4EAE
330
18
100
AcDbEntity
  8
0
100
AcDbLine
 10
1488.788836999999
 20
241.664483
 30
0.0
 11
1360.610906
 21
277.8661559999999
 31
0.0
  0
LINE
  5
4EAF
330
18
100
AcDbEntity
  8
0
100
AcDbLine
 10
1486.886234
 20
234.928008
 30
0.0
 11
1358.708303
 21
271.1296799999999
 31
0.0
  0
ARC
  5
4EB0
330
18
100
AcDbEntity
  8
0
100
AcDbCircle
 10
1359.659603999999
 20
274.497918
 30
0.0
 40
3.5
100
AcDbArc
 50
74.228571
 51
254.2285709999999
  0
ARC
  5
4EB1
330
18
100
AcDbEntity
  8
0
100
AcDbCircle
 10
1479.553185
 20
212.424622
 30
0.0
 40
3.5
100
AcDbArc
 50
249.3142859999999
 51
69.314286
  0
LINE
  5
4EB2
330
18
100
AcDbEntity
  8
0
100
AcDbLine
 10
1480.789531
 20
215.698984
 30
0.0
 11
1356.184015
 21
262.7479839999999
 31
0.0
  0
LINE
  5
4EB3
330
18
100
AcDbEntity
  8
0
100
AcDbLine
 10
1478.316839999999
 20
209.150259
 30
0.0
 11
1353.711323
 21
256.199259
 31
0.0
  0
ARC
  5
4EB4
330
18
100
AcDbEntity
  8
0
100
AcDbCircle
 10
1354.947668999999
 20
259.473622
 30
0.0
 40
3.5
100
AcDbArc
 50
69.314286
 51
249.3142859999999
  0
ARC
  5
4EB5
330
18
100
AcDbEntity
  8
0
100
AcDbCircle
 10
1469.082987
 20
187.357785
 30
0.0
 40
3.5
100
AcDbArc
 50
244.3999999999999
 51
64.40000000000001
  0
LINE
  5
4EB6
330
18
100
AcDbEntity
  8
0
100
AcDbLine
 10
1470.595287
 20
190.5141989999999
 30
0.0
 11
1350.478294
 21
248.0646189999999
 31
0.0
  0
LINE
  5
4EB7
330
18
100
AcDbEntity
  8
0
100
AcDbLine
 10
1467.570687
 20
184.2013709999999
 30
0.0
 11
1347.453693
 21
241.751791
 31
0.0
  0
ARC
  5
4EB8
330
18
100
AcDbEntity
  8
0
100
AcDbCircle
 10
1348.965994
 20
244.9082049999999
 30
0.0
 40
3.5
100
AcDbArc
 50
64.40000000000001
 51
244.3999999999999
  0
ARC
  5
4EB9
330
18
100
AcDbEntity
  8
0
100
AcDbCircle
 10
1456.503919
 20
163.2800269999999
 30
0.0
 40
3.5
100
AcDbArc
 50
239.485714
 51
59.485714
  0
LINE
  5
4EBA
330
18
100
AcDbEntity
  8
0
100
AcDbLine
 10
1458.281055
 20
166.295286
 30
0.0
 11
1343.535692
 21
233.9240129999999
 31
0.0
  0
LINE
  5
4EBB
330
18
100
AcDbEntity
  8
0
100
AcDbLine
 10
1454.726783
 20
160.264768
 30
0.0
 11
1339.981419
 21
227.893495
 31
0.0
  0
ARC
  5
4EBC
330
18
100
AcDbEntity
  8
0
100
AcDbCircle
 10
1341.758556
 20
230.908754
 30
0.0
 40
3.5
100
AcDbArc
 50
59.485714
 51
239.485714
  0
ARC
  5
4EBD
330
18
100
AcDbEntity
  8
0
100
AcDbCircle
 10
1441.908461999999
 20
140.36837
 30
0.0
 40
3.5
100
AcDbArc
 50
234.571429
 51
54.571429
  0
LINE
  5
4EBE
330
18
100
AcDbEntity
  8
0
100
AcDbLine
 10
1443.937369
 20
143.2203059999999
 30
0.0
 11
1335.407251
 21
220.4301279999999
 31
0.0
  0
LINE
  5
4EBF
330
18
100
AcDbEntity
  8
0
100
AcDbLine
 10
1439.879556
 20
137.5164339999999
 30
0.0
 11
1331.349438
 21
214.7262569999999
 31
0.0
  0
ARC
  5
4EC0
330
18
100
AcDbEntity
  8
0
100
AcDbCircle
 10
1333.378343999998
 20
217.5781919999999
 30
0.0
 40
3.5
100
AcDbArc
 50
54.571429
 51
234.571429
  0
ARC
  5
4EC1
330
18
100
AcDbEntity
  8
0
100
AcDbCircle
 10
1425.403924
 20
118.791262
 30
0.0
 40
3.5
100
AcDbArc
 50
229.657143
 51
49.657143
  0
LINE
  5
4EC2
330
18
100
AcDbEntity
  8
0
100
AcDbLine
 10
1427.669684
 20
121.458907
 30
0.0
 11
1326.152732
 21
207.682173
 31
0.0
  0
LINE
  5
4EC3
330
18
100
AcDbEntity
  8
0
100
AcDbLine
 10
1423.138164
 20
116.123617
 30
0.0
 11
1321.621212
 21
202.346883
 31
0.0
  0
ARC
  5
4EC4
330
18
100
AcDbEntity
  8
0
100
AcDbCircle
 10
1323.886972
 20
205.014528
 30
0.0
 40
3.5
100
AcDbArc
 50
49.657143
 51
229.657143
  0
ARC
  5
4EC5
330
18
100
AcDbEntity
  8
0
100
AcDbCircle
 10
1407.111646
 20
98.70733900000001
 30
0.0
 40
3.5
100
AcDbArc
 50
224.7428569999999
 51
44.742857
  0
LINE
  5
4EC6
330
18
100
AcDbEntity
  8
0
100
AcDbLine
 10
1409.597602
 20
101.171081
 30
0.0
 11
1315.840176
 21
195.7738719999999
 31
0.0
  0
LINE
  5
4EC7
330
18
100
AcDbEntity
  8
0
100
AcDbLine
 10
1404.62569
 20
96.243598
 30
0.0
 11
1310.868264
 21
190.8463889999999
 31
0.0
  0
ARC
  5
4EC8
330
18
100
AcDbEntity
  8
0
100
AcDbCircle
 10
1313.354219999999
 20
193.31013
 30
0.0
 40
3.5
100
AcDbArc
 50
44.742857
 51
224.7428569999999
  0
ARC
  5
4EC9
330
18
100
AcDbEntity
  8
0
100
AcDbCircle
 10
1387.166116
 20
80.26425999999998
 30
0.0
 40
3.5
100
AcDbArc
 50
219.8285709999999
 51
39.828571
  0
LINE
  5
4ECA
330
18
100
AcDbEntity
  8
0
100
AcDbLine
 10
1389.853991
 20
82.50598399999999
 30
0.0
 11
1304.5454
 21
184.792774
 31
0.0
  0
LINE
  5
4ECB
330
18
100
AcDbEntity
  8
0
100
AcDbLine
 10
1384.478241
 20
78.02253499999998
 30
0.0
 11
1299.16965
 21
180.309325
 31
0.0
  0
ARC
  5
4ECC
330
18
100
AcDbEntity
  8
0
100
AcDbCircle
 10
1301.857524999999
 20
182.55105
 30
0.0
 40
3.5
100
AcDbArc
 50
39.828571
 51
219.8285709999999
  0
ARC
  5
4ECD
330
18
100
AcDbEntity
  8
0
100
AcDbCircle
 10
1365.713973
 20
63.59761800000001
 30
0.0
 40
3.5
100
AcDbArc
 50
214.9142859999999
 51
34.91428599999998
  0
LINE
  5
4ECE
330
18
100
AcDbEntity
  8
0
100
AcDbLine
 10
1368.584005
 20
65.60084499999999
 30
0.0
 11
1292.351444
 21
174.819615
 31
0.0
  0
LINE
  5
4ECF
330
18
100
AcDbEntity
  8
0
100
AcDbLine
 10
1362.843941
 20
61.59439200000001
 30
0.0
 11
1286.61138
 21
170.813162
 31
0.0
  0
ARC
  5
4ED0
330
18
100
AcDbEntity
  8
0
100
AcDbCircle
 10
1289.481411999999
 20
172.8163879999999
 30
0.0
 40
3.5
100
AcDbArc
 50
34.91428599999998
 51
214.9142859999999
  0
ARC
  5
4ED1
330
18
100
AcDbEntity
  8
0
100
AcDbCircle
 10
1342.912935
 20
48.82994899999999
 30
0.0
 40
3.5
100
AcDbArc
 50
210.0
 51
30.0
  0
LINE
  5
4ED2
330
18
100
AcDbEntity
  8
0
100
AcDbLine
 10
1345.944024
 20
50.579949
 30
0.0
 11
1279.34796
 21
165.927716
 31
0.0
  0
LINE
  5
4ED3
330
18
100
AcDbEntity
  8
0
100
AcDbLine
 10
1339.881847
 20
47.079949
 30
0.0
 11
1273.285782
 21
162.427716
 31
0.0
  0
ARC
  5
4ED4
330
18
100
AcDbEntity
  8
0
100
AcDbCircle
 10
1276.316871
 20
164.177716
 30
0.0
 40
3.5
100
AcDbArc
 50
30.0
 51
210.0
  0
ARC
  5
4ED5
330
18
100
AcDbEntity
  8
0
100
AcDbCircle
 10
1318.930638
 20
36.069825
 30
0.0
 40
3.5
100
AcDbArc
 50
205.085714
 51
25.085714
  0
LINE
  5
4ED6
330
18
100
AcDbEntity
  8
0
100
AcDbLine
 10
1322.100499
 20
37.553733
 30
0.0
 11
1265.63055
 21
158.182452
 31
0.0
  0
LINE
  5
4ED7
330
18
100
AcDbEntity
  8
0
100
AcDbLine
 10
1315.760777
 20
34.58591699999999
 30
0.0
 11
1259.290828
 21
155.214637
 31
0.0
  0
ARC
  5
4ED8
330
18
100
AcDbEntity
  8
0
100
AcDbCircle
 10
1262.460689
 20
156.698544
 30
0.0
 40
3.5
100
AcDbArc
 50
25.085714
 51
205.085714
  0
ARC
  5
4ED9
330
18
100
AcDbEntity
  8
0
100
AcDbCircle
 10
1293.943398999998
 20
25.41105899999999
 30
0.0
 40
3.5
100
AcDbArc
 50
200.171429
 51
20.171429
  0
LINE
  5
4EDA
330
18
100
AcDbEntity
  8
0
100
AcDbLine
 10
1297.228727
 20
26.617965
 30
0.0
 11
1251.300064
 21
151.6407659999998
 31
0.0
  0
LINE
  5
4EDB
330
18
100
AcDbEntity
  8
0
100
AcDbLine
 10
1290.658072
 20
24.204153
 30
0.0
 11
1244.729407999999
 21
149.226955
 31
0.0
  0
ARC
  5
4EDC
330
18
100
AcDbEntity
  8
0
100
AcDbCircle
 10
1248.014736
 20
150.433861
 30
0.0
 40
3.5
100
AcDbArc
 50
20.171429
 51
200.171429
  0
ARC
  5
4EDD
330
18
100
AcDbEntity
  8
0
100
AcDbCircle
 10
1268.134928
 20
16.93201499999998
 30
0.0
 40
3.5
100
AcDbArc
 50
195.2571429999999
 51
15.25714299999999
  0
LINE
  5
4EDE
330
18
100
AcDbEntity
  8
0
100
AcDbLine
 10
1271.511569
 20
17.85304599999999
 30
0.0
 11
1236.461862
 21
146.3507539999999
 31
0.0
  0
LINE
  5
4EDF
330
18
100
AcDbEntity
  8
0
100
AcDbLine
 10
1264.758287
 20
16.010985
 30
0.0
 11
1229.70858
 21
144.5086939999999
 31
0.0
  0
ARC
  5
4EE0
330
18
100
AcDbEntity
  8
0
100
AcDbCircle
 10
1233.085221
 20
145.429724
 30
0.0
 40
3.5
100
AcDbArc
 50
15.25714299999999
 51
195.2571429999999
  0
ARC
  5
4EE1
330
18
100
AcDbEntity
  8
0
100
AcDbCircle
 10
1241.694969
 20
10.695033
 30
0.0
 40
3.5
100
AcDbArc
 50
190.342857
 51
10.342857
  0
LINE
  5
4EE2
330
18
100
AcDbEntity
  8
0
100
AcDbLine
 10
1245.138098
 20
11.32341599999999
 30
0.0
 11
1221.225035
 21
142.351308
 31
0.0
  0
LINE
  5
4EE3
330
18
100
AcDbEntity
  8
0
100
AcDbLine
 10
1238.251841
 20
10.066649
 30
0.0
 11
1214.338777999999
 21
141.0945409999999
 31
0.0
  0
ARC
  5
4EE4
330
18
100
AcDbEntity
  8
0
100
AcDbCircle
 10
1217.781906
 20
141.722925
 30
0.0
 40
3.5
100
AcDbArc
 50
10.342857
 51
190.342857
  0
ARC
  5
4EE5
330
18
100
AcDbEntity
  8
0
100
AcDbCircle
 10
1214.817910999999
 20
6.745964999999999
 30
0.0
 40
3.5
100
AcDbArc
 50
185.428571
 51
5.428570999999998
  0
LINE
  5
4EE6
330
18
100
AcDbEntity
  8
0
100
AcDbLine
 10
1218.302214
 20
7.077082
 30
0.0
 11
1205.701605
 21
139.6718319999999
 31
0.0
  0
LINE
  5
4EE7
330
18
100
AcDbEntity
  8
0
100
AcDbLine
 10
1211.333609
 20
6.414848999999998
 30
0.0
 11
1198.733001
 21
139.009599
 31
0.0
  0
ARC
  5
4EE8
330
18
100
AcDbEntity
  8
0
100
AcDbCircle
 10
1202.217303
 20
139.3407149999999
 30
0.0
 40
3.5
100
AcDbArc
 50
5.428570999999998
 51
185.428571
  0
ARC
  5
4EE9
330
18
100
AcDbEntity
  8
0
100
AcDbCircle
 10
1187.701356
 20
5.113846999999998
 30
0.0
 40
3.5
100
AcDbArc
 50
180.514286
 51
0.5142860000000002
  0
LINE
  5
4EEA
330
18
100
AcDbEntity
  8
0
100
AcDbLine
 10
1191.201215
 20
5.145262999999999
 30
0.0
 11
1190.005702
 21
138.332026
 31
0.0
  0
LINE
  5
4EEB
330
18
100
AcDbEntity
  8
0
100
AcDbLine
 10
1184.201497
 20
5.082431999999998
 30
0.0
 11
1183.005984
 21
138.2691949999999
 31
0.0
  0
ARC
  5
4EEC
330
18
100
AcDbEntity
  8
0
100
AcDbCircle
 10
1186.505842999999
 20
138.30061
 30
0.0
 40
3.5
100
AcDbArc
 50
0.5142860000000002
 51
180.514286
  0
ARC
  5
4EED
330
18
100
AcDbEntity
  8
0
100
AcDbCircle
 10
1160.544666
 20
5.810678
 30
0.0
 40
3.5
100
AcDbArc
 50
175.6
 51
355.6
  0
LINE
  5
4EEE
330
18
100
AcDbEntity
  8
0
100
AcDbLine
 10
1164.034351
 20
5.542161
 30
0.0
 11
1174.252722
 21
138.3417399999999
 31
0.0
  0
LINE
  5
4EEF
330
18
100
AcDbEntity
  8
0
100
AcDbLine
 10
1157.054982
 20
6.079194999999998
 30
0.0
 11
1167.273352
 21
138.8787729999999
 31
0.0
  0
ARC
  5
4EF0
330
18
100
AcDbEntity
  8
0
100
AcDbCircle
 10
1170.763037
 20
138.6102559999999
 30
0.0
 40
3.5
100
AcDbArc
 50
355.6
 51
175.6
  0
ARC
  5
4EF1
330
18
100
AcDbEntity
  8
0
100
AcDbCircle
 10
1133.547499999999
 20
8.831334
 30
0.0
 40
3.5
100
AcDbArc
 50
170.6857139999998
 51
350.685714
  0
LINE
  5
4EF2
330
18
100
AcDbEntity
  8
0
100
AcDbLine
 10
1137.001354
 20
8.26486
 30
0.0
 11
1158.558482999999
 21
139.700902
 31
0.0
  0
LINE
  5
4EF3
330
18
100
AcDbEntity
  8
0
100
AcDbLine
 10
1130.093646
 20
9.397809
 30
0.0
 11
1151.650775
 21
140.833851
 31
0.0
  0
ARC
  5
4EF4
330
18
100
AcDbEntity
  8
0
100
AcDbCircle
 10
1155.104628999999
 20
140.2673769999998
 30
0.0
 40
3.5
100
AcDbArc
 50
350.685714
 51
170.6857139999998
  0
ARC
  5
4EF5
330
18
100
AcDbEntity
  8
0
100
AcDbCircle
 10
1106.908341
 20
14.153608
 30
0.0
 40
3.5
100
AcDbArc
 50
165.771429
 51
345.771429
  0
LINE
  5
4EF6
330
18
100
AcDbEntity
  8
0
100
AcDbLine
 10
1110.300971
 20
13.29334
 30
0.0
 11
1143.038368999998
 21
142.399521
 31
0.0
  0
LINE
  5
4EF7
330
18
100
AcDbEntity
  8
0
100
AcDbLine
 10
1103.515711
 20
15.013876
 30
0.0
 11
1136.253109
 21
144.120056
 31
0.0
  0
ARC
  5
4EF8
330
18
100
AcDbEntity
  8
0
100
AcDbCircle
 10
1139.645739
 20
143.2597879999998
 30
0.0
 40
3.5
100
AcDbArc
 50
345.771429
 51
165.771429
  0
ARC
  5
4EF9
330
18
100
AcDbEntity
  8
0
100
AcDbCircle
 10
1080.823042999998
 20
21.73836899999999
 30
0.0
 40
3.5
100
AcDbArc
 50
160.857143
 51
340.857143
  0
LINE
  5
4EFA
330
18
100
AcDbEntity
  8
0
100
AcDbLine
 10
1084.129507
 20
20.590633
 30
0.0
 11
1127.806485999998
 21
146.417755
 31
0.0
  0
LINE
  5
4EFB
330
18
100
AcDbEntity
  8
0
100
AcDbLine
 10
1077.516579999999
 20
22.886105
 30
0.0
 11
1121.193559
 21
148.7132269999999
 31
0.0
  0
ARC
  5
4EFC
330
18
100
AcDbEntity
  8
0
100
AcDbCircle
 10
1124.500022
 20
147.5654909999998
 30
0.0
 40
3.5
100
AcDbArc
 50
340.857143
 51
160.857143
  0
ARC
  5
4EFD
330
18
100
AcDbEntity
  8
0
100
AcDbCircle
 10
1055.483386999998
 20
31.52985499999999
 30
0.0
 40
3.5
100
AcDbArc
 50
155.942857
 51
335.9428569999999
  0
LINE
  5
4EFE
330
18
100
AcDbEntity
  8
0
100
AcDbLine
 10
1058.679375
 20
30.103088
 30
0.0
 11
1112.974819
 21
151.726062
 31
0.0
  0
LINE
  5
4EFF
330
18
100
AcDbEntity
  8
0
100
AcDbLine
 10
1052.287399
 20
32.956621
 30
0.0
 11
1106.582844
 21
154.5795949999998
 31
0.0
  0
ARC
  5
4F00
330
18
100
AcDbEntity
  8
0
100
AcDbCircle
 10
1109.778831
 20
153.1528289999999
 30
0.0
 40
3.5
100
AcDbArc
 50
335.9428569999999
 51
155.942857
  0
ARC
  5
4F01
330
18
100
AcDbEntity
  8
0
100
AcDbCircle
 10
1031.075671
 20
43.456077
 30
0.0
 40
3.5
100
AcDbArc
 50
151.0285709999999
 51
331.028571
  0
LINE
  5
4F02
330
18
100
AcDbEntity
  8
0
100
AcDbLine
 10
1034.137686
 20
41.76077
 30
0.0
 11
1098.652411999998
 21
158.285416
 31
0.0
  0
LINE
  5
4F03
330
18
100
AcDbEntity
  8
0
100
AcDbLine
 10
1028.013656
 20
45.151384
 30
0.0
 11
1092.528383
 21
161.6760299999999
 31
0.0
  0
ARC
  5
4F04
330
18
100
AcDbEntity
  8
0
100
AcDbCircle
 10
1095.590397
 20
159.980723
 30
0.0
 40
3.5
100
AcDbArc
 50
331.028571
 51
151.0285709999999
  0
ARC
  5
4F05
330
18
100
AcDbEntity
  8
0
100
AcDbCircle
 10
1007.779342
 20
57.429353
 30
0.0
 40
3.5
100
AcDbArc
 50
146.114286
 51
326.114286
  0
LINE
  5
4F06
330
18
100
AcDbEntity
  8
0
100
AcDbLine
 10
1010.684872
 20
55.47796999999999
 30
0.0
 11
1084.944564
 21
166.0475909999999
 31
0.0
  0
LINE
  5
4F07
330
18
100
AcDbEntity
  8
0
100
AcDbLine
 10
1004.873813
 20
59.380737
 30
0.0
 11
1079.133505
 21
169.950358
 31
0.0
  0
ARC
  5
4F08
330
18
100
AcDbEntity
  8
0
100
AcDbCircle
 10
1082.039033999999
 20
167.998975
 30
0.0
 40
3.5
100
AcDbArc
 50
326.114286
 51
146.114286
  0
ARC
  5
4F09
330
18
100
AcDbEntity
  8
0
100
AcDbCircle
 10
985.765677
 20
73.34695100000002
 30
0.0
 40
3.5
100
AcDbArc
 50
141.1999999999999
 51
321.1999999999998
  0
LINE
  5
4F0A
330
18
100
AcDbEntity
  8
0
100
AcDbLine
 10
988.49336
 20
71.153838
 30
0.0
 11
1071.952056
 21
174.95552
 31
0.0
  0
LINE
  5
4F0B
330
18
100
AcDbEntity
  8
0
100
AcDbLine
 10
983.0379950000001
 20
75.54006499999998
 30
0.0
 11
1066.496689999999
 21
179.341747
 31
0.0
  0
ARC
  5
4F0C
330
18
100
AcDbEntity
  8
0
100
AcDbCircle
 10
1069.224372999998
 20
177.148634
 30
0.0
 40
3.5
100
AcDbArc
 50
321.1999999999998
 51
141.1999999999999
  0
LINE
  5
4F0E
330
18
100
AcDbEntity
  8
0
100
AcDbLine
 10
967.7263039999999
 20
88.673125
 30
0.0
 11
1059.770409
 21
184.943711
 31
0.0
  0
LINE
  5
4F0F
330
18
100
AcDbEntity
  8
0
100
AcDbLine
 10
962.66674
 20
93.51056300000001
 30
0.0
 11
1054.710844999998
 21
189.781149
 31
0.0
  0
ARC
  5
4F10
330
18
100
AcDbEntity
  8
0
100
AcDbCircle
 10
1057.240627
 20
187.36243
 30
0.0
 40
3.5
100
AcDbArc
 50
316.2857140000001
 51
136.2857139999998
  0
ARC
  5
4F11
330
18
100
AcDbEntity
  8
0
100
AcDbCircle
 10
839.2710539999997
 20
152.7395459999999
 30
0.0
 40
175.0
100
AcDbArc
 50
45.00000299999999
 51
135.00001
  0
LINE
  5
4F12
330
18
100
AcDbEntity
  8
0
100
AcDbLine
 10
805.3299990000001
 20
186.6806009999999
 30
0.0
 11
714.644904
 21
277.365696
 31
0.0
  0
LINE
  5
4F19
330
18
100
AcDbEntity
  8
0
100
AcDbLine
 10
832.1524509999997
 20
332.7396939999998
 30
0.0
 11
831.270869
 21
327.7395859999998
 31
0.0
  0
LINE
  5
4F1B
330
18
100
AcDbEntity
  8
0
100
AcDbLine
 10
846.389233
 20
332.739649
 30
0.0
 11
832.1524509999997
 21
332.7396939999998
 31
0.0
  0
LINE
  5
4F24
330
18
100
AcDbEntity
  8
0
100
AcDbLine
 10
847.270913
 20
327.739643
 30
0.0
 11
846.389233
 21
332.739649
 31
0.0
  0
LINE
  5
4F27
330
18
100
AcDbEntity
  8
0
100
AcDbLine
 10
847.2708989999999
 20
327.739487
 30
0.0
 11
831.270939
 21
327.739516
 31
0.0
  0
ARC
  5
4F28
330
18
100
AcDbEntity
  8
0
100
AcDbCircle
 10
839.2710539999997
 20
152.7395459999999
 30
0.0
 40
50.000004
100
AcDbArc
 50
45.00000299999999
 51
135.00001
  0
LINE
  5
4F29
330
18
100
AcDbEntity
  8
0
100
AcDbLine
 10
805.329928
 20
186.6806719999999
 30
0.0
 11
773.863719
 21
155.2144619999999
 31
0.0
  0
LINE
  5
4F2A
330
18
100
AcDbEntity
  8
0
100
AcDbLine
 10
805.329949
 20
186.6805519999999
 30
0.0
 11
801.087358
 21
179.6095329999999
 31
0.0
  0
LINE
  5
4F2B
330
18
100
AcDbEntity
  8
0
100
AcDbLine
 10
801.0873999999999
 20
179.609576
 30
0.0
 11
780.934815
 21
159.4569899999999
 31
0.0
  0
LINE
  5
4F37
330
18
100
AcDbEntity
  8
0
100
AcDbLine
 10
773.8636269999998
 20
155.2143709999999
 30
0.0
 11
780.934744
 21
159.457061
 31
0.0
  0
LINE
  5
4F39
330
18
100
AcDbEntity
  8
0
100
AcDbLine
 10
683.1786839999998
 20
245.899497
 30
0.0
 11
777.604633
 21
151.4735479999998
 31
0.0
  0
ARC
  5
4F3C
330
18
100
AcDbEntity
  8
0
100
AcDbCircle
 10
839.270997
 20
344.7396279999998
 30
0.0
 40
16.3
100
AcDbArc
 50
300.0331279999998
 51
82.048684
  0
ARC
  5
4F3D
330
18
100
AcDbEntity
  8
0
100
AcDbCircle
 10
839.270997
 20
344.7396279999998
 30
0.0
 40
10.0
100
AcDbArc
 50
111.9946139999999
 51
76.968862
  0
ARC
  5
4F3E
330
18
100
AcDbEntity
  8
0
100
AcDbCircle
 10
847.9296579999999
 20
329.762393
 30
0.0
 40
1.0
100
AcDbArc
 50
120.033128
 51
190.0004909999999
  0
ARC
  5
4F40
330
18
100
AcDbEntity
  8
0
100
AcDbCircle
 10
830.612114
 20
329.762521
 30
0.0
 40
1.0
100
AcDbArc
 50
350.0007939999998
 51
59.96602199999999
  0
LINE
  5
4F42
330
18
100
AcDbEntity
  8
0
100
AcDbLine
 10
832.1524509999997
 20
332.7396939999998
 30
0.0
 11
839.2708419999999
 21
334.7396279999998
 31
0.0
  0
LINE
  5
4F43
330
18
100
AcDbEntity
  8
0
100
AcDbLine
 10
839.2708419999999
 20
334.7396279999998
 30
0.0
 11
846.389233
 21
332.739649
 31
0.0
  0
ARC
  5
4F4C
330
18
100
AcDbEntity
  8
0
100
AcDbCircle
 10
839.270997
 20
344.7396279999998
 30
0.0
 40
16.3
100
AcDbArc
 50
103.283326
 51
239.966022
  0
ARC
  5
4F4D
330
18
100
AcDbEntity
  8
0
100
AcDbCircle
 10
965.394423
 20
91.31745
 30
0.0
 40
3.5
100
AcDbArc
 50
141.1999999999999
 51
321.1999999999998
  0
LINE
  5
4FBA
330
18
100
AcDbEntity
  8
0
100
AcDbLine
 10
617.6726
 20
-138.992808
 30
0.0
 11
484.663007
 21
-145.9635449999999
 31
0.0
  0
LINE
  5
4FBB
330
18
100
AcDbEntity
  8
0
100
AcDbLine
 10
618.038952
 20
-145.9832149999999
 30
0.0
 11
485.0293579999997
 21
-152.953952
 31
0.0
  0
ARC
  5
4FBC
330
18
100
AcDbEntity
  8
0
100
AcDbCircle
 10
617.855776
 20
-142.4880109999999
 30
0.0
 40
3.5
100
AcDbArc
 50
273.0
 51
93.0
  0
ARC
  5
4FBD
330
18
100
AcDbEntity
  8
0
100
AcDbCircle
 10
484.8461829999997
 20
-149.458749
 30
0.0
 40
3.5
100
AcDbArc
 50
93.0
 51
273.0
  0
ARC
  5
4FFC
330
18
100
AcDbEntity
  8
0
100
AcDbCircle
 10
618.5574389999998
 20
-120.6759789999999
 30
0.0
 40
3.5
100
AcDbArc
 50
269.2499999999999
 51
89.25
  0
ARC
  5
4FFD
330
18
100
AcDbEntity
  8
0
100
AcDbCircle
 10
485.3767209999999
 20
-118.9325469999999
 30
0.0
 40
3.5
100
AcDbArc
 50
89.25
 51
269.2499999999999
  0
LINE
  5
4FFE
330
18
100
AcDbEntity
  8
0
100
AcDbLine
 10
618.511625
 20
-124.1756789999999
 30
0.0
 11
485.330907
 21
-122.432248
 31
0.0
  0
LINE
  5
4FFF
330
18
100
AcDbEntity
  8
0
100
AcDbLine
 10
618.603252
 20
-117.1762779999999
 30
0.0
 11
485.422535
 21
-115.432847
 31
0.0
  0
ARC
  5
5000
330
18
100
AcDbEntity
  8
0
100
AcDbCircle
 10
620.6841739999998
 20
-98.95653799999999
 30
0.0
 40
3.5
100
AcDbArc
 50
265.5
 51
85.5
  0
ARC
  5
5001
330
18
100
AcDbEntity
  8
0
100
AcDbCircle
 10
487.902633
 20
-88.50640400000001
 30
0.0
 40
3.5
100
AcDbArc
 50
85.5
 51
265.5
  0
LINE
  5
5002
330
18
100
AcDbEntity
  8
0
100
AcDbLine
 10
620.409567
 20
-102.4457489999999
 30
0.0
 11
487.6280259999998
 21
-91.99561499999999
 31
0.0
  0
LINE
  5
5003
330
18
100
AcDbEntity
  8
0
100
AcDbLine
 10
620.9587809999998
 20
-95.46732699999999
 30
0.0
 11
488.177239
 21
-85.01719300000003
 31
0.0
  0
ARC
  5
5004
330
18
100
AcDbEntity
  8
0
100
AcDbCircle
 10
624.2268759999998
 20
-77.422696
 30
0.0
 40
3.5
100
AcDbArc
 50
261.75
 51
81.75
  0
ARC
  5
5005
330
18
100
AcDbEntity
  8
0
100
AcDbCircle
 10
492.4131009999999
 20
-58.31060799999999
 30
0.0
 40
3.5
100
AcDbArc
 50
81.75
 51
261.75
  0
LINE
  5
5006
330
18
100
AcDbEntity
  8
0
100
AcDbLine
 10
623.724651
 20
-80.88647599999999
 30
0.0
 11
491.910877
 21
-61.774388
 31
0.0
  0
LINE
  5
5007
330
18
100
AcDbEntity
  8
0
100
AcDbLine
 10
624.7291
 20
-73.958916
 30
0.0
 11
492.9153249999997
 21
-54.846828
 31
0.0
  0
ARC
  5
5008
330
18
100
AcDbEntity
  8
0
100
AcDbCircle
 10
629.170373
 20
-56.166663
 30
0.0
 40
3.5
100
AcDbArc
 50
258.0
 51
78.0
  0
ARC
  5
5009
330
18
100
AcDbEntity
  8
0
100
AcDbCircle
 10
498.888812
 20
-28.474462
 30
0.0
 40
3.5
100
AcDbArc
 50
78.0
 51
258.0
  0
LINE
  5
500A
330
18
100
AcDbEntity
  8
0
100
AcDbLine
 10
628.442682
 20
-59.590179
 30
0.0
 11
498.1611209999998
 21
-31.897979
 31
0.0
  0
LINE
  5
500B
330
18
100
AcDbEntity
  8
0
100
AcDbLine
 10
629.8980639999999
 20
-52.743146
 30
0.0
 11
499.616503
 21
-25.050945
 31
0.0
  0
ARC
  5
500C
330
18
100
AcDbEntity
  8
0
100
AcDbCircle
 10
635.493496
 20
-35.27946099999999
 30
0.0
 40
3.5
100
AcDbArc
 50
254.2499999999999
 51
74.25
  0
ARC
  5
500D
330
18
100
AcDbEntity
  8
0
100
AcDbCircle
 10
507.302035
 20
0.8742709999999998
 30
0.0
 40
3.5
100
AcDbArc
 50
74.25
 51
254.2499999999999
  0
LINE
  5
500E
330
18
100
AcDbEntity
  8
0
100
AcDbLine
 10
634.543455
 20
-38.64805399999998
 30
0.0
 11
506.351993
 21
-2.494323
 31
0.0
  0
LINE
  5
500F
330
18
100
AcDbEntity
  8
0
100
AcDbLine
 10
636.4435379999998
 20
-31.910867
 30
0.0
 11
508.252076
 21
4.242863999999999
 31
0.0
  0
ARC
  5
5010
330
18
100
AcDbEntity
  8
0
100
AcDbCircle
 10
643.16917
 20
-14.850532
 30
0.0
 40
3.5
100
AcDbArc
 50
250.4999999999999
 51
70.5
  0
ARC
  5
5011
330
18
100
AcDbEntity
  8
0
100
AcDbCircle
 10
517.6167429999998
 20
29.609914
 30
0.0
 40
3.5
100
AcDbArc
 50
70.5
 51
250.4999999999999
  0
LINE
  5
5012
330
18
100
AcDbEntity
  8
0
100
AcDbLine
 10
642.000846
 20
-18.149777
 30
0.0
 11
516.448419
 21
26.310669
 31
0.0
  0
LINE
  5
5013
330
18
100
AcDbEntity
  8
0
100
AcDbLine
 10
644.3374939999999
 20
-11.551287
 30
0.0
 11
518.785067
 21
32.909159
 31
0.0
  0
ARC
  5
5014
330
18
100
AcDbEntity
  8
0
100
AcDbCircle
 10
652.164525
 20
5.032644
 30
0.0
 40
3.5
100
AcDbArc
 50
246.75
 51
66.75
  0
ARC
  5
5015
330
18
100
AcDbEntity
  8
0
100
AcDbCircle
 10
529.788768
 20
57.60941800000001
 30
0.0
 40
3.5
100
AcDbArc
 50
66.75
 51
246.75
  0
LINE
  5
5016
330
18
100
AcDbEntity
  8
0
100
AcDbLine
 10
650.7829219999998
 20
1.816874999999999
 30
0.0
 11
528.407165
 21
54.393649
 31
0.0
  0
LINE
  5
5017
330
18
100
AcDbEntity
  8
0
100
AcDbLine
 10
653.5461289999998
 20
8.248413000000001
 30
0.0
 11
531.1703719999997
 21
60.82518799999999
 31
0.0
  0
ARC
  5
5018
330
18
100
AcDbEntity
  8
0
100
AcDbCircle
 10
662.4410429999998
 20
24.284924
 30
0.0
 40
3.5
100
AcDbArc
 50
243.0
 51
63.0
  0
ARC
  5
5019
330
18
100
AcDbEntity
  8
0
100
AcDbCircle
 10
543.765987
 20
84.75288499999997
 30
0.0
 40
3.5
100
AcDbArc
 50
63.0
 51
243.0
  0
LINE
  5
501A
330
18
100
AcDbEntity
  8
0
100
AcDbLine
 10
660.852076
 20
21.166401
 30
0.0
 11
542.177021
 21
81.63436199999997
 31
0.0
  0
LINE
  5
501B
330
18
100
AcDbEntity
  8
0
100
AcDbLine
 10
664.0300099999998
 20
27.40344699999999
 30
0.0
 11
545.354954
 21
87.87140800000001
 31
0.0
  0
ARC
  5
501C
330
18
100
AcDbEntity
  8
0
100
AcDbCircle
 10
673.9547169999998
 20
42.82386699999999
 30
0.0
 40
3.5
100
AcDbArc
 50
239.25
 51
59.25
  0
ARC
  5
501D
330
18
100
AcDbEntity
  8
0
100
AcDbCircle
 10
559.488548
 20
110.9240809999999
 30
0.0
 40
3.5
100
AcDbArc
 50
59.25
 51
239.25
  0
LINE
  5
501E
330
18
100
AcDbEntity
  8
0
100
AcDbLine
 10
672.165191
 20
39.81594499999999
 30
0.0
 11
557.6990219999998
 21
107.916159
 31
0.0
  0
LINE
  5
501F
330
18
100
AcDbEntity
  8
0
100
AcDbLine
 10
675.744243
 20
45.83179
 30
0.0
 11
561.278074
 21
113.932004
 31
0.0
  0
ARC
  5
5020
330
18
100
AcDbEntity
  8
0
100
AcDbCircle
 10
686.656244
 20
60.570087
 30
0.0
 40
3.5
100
AcDbArc
 50
235.4999999999999
 51
55.5
  0
ARC
  5
5021
330
18
100
AcDbEntity
  8
0
100
AcDbCircle
 10
576.889123
 20
136.0109389999998
 30
0.0
 40
3.5
100
AcDbArc
 50
55.5
 51
235.4999999999999
  0
LINE
  5
5022
330
18
100
AcDbEntity
  8
0
100
AcDbLine
 10
684.6738219999998
 20
57.685645
 30
0.0
 11
574.906701
 21
133.126497
 31
0.0
  0
LINE
  5
5023
330
18
100
AcDbEntity
  8
0
100
AcDbLine
 10
688.638666
 20
63.454528
 30
0.0
 11
578.8715449999998
 21
138.89538
 31
0.0
  0
ARC
  5
5024
330
18
100
AcDbEntity
  8
0
100
AcDbCircle
 10
700.4912349999998
 20
77.44759000000001
 30
0.0
 40
3.5
100
AcDbArc
 50
231.7499999999999
 51
51.75
  0
ARC
  5
5025
330
18
100
AcDbEntity
  8
0
100
AcDbCircle
 10
595.8932009999998
 20
159.906031
 30
0.0
 40
3.5
100
AcDbArc
 50
51.75
 51
231.7499999999999
  0
LINE
  5
5026
330
18
100
AcDbEntity
  8
0
100
AcDbLine
 10
698.3244059999998
 20
74.698981
 30
0.0
 11
593.726373
 21
157.157422
 31
0.0
  0
LINE
  5
5027
330
18
100
AcDbEntity
  8
0
100
AcDbLine
 10
702.6580639999998
 20
80.19620000000001
 30
0.0
 11
598.0600299999998
 21
162.65464
 31
0.0
  0
ARC
  5
5028
330
18
100
AcDbEntity
  8
0
100
AcDbCircle
 10
715.400445
 20
93.38410600000001
 30
0.0
 40
3.5
100
AcDbArc
 50
228.0
 51
48.0
  0
ARC
  5
5029
330
18
100
AcDbEntity
  8
0
100
AcDbCircle
 10
616.4194039999999
 20
182.5070359999999
 30
0.0
 40
3.5
100
AcDbArc
 50
48.0
 51
228.0
  0
LINE
  5
502A
330
18
100
AcDbEntity
  8
0
100
AcDbLine
 10
713.058488
 20
90.78309899999998
 30
0.0
 11
614.077447
 21
179.9060289999999
 31
0.0
  0
LINE
  5
502B
330
18
100
AcDbEntity
  8
0
100
AcDbLine
 10
717.742403
 20
95.985113
 30
0.0
 11
618.761361
 21
185.1080429999999
 31
0.0
  0
LINE
  5
502D
330
18
100
AcDbEntity
  8
0
100
AcDbLine
 10
674.576365
 20
237.12173
 30
0.0
 11
665.3907690000002
 21
227.9361339999999
 31
0.0
  0
LINE
  5
502E
330
18
100
AcDbEntity
  8
0
100
AcDbLine
 10
748.2293799999998
 20
126.4721419999998
 30
0.0
 11
649.248339
 21
215.595072
 31
0.0
  0
LINE
  5
502F
330
18
100
AcDbEntity
  8
0
100
AcDbLine
 10
743.545466
 20
121.270128
 30
0.0
 11
644.564425
 21
210.393058
 31
0.0
  0
LINE
  5
5030
330
18
100
AcDbEntity
  8
0
100
AcDbLine
 10
734.087245
 20
112.330007
 30
0.0
 11
635.106204
 21
201.452936
 31
0.0
  0
LINE
  5
5031
330
18
100
AcDbEntity
  8
0
100
AcDbLine
 10
729.4033309999998
 20
107.1279929999999
 30
0.0
 11
630.42229
 21
196.250922
 31
0.0
  0
LINE
  5
5032
330
18
100
AcDbEntity
  8
0
100
AcDbLine
 10
757.687602
 20
135.4122639999999
 30
0.0
 11
658.706561
 21
224.5351939999999
 31
0.0
  0
LINE
  5
5033
330
18
100
AcDbEntity
  8
0
100
AcDbLine
 10
762.371516
 20
140.614278
 30
0.0
 11
663.390475
 21
229.7372069999999
 31
0.0
  0
ARC
  5
5034
330
18
100
AcDbEntity
  8
0
100
AcDbCircle
 10
661.0485179999998
 20
227.1362009999999
 30
0.0
 40
3.5
100
AcDbArc
 50
48.0
 51
228.0
  0
LINE
  5
5035
330
18
100
AcDbEntity
  8
0
100
AcDbLine
 10
660.4342289999998
 20
222.9795939999999
 30
0.0
 11
651.248634
 21
213.793999
 31
0.0
  0
LINE
  5
5036
330
18
100
AcDbEntity
  8
0
100
AcDbLine
 10
771.829737
 20
149.5543999999999
 30
0.0
 11
672.848696
 21
238.677329
 31
0.0
  0
LINE
  5
5037
330
18
100
AcDbEntity
  8
0
100
AcDbLine
 10
754.505891
 20
174.5722899999999
 30
0.0
 11
677.532611
 21
243.879343
 31
0.0
  0
LINE
  5
5038
330
18
100
AcDbEntity
  8
0
100
AcDbLine
 10
683.2664079999998
 20
245.811773
 30
0.0
 11
679.532905
 21
242.07827
 31
0.0
  0
ARC
  5
5039
330
18
100
AcDbEntity
  8
0
100
AcDbCircle
 10
675.190654
 20
241.278336
 30
0.0
 40
3.5
100
AcDbArc
 50
48.0
 51
228.0
  0
ARC
  5
503A
330
18
100
AcDbEntity
  8
0
100
AcDbCircle
 10
632.7642469999998
 20
198.851929
 30
0.0
 40
3.5
100
AcDbArc
 50
48.0
 51
228.0
  0
LINE
  5
503B
330
18
100
AcDbEntity
  8
0
100
AcDbLine
 10
632.149958
 20
194.695323
 30
0.0
 11
620.7616289999998
 21
183.306994
 31
0.0
  0
LINE
  5
503C
330
18
100
AcDbEntity
  8
0
100
AcDbLine
 10
646.292093
 20
208.8374589999999
 30
0.0
 11
637.106498
 21
199.6518629999999
 31
0.0
  0
ARC
  5
503D
330
18
100
AcDbEntity
  8
0
100
AcDbCircle
 10
646.906382
 20
212.9940649999999
 30
0.0
 40
3.5
100
AcDbArc
 50
48.0
 51
228.0
  0
ARC
  5
503F
330
18
100
AcDbEntity
  8
0
100
AcDbCircle
 10
774.1716949999998
 20
152.155407
 30
0.0
 40
3.5
100
AcDbArc
 50
228.0
 51
348.765979
  0
LINE
  5
5040
330
18
100
AcDbEntity
  8
0
100
AcDbLine
 10
769.8294429999998
 20
151.3554729999999
 30
0.0
 11
760.643848
 21
142.169877
 31
0.0
  0
ARC
  5
5041
330
18
100
AcDbEntity
  8
0
100
AcDbCircle
 10
760.0295589999998
 20
138.013271
 30
0.0
 40
3.5
100
AcDbArc
 50
228.0
 51
48.0
  0
LINE
  5
5042
330
18
100
AcDbEntity
  8
0
100
AcDbLine
 10
755.687308
 20
137.213337
 30
0.0
 11
746.5017119999998
 21
128.0277419999999
 31
0.0
  0
ARC
  5
5043
330
18
100
AcDbEntity
  8
0
100
AcDbCircle
 10
745.887423
 20
123.871135
 30
0.0
 40
3.5
100
AcDbArc
 50
228.0
 51
48.0
  0
LINE
  5
5044
330
18
100
AcDbEntity
  8
0
100
AcDbLine
 10
741.545172
 20
123.0712009999999
 30
0.0
 11
732.3595769999998
 21
113.885606
 31
0.0
  0
ARC
  5
5045
330
18
100
AcDbEntity
  8
0
100
AcDbCircle
 10
731.7452879999998
 20
109.729
 30
0.0
 40
3.5
100
AcDbArc
 50
228.0
 51
48.0
  0
LINE
  5
5049
330
18
100
AcDbEntity
  8
0
100
AcDbLine
 10
714.644904
 20
277.365696
 30
0.0
 11
683.1786519999998
 21
245.899444
 31
0.0
  0
LINE
  5
504A
330
18
100
AcDbEntity
  8
0
100
AcDbLine
 10
707.573786
 20
273.123006
 30
0.0
 11
687.421243
 21
252.9704629999999
 31
0.0
  0
LINE
  5
504F
330
18
100
AcDbEntity
  8
0
100
AcDbLine
 10
707.573786
 20
273.123006
 30
0.0
 11
714.644904
 21
277.365696
 31
0.0
  0
LINE
  5
5050
330
18
100
AcDbEntity
  8
0
100
AcDbLine
 10
687.421275
 20
252.970516
 30
0.0
 11
683.1786839999998
 21
245.899497
 31
0.0
  0
LINE
  5
5059
330
18
100
AcDbEntity
  8
0
100
AcDbLine
 10
995.3633099999999
 20
245.899497
 30
0.0
 11
900.937361
 21
151.4735479999998
 31
0.0
  0
LINE
  5
505A
330
18
100
AcDbEntity
  8
0
100
AcDbLine
 10
924.0361029999997
 20
174.5722899999999
 30
0.0
 11
1001.009383
 21
243.879343
 31
0.0
  0
LINE
  5
505B
330
18
100
AcDbEntity
  8
0
100
AcDbLine
 10
970.9682069999999
 20
273.123006
 30
0.0
 11
991.1207509999997
 21
252.9704629999999
 31
0.0
  0
LINE
  5
505C
330
18
100
AcDbEntity
  8
0
100
AcDbLine
 10
963.89709
 20
277.365696
 30
0.0
 11
995.363342
 21
245.899444
 31
0.0
  0
ARC
  5
505D
330
18
100
AcDbEntity
  8
0
100
AcDbCircle
 10
1003.35134
 20
241.278336
 30
0.0
 40
3.5
100
AcDbArc
 50
312.0
 51
132.0
  0
LINE
  5
505E
330
18
100
AcDbEntity
  8
0
100
AcDbLine
 10
991.1207189999997
 20
252.970516
 30
0.0
 11
995.3633099999999
 21
245.899497
 31
0.0
  0
LINE
  5
505F
330
18
100
AcDbEntity
  8
0
100
AcDbLine
 10
995.2755859999999
 20
245.811773
 30
0.0
 11
999.0090890000001
 21
242.07827
 31
0.0
  0
LINE
  5
5060
330
18
100
AcDbEntity
  8
0
100
AcDbLine
 10
970.9682069999999
 20
273.123006
 30
0.0
 11
963.89709
 21
277.365696
 31
0.0
  0
LINE
  5
5061
330
18
100
AcDbEntity
  8
0
100
AcDbLine
 10
873.2119949999999
 20
186.6806009999999
 30
0.0
 11
963.89709
 21
277.365696
 31
0.0
  0
LINE
  5
5062
330
18
100
AcDbEntity
  8
0
100
AcDbLine
 10
873.2120449999996
 20
186.6805519999999
 30
0.0
 11
877.454636
 21
179.6095329999999
 31
0.0
  0
LINE
  5
5063
330
18
100
AcDbEntity
  8
0
100
AcDbLine
 10
873.2120660000001
 20
186.6806719999999
 30
0.0
 11
904.678275
 21
155.2144619999999
 31
0.0
  0
LINE
  5
5064
330
18
100
AcDbEntity
  8
0
100
AcDbLine
 10
877.454593
 20
179.609576
 30
0.0
 11
897.6071789999997
 21
159.4569899999999
 31
0.0
  0
LINE
  5
5065
330
18
100
AcDbEntity
  8
0
100
AcDbLine
 10
934.9965280000001
 20
121.270128
 30
0.0
 11
1033.977568999999
 21
210.393058
 31
0.0
  0
LINE
  5
5066
330
18
100
AcDbEntity
  8
0
100
AcDbLine
 10
930.312613
 20
126.4721419999998
 30
0.0
 11
1029.293653999998
 21
215.595072
 31
0.0
  0
LINE
  5
5067
330
18
100
AcDbEntity
  8
0
100
AcDbLine
 10
920.854392
 20
135.4122639999999
 30
0.0
 11
1019.835432999999
 21
224.5351939999999
 31
0.0
  0
LINE
  5
5068
330
18
100
AcDbEntity
  8
0
100
AcDbLine
 10
916.170478
 20
140.614278
 30
0.0
 11
1015.151519
 21
229.7372069999999
 31
0.0
  0
LINE
  5
5069
330
18
100
AcDbEntity
  8
0
100
AcDbLine
 10
906.7122559999999
 20
149.5543999999999
 30
0.0
 11
1005.693297
 21
238.677329
 31
0.0
  0
ARC
  5
506A
330
18
100
AcDbEntity
  8
0
100
AcDbCircle
 10
918.512435
 20
138.013271
 30
0.0
 40
3.5
100
AcDbArc
 50
132.0
 51
312.0
  0
LINE
  5
506B
330
18
100
AcDbEntity
  8
0
100
AcDbLine
 10
922.8546859999999
 20
137.213337
 30
0.0
 11
932.0402819999999
 21
128.0277419999999
 31
0.0
  0
ARC
  5
506C
330
18
100
AcDbEntity
  8
0
100
AcDbCircle
 10
904.3702989999999
 20
152.155407
 30
0.0
 40
3.5
100
AcDbArc
 50
191.2340209999999
 51
312.0
  0
LINE
  5
506D
330
18
100
AcDbEntity
  8
0
100
AcDbLine
 10
904.6783669999999
 20
155.2143709999999
 30
0.0
 11
897.60725
 21
159.457061
 31
0.0
  0
LINE
  5
506E
330
18
100
AcDbEntity
  8
0
100
AcDbLine
 10
908.7125509999999
 20
151.3554729999999
 30
0.0
 11
917.8981460000001
 21
142.169877
 31
0.0
  0
ARC
  5
5070
330
18
100
AcDbEntity
  8
0
100
AcDbCircle
 10
1017.493476
 20
227.1362009999999
 30
0.0
 40
3.5
100
AcDbArc
 50
312.0
 51
132.0
  0
ARC
  5
5071
330
18
100
AcDbEntity
  8
0
100
AcDbCircle
 10
1031.635611999998
 20
212.9940649999999
 30
0.0
 40
3.5
100
AcDbArc
 50
312.0
 51
132.0
  0
LINE
  5
5072
330
18
100
AcDbEntity
  8
0
100
AcDbLine
 10
1018.107765
 20
222.9795939999999
 30
0.0
 11
1027.29336
 21
213.793999
 31
0.0
  0
LINE
  5
5073
330
18
100
AcDbEntity
  8
0
100
AcDbLine
 10
1003.965629
 20
237.12173
 30
0.0
 11
1013.151225
 21
227.9361339999999
 31
0.0
  0
LINE
  5
5074
330
18
100
AcDbEntity
  8
0
100
AcDbLine
 10
1032.249900999999
 20
208.8374589999999
 30
0.0
 11
1041.435496
 21
199.6518629999999
 31
0.0
  0
LINE
  5
5075
330
18
100
AcDbEntity
  8
0
100
AcDbLine
 10
936.996822
 20
123.0712009999999
 30
0.0
 11
946.1824169999999
 21
113.885606
 31
0.0
  0
ARC
  5
5076
330
18
100
AcDbEntity
  8
0
100
AcDbCircle
 10
932.6545710000001
 20
123.871135
 30
0.0
 40
3.5
100
AcDbArc
 50
132.0
 51
312.0
  0
ARC
  5
5079
330
18
100
AcDbEntity
  8
0
100
AcDbCircle
 10
1045.777747
 20
198.851929
 30
0.0
 40
3.5
100
AcDbArc
 50
312.0
 51
132.0
  0
LINE
  5
507A
330
18
100
AcDbEntity
  8
0
100
AcDbLine
 10
944.4547489999999
 20
112.330007
 30
0.0
 11
1043.435789999999
 21
201.452936
 31
0.0
  0
LINE
  5
507B
330
18
100
AcDbEntity
  8
0
100
AcDbLine
 10
949.138663
 20
107.1279929999999
 30
0.0
 11
1048.119704
 21
196.250922
 31
0.0
  0
ARC
  5
507C
330
18
100
AcDbEntity
  8
0
100
AcDbCircle
 10
946.7967059999999
 20
109.729
 30
0.0
 40
3.5
100
AcDbArc
 50
132.0
 51
312.0
  0
LINE
  5
5090
330
18
100
AcDbEntity
  8
0
100
AcDbLine
 10
618.719319
 20
-158.9653989999999
 30
0.0
 11
485.7097259999998
 21
-165.936136
 31
0.0
  0
ARC
  5
5093
330
18
100
AcDbEntity
  8
0
100
AcDbCircle
 10
1782.725757999999
 20
771.243453
 30
0.0
 40
436.0
100
AcDbArc
 50
180.574396
 51
182.3676169999998
  0
ARC
  5
5095
330
18
100
AcDbEntity
  8
0
100
AcDbCircle
 10
1782.725757999999
 20
771.243453
 30
0.0
 40
564.0
100
AcDbArc
 50
181.125113
 51
183.127737
  0
ARC
  5
5096
330
18
100
AcDbEntity
  8
0
100
AcDbCircle
 10
1782.725757999999
 20
771.243453
 30
0.0
 40
564.0
100
AcDbArc
 50
183.8393989999999
 51
185.842023
  0
ARC
  5
5097
330
18
100
AcDbEntity
  8
0
100
AcDbCircle
 10
1782.725757999999
 20
771.243453
 30
0.0
 40
564.0
100
AcDbArc
 50
186.5536849999999
 51
188.5563089999999
  0
ARC
  5
5098
330
18
100
AcDbEntity
  8
0
100
AcDbCircle
 10
1782.725757999999
 20
771.243453
 30
0.0
 40
564.0
100
AcDbArc
 50
189.26797
 51
191.270594
  0
ARC
  5
5099
330
18
100
AcDbEntity
  8
0
100
AcDbCircle
 10
1782.725757999999
 20
771.243453
 30
0.0
 40
436.0
100
AcDbArc
 50
188.7172529999999
 51
190.5104739999999
  0
ARC
  5
509A
330
18
100
AcDbEntity
  8
0
100
AcDbCircle
 10
1782.725757999999
 20
771.243453
 30
0.0
 40
436.0
100
AcDbArc
 50
186.0029669999999
 51
187.7961889999999
  0
ARC
  5
509B
330
18
100
AcDbEntity
  8
0
100
AcDbCircle
 10
1782.725757999999
 20
771.243453
 30
0.0
 40
436.0
100
AcDbArc
 50
183.2886819999999
 51
185.081903
  0
ARC
  5
509C
330
18
100
AcDbEntity
  8
0
100
AcDbCircle
 10
1782.725757999999
 20
771.243453
 30
0.0
 40
564.0
100
AcDbArc
 50
191.982256
 51
193.98488
  0
ARC
  5
509D
330
18
100
AcDbEntity
  8
0
100
AcDbCircle
 10
1782.725757999999
 20
771.243453
 30
0.0
 40
564.0
100
AcDbArc
 50
194.6965419999999
 51
196.6991659999999
  0
ARC
  5
509E
330
18
100
AcDbEntity
  8
0
100
AcDbCircle
 10
1782.725757999999
 20
771.243453
 30
0.0
 40
564.0
100
AcDbArc
 50
197.410827
 51
199.413452
  0
ARC
  5
509F
330
18
100
AcDbEntity
  8
0
100
AcDbCircle
 10
1782.725757999999
 20
771.243453
 30
0.0
 40
564.0
100
AcDbArc
 50
200.1251129999999
 51
202.127737
  0
ARC
  5
50A0
330
18
100
AcDbEntity
  8
0
100
AcDbCircle
 10
1782.725757999999
 20
771.243453
 30
0.0
 40
436.0
100
AcDbArc
 50
199.574396
 51
201.367617
  0
ARC
  5
50A1
330
18
100
AcDbEntity
  8
0
100
AcDbCircle
 10
1782.725757999999
 20
771.243453
 30
0.0
 40
436.0
100
AcDbArc
 50
196.86011
 51
198.653331
  0
ARC
  5
50A2
330
18
100
AcDbEntity
  8
0
100
AcDbCircle
 10
1782.725757999999
 20
771.243453
 30
0.0
 40
436.0
100
AcDbArc
 50
194.145825
 51
195.939046
  0
ARC
  5
50A3
330
18
100
AcDbEntity
  8
0
100
AcDbCircle
 10
1782.725757999999
 20
771.243453
 30
0.0
 40
436.0
100
AcDbArc
 50
191.4315389999999
 51
193.22476
  0
ARC
  5
50A4
330
18
100
AcDbEntity
  8
0
100
AcDbCircle
 10
1782.725757999999
 20
771.243453
 30
0.0
 40
436.0
100
AcDbArc
 50
202.288682
 51
204.081903
  0
ARC
  5
50A5
330
18
100
AcDbEntity
  8
0
100
AcDbCircle
 10
1782.725757999999
 20
771.243453
 30
0.0
 40
564.0
100
AcDbArc
 50
202.839399
 51
204.842023
  0
ARC
  5
50A6
330
18
100
AcDbEntity
  8
0
100
AcDbCircle
 10
1782.725757999999
 20
771.243453
 30
0.0
 40
564.0
100
AcDbArc
 50
205.553685
 51
207.556309
  0
ARC
  5
50A7
330
18
100
AcDbEntity
  8
0
100
AcDbCircle
 10
1782.725757999999
 20
771.243453
 30
0.0
 40
564.0
100
AcDbArc
 50
208.2679699999999
 51
210.2705939999999
  0
ARC
  5
50A8
330
18
100
AcDbEntity
  8
0
100
AcDbCircle
 10
1782.725757999999
 20
771.243453
 30
0.0
 40
564.0
100
AcDbArc
 50
210.982256
 51
212.9848799999999
  0
ARC
  5
50A9
330
18
100
AcDbEntity
  8
0
100
AcDbCircle
 10
1782.725757999999
 20
771.243453
 30
0.0
 40
564.0
100
AcDbArc
 50
213.696542
 51
215.699166
  0
ARC
  5
50AA
330
18
100
AcDbEntity
  8
0
100
AcDbCircle
 10
1782.725757999999
 20
771.243453
 30
0.0
 40
436.0
100
AcDbArc
 50
205.0029669999999
 51
206.7961889999998
  0
ARC
  5
50AB
330
18
100
AcDbEntity
  8
0
100
AcDbCircle
 10
1782.725757999999
 20
771.243453
 30
0.0
 40
436.0
100
AcDbArc
 50
207.7172529999999
 51
209.510474
  0
ARC
  5
50AC
330
18
100
AcDbEntity
  8
0
100
AcDbCircle
 10
1782.725757999999
 20
771.243453
 30
0.0
 40
436.0
100
AcDbArc
 50
210.431539
 51
212.22476
  0
ARC
  5
50AD
330
18
100
AcDbEntity
  8
0
100
AcDbCircle
 10
1782.725757999999
 20
771.243453
 30
0.0
 40
436.0
100
AcDbArc
 50
213.145825
 51
214.9390459999999
  0
ARC
  5
50AE
330
18
100
AcDbEntity
  8
0
100
AcDbCircle
 10
1782.725757999999
 20
771.243453
 30
0.0
 40
436.0
100
AcDbArc
 50
215.86011
 51
218.4830879999999
  0
ARC
  5
50AF
330
18
100
AcDbEntity
  8
0
100
AcDbCircle
 10
1782.725757999999
 20
771.243453
 30
0.0
 40
564.0
100
AcDbArc
 50
216.410827
 51
217.3208819999999
  0
ARC
  5
50B0
330
18
100
AcDbEntity
  8
0
100
AcDbCircle
 10
1182.242396
 20
321.888658
 30
0.0
 40
314.0
100
AcDbArc
 50
222.66082
 51
226.1243029999999
  0
ARC
  5
50B1
330
18
100
AcDbEntity
  8
0
100
AcDbCircle
 10
1182.242396
 20
321.888658
 30
0.0
 40
186.0
100
AcDbArc
 50
223.115624
 51
226.013224
  0
ARC
  5
50B2
330
18
100
AcDbEntity
  8
0
100
AcDbCircle
 10
1182.242396
 20
321.888658
 30
0.0
 40
186.0
100
AcDbArc
 50
233.084143
 51
235.841795
  0
ARC
  5
50B3
330
18
100
AcDbEntity
  8
0
100
AcDbCircle
 10
1182.242396
 20
321.888658
 30
0.0
 40
314.0
100
AcDbArc
 50
232.315954
 51
235.952875
  0
ARC
  5
50B4
330
18
100
AcDbEntity
  8
0
100
AcDbCircle
 10
1182.242396
 20
321.888658
 30
0.0
 40
314.0
100
AcDbArc
 50
237.2302399999999
 51
240.8671599999999
  0
ARC
  5
50B5
330
18
100
AcDbEntity
  8
0
100
AcDbCircle
 10
1182.242396
 20
321.888658
 30
0.0
 40
314.0
100
AcDbArc
 50
242.144526
 51
245.7814459999999
  0
ARC
  5
50B6
330
18
100
AcDbEntity
  8
0
100
AcDbCircle
 10
1182.242396
 20
321.888658
 30
0.0
 40
186.0
100
AcDbArc
 50
242.912714
 51
245.670367
  0
ARC
  5
50B7
330
18
100
AcDbEntity
  8
0
100
AcDbCircle
 10
1182.242396
 20
321.888658
 30
0.0
 40
186.0
100
AcDbArc
 50
237.998429
 51
240.756081
  0
ARC
  5
50B8
330
18
100
AcDbEntity
  8
0
100
AcDbCircle
 10
1182.242396
 20
321.888658
 30
0.0
 40
186.0
100
AcDbArc
 50
247.827
 51
250.5846529999999
  0
ARC
  5
50B9
330
18
100
AcDbEntity
  8
0
100
AcDbCircle
 10
1182.242396
 20
321.888658
 30
0.0
 40
186.0
100
AcDbArc
 50
252.741286
 51
255.498938
  0
ARC
  5
50BA
330
18
100
AcDbEntity
  8
0
100
AcDbCircle
 10
1182.242396
 20
321.888658
 30
0.0
 40
186.0
100
AcDbArc
 50
257.6555719999999
 51
260.413224
  0
ARC
  5
50BB
330
18
100
AcDbEntity
  8
0
100
AcDbCircle
 10
1182.242396
 20
321.888658
 30
0.0
 40
186.0
100
AcDbArc
 50
262.5698569999999
 51
265.32751
  0
ARC
  5
50BC
330
18
100
AcDbEntity
  8
0
100
AcDbCircle
 10
1182.242396
 20
321.888658
 30
0.0
 40
186.0
100
AcDbArc
 50
267.484143
 51
270.241795
  0
ARC
  5
50BD
330
18
100
AcDbEntity
  8
0
100
AcDbCircle
 10
1182.242396
 20
321.888658
 30
0.0
 40
186.0
100
AcDbArc
 50
272.398429
 51
275.156081
  0
ARC
  5
50BE
330
18
100
AcDbEntity
  8
0
100
AcDbCircle
 10
1182.242396
 20
321.888658
 30
0.0
 40
186.0
100
AcDbArc
 50
277.312714
 51
280.0703669999999
  0
ARC
  5
50BF
330
18
100
AcDbEntity
  8
0
100
AcDbCircle
 10
1182.242396
 20
321.888658
 30
0.0
 40
186.0
100
AcDbArc
 50
282.227
 51
284.9846529999998
  0
ARC
  5
50C0
330
18
100
AcDbEntity
  8
0
100
AcDbCircle
 10
1182.242396
 20
321.888658
 30
0.0
 40
314.0
100
AcDbArc
 50
281.4588109999998
 51
285.095732
  0
ARC
  5
50C1
330
18
100
AcDbEntity
  8
0
100
AcDbCircle
 10
1182.242396
 20
321.888658
 30
0.0
 40
314.0
100
AcDbArc
 50
276.5445259999999
 51
280.181446
  0
ARC
  5
50C2
330
18
100
AcDbEntity
  8
0
100
AcDbCircle
 10
1182.242396
 20
321.888658
 30
0.0
 40
314.0
100
AcDbArc
 50
271.63024
 51
275.2671599999999
  0
ARC
  5
50C3
330
18
100
AcDbEntity
  8
0
100
AcDbCircle
 10
1182.242396
 20
321.888658
 30
0.0
 40
314.0
100
AcDbArc
 50
266.715954
 51
270.3528749999999
  0
ARC
  5
50C4
330
18
100
AcDbEntity
  8
0
100
AcDbCircle
 10
1182.242396
 20
321.888658
 30
0.0
 40
314.0
100
AcDbArc
 50
261.801668
 51
265.438589
  0
ARC
  5
50C5
330
18
100
AcDbEntity
  8
0
100
AcDbCircle
 10
1182.242396
 20
321.888658
 30
0.0
 40
314.0
100
AcDbArc
 50
256.887383
 51
260.524303
  0
ARC
  5
50C6
330
18
100
AcDbEntity
  8
0
100
AcDbCircle
 10
1182.242396
 20
321.888658
 30
0.0
 40
314.0
100
AcDbArc
 50
251.9730969999999
 51
255.610018
  0
ARC
  5
50C7
330
18
100
AcDbEntity
  8
0
100
AcDbCircle
 10
1182.242396
 20
321.888658
 30
0.0
 40
314.0
100
AcDbArc
 50
247.058811
 51
250.695732
  0
ARC
  5
50C8
330
18
100
AcDbEntity
  8
0
100
AcDbCircle
 10
1182.242396
 20
321.888658
 30
0.0
 40
186.0
100
AcDbArc
 50
287.1412859999999
 51
289.8989379999998
  0
ARC
  5
50C9
330
18
100
AcDbEntity
  8
0
100
AcDbCircle
 10
1182.242396
 20
321.888658
 30
0.0
 40
186.0
100
AcDbArc
 50
292.055572
 51
294.813224
  0
ARC
  5
50CA
330
18
100
AcDbEntity
  8
0
100
AcDbCircle
 10
1182.242396
 20
321.888658
 30
0.0
 40
186.0
100
AcDbArc
 50
296.969857
 51
299.7275099999999
  0
ARC
  5
50CB
330
18
100
AcDbEntity
  8
0
100
AcDbCircle
 10
1182.242396
 20
321.888658
 30
0.0
 40
186.0
100
AcDbArc
 50
301.884143
 51
304.641795
  0
ARC
  5
50CC
330
18
100
AcDbEntity
  8
0
100
AcDbCircle
 10
1182.242396
 20
321.888658
 30
0.0
 40
186.0
100
AcDbArc
 50
306.798429
 51
309.556081
  0
ARC
  5
50CD
330
18
100
AcDbEntity
  8
0
100
AcDbCircle
 10
1182.242396
 20
321.888658
 30
0.0
 40
186.0
100
AcDbArc
 50
311.712714
 51
314.470367
  0
ARC
  5
50CE
330
18
100
AcDbEntity
  8
0
100
AcDbCircle
 10
1182.242396
 20
321.888658
 30
0.0
 40
186.0
100
AcDbArc
 50
316.627
 51
319.3846529999999
  0
ARC
  5
50CF
330
18
100
AcDbEntity
  8
0
100
AcDbCircle
 10
1182.242396
 20
321.888658
 30
0.0
 40
186.0
100
AcDbArc
 50
321.541286
 51
324.2989379999999
  0
ARC
  5
50D0
330
18
100
AcDbEntity
  8
0
100
AcDbCircle
 10
1182.242396
 20
321.888658
 30
0.0
 40
186.0
100
AcDbArc
 50
326.455572
 51
329.213224
  0
ARC
  5
50D1
330
18
100
AcDbEntity
  8
0
100
AcDbCircle
 10
1182.242396
 20
321.888658
 30
0.0
 40
186.0
100
AcDbArc
 50
331.3698569999999
 51
334.12751
  0
ARC
  5
50D2
330
18
100
AcDbEntity
  8
0
100
AcDbCircle
 10
1182.242396
 20
321.888658
 30
0.0
 40
186.0
100
AcDbArc
 50
336.284143
 51
339.041795
  0
ARC
  5
50D3
330
18
100
AcDbEntity
  8
0
100
AcDbCircle
 10
1182.242396
 20
321.888658
 30
0.0
 40
314.0
100
AcDbArc
 50
340.4302399999999
 51
344.0671599999998
  0
ARC
  5
50D4
330
18
100
AcDbEntity
  8
0
100
AcDbCircle
 10
1182.242396
 20
321.888658
 30
0.0
 40
314.0
100
AcDbArc
 50
335.515954
 51
339.1528749999999
  0
ARC
  5
50D5
330
18
100
AcDbEntity
  8
0
100
AcDbCircle
 10
1182.242396
 20
321.888658
 30
0.0
 40
314.0
100
AcDbArc
 50
330.601668
 51
334.238589
  0
ARC
  5
50D6
330
18
100
AcDbEntity
  8
0
100
AcDbCircle
 10
1182.242396
 20
321.888658
 30
0.0
 40
314.0
100
AcDbArc
 50
325.6873829999999
 51
329.324303
  0
ARC
  5
50D7
330
18
100
AcDbEntity
  8
0
100
AcDbCircle
 10
1182.242396
 20
321.888658
 30
0.0
 40
314.0
100
AcDbArc
 50
320.773097
 51
324.410018
  0
ARC
  5
50D8
330
18
100
AcDbEntity
  8
0
100
AcDbCircle
 10
1182.242396
 20
321.888658
 30
0.0
 40
314.0
100
AcDbArc
 50
315.858811
 51
319.4957319999999
  0
ARC
  5
50D9
330
18
100
AcDbEntity
  8
0
100
AcDbCircle
 10
1182.242396
 20
321.888658
 30
0.0
 40
314.0
100
AcDbArc
 50
310.944526
 51
314.5814459999998
  0
ARC
  5
50DA
330
18
100
AcDbEntity
  8
0
100
AcDbCircle
 10
1182.242396
 20
321.888658
 30
0.0
 40
314.0
100
AcDbArc
 50
306.0302399999998
 51
309.66716
  0
ARC
  5
50DB
330
18
100
AcDbEntity
  8
0
100
AcDbCircle
 10
1182.242396
 20
321.888658
 30
0.0
 40
314.0
100
AcDbArc
 50
301.1159539999998
 51
304.752875
  0
ARC
  5
50DC
330
18
100
AcDbEntity
  8
0
100
AcDbCircle
 10
1182.242396
 20
321.888658
 30
0.0
 40
314.0
100
AcDbArc
 50
296.201668
 51
299.838589
  0
ARC
  5
50DD
330
18
100
AcDbEntity
  8
0
100
AcDbCircle
 10
1182.242396
 20
321.888658
 30
0.0
 40
314.0
100
AcDbArc
 50
291.287383
 51
294.9243029999998
  0
ARC
  5
50DE
330
18
100
AcDbEntity
  8
0
100
AcDbCircle
 10
1182.242396
 20
321.888658
 30
0.0
 40
314.0
100
AcDbArc
 50
286.373097
 51
290.0100179999999
  0
ARC
  5
50DF
330
18
100
AcDbEntity
  8
0
100
AcDbCircle
 10
1182.242396
 20
321.888658
 30
0.0
 40
314.0
100
AcDbArc
 50
24.658811
 51
28.295732
  0
ARC
  5
50E0
330
18
100
AcDbEntity
  8
0
100
AcDbCircle
 10
1182.242396
 20
321.888658
 30
0.0
 40
314.0
100
AcDbArc
 50
19.744526
 51
23.381446
  0
ARC
  5
50E1
330
18
100
AcDbEntity
  8
0
100
AcDbCircle
 10
1182.242396
 20
321.888658
 30
0.0
 40
314.0
100
AcDbArc
 50
14.83024
 51
18.46715999999999
  0
ARC
  5
50E2
330
18
100
AcDbEntity
  8
0
100
AcDbCircle
 10
1182.242396
 20
321.888658
 30
0.0
 40
314.0
100
AcDbArc
 50
9.915953999999999
 51
13.552875
  0
ARC
  5
50E3
330
18
100
AcDbEntity
  8
0
100
AcDbCircle
 10
1182.242396
 20
321.888658
 30
0.0
 40
314.0
100
AcDbArc
 50
5.001668
 51
8.638588999999999
  0
ARC
  5
50E4
330
18
100
AcDbEntity
  8
0
100
AcDbCircle
 10
1182.242396
 20
321.888658
 30
0.0
 40
314.0
100
AcDbArc
 50
0.087383
 51
3.724302999999999
  0
ARC
  5
50E5
330
18
100
AcDbEntity
  8
0
100
AcDbCircle
 10
1182.242396
 20
321.888658
 30
0.0
 40
314.0
100
AcDbArc
 50
355.173097
 51
358.810018
  0
ARC
  5
50E6
330
18
100
AcDbEntity
  8
0
100
AcDbCircle
 10
1182.242396
 20
321.888658
 30
0.0
 40
314.0
100
AcDbArc
 50
350.258811
 51
353.895732
  0
ARC
  5
50E7
330
18
100
AcDbEntity
  8
0
100
AcDbCircle
 10
1182.242396
 20
321.888658
 30
0.0
 40
314.0
100
AcDbArc
 50
345.3445259999998
 51
348.981446
  0
ARC
  5
50E8
330
18
100
AcDbEntity
  8
0
100
AcDbCircle
 10
1182.242396
 20
321.888658
 30
0.0
 40
186.0
100
AcDbArc
 50
341.1984289999998
 51
343.9560809999998
  0
ARC
  5
50E9
330
18
100
AcDbEntity
  8
0
100
AcDbCircle
 10
1182.242396
 20
321.888658
 30
0.0
 40
186.0
100
AcDbArc
 50
346.112714
 51
348.870367
  0
ARC
  5
50EA
330
18
100
AcDbEntity
  8
0
100
AcDbCircle
 10
1182.242396
 20
321.888658
 30
0.0
 40
186.0
100
AcDbArc
 50
351.0269999999998
 51
353.7846529999998
  0
ARC
  5
50EB
330
18
100
AcDbEntity
  8
0
100
AcDbCircle
 10
1182.242396
 20
321.888658
 30
0.0
 40
186.0
100
AcDbArc
 50
355.941286
 51
358.6989379999998
  0
ARC
  5
50EC
330
18
100
AcDbEntity
  8
0
100
AcDbCircle
 10
1182.242396
 20
321.888658
 30
0.0
 40
186.0
100
AcDbArc
 50
0.8555719999999999
 51
3.613223999999998
  0
ARC
  5
50ED
330
18
100
AcDbEntity
  8
0
100
AcDbCircle
 10
1182.242396
 20
321.888658
 30
0.0
 40
186.0
100
AcDbArc
 50
5.769857
 51
8.527510000000001
  0
ARC
  5
50EE
330
18
100
AcDbEntity
  8
0
100
AcDbCircle
 10
1182.242396
 20
321.888658
 30
0.0
 40
186.0
100
AcDbArc
 50
10.68414299999999
 51
13.441795
  0
ARC
  5
50EF
330
18
100
AcDbEntity
  8
0
100
AcDbCircle
 10
1182.242396
 20
321.888658
 30
0.0
 40
186.0
100
AcDbArc
 50
15.598429
 51
18.35608099999999
  0
ARC
  5
50F0
330
18
100
AcDbEntity
  8
0
100
AcDbCircle
 10
1182.242396
 20
321.888658
 30
0.0
 40
186.0
100
AcDbArc
 50
20.512714
 51
23.270367
  0
ARC
  5
50F1
330
18
100
AcDbEntity
  8
0
100
AcDbCircle
 10
1182.242396
 20
321.888658
 30
0.0
 40
186.0
100
AcDbArc
 50
25.42699999999999
 51
28.184653
  0
ARC
  5
50F3
330
18
100
AcDbEntity
  8
0
100
AcDbCircle
 10
1182.242396
 20
321.888658
 30
0.0
 40
314.0
100
AcDbArc
 50
29.573097
 51
33.21001799999999
  0
ARC
  5
50F4
330
18
100
AcDbEntity
  8
0
100
AcDbCircle
 10
1182.242396
 20
321.888658
 30
0.0
 40
186.0
100
AcDbArc
 50
30.34128599999999
 51
33.09893800000001
  0
ARC
  5
50F5
330
18
100
AcDbEntity
  8
0
100
AcDbCircle
 10
1182.242396
 20
321.888658
 30
0.0
 40
314.0
100
AcDbArc
 50
227.401668
 51
231.038589
  0
ARC
  5
50F6
330
18
100
AcDbEntity
  8
0
100
AcDbCircle
 10
1182.242396
 20
321.888658
 30
0.0
 40
186.0
100
AcDbArc
 50
228.1698569999999
 51
230.92751
  0
LINE
  5
50F7
330
18
100
AcDbEntity
  8
0
100
AcDbLine
 10
727.403036
 20
108.9290659999999
 30
0.0
 11
716.014708
 21
97.54073699999999
 31
0.0
  0
ARC
  5
50F8
330
18
100
AcDbEntity
  8
0
100
AcDbCircle
 10
951.350943
 20
-142.298785
 30
0.0
 40
336.0
100
AcDbArc
 50
135.6521219999999
 51
138.206859
  0
ARC
  5
50F9
330
18
100
AcDbEntity
  8
0
100
AcDbCircle
 10
951.350943
 20
-142.298785
 30
0.0
 40
464.0
100
AcDbArc
 50
136.300039
 51
139.1850559999999
  0
ARC
  5
50FA
330
18
100
AcDbEntity
  8
0
100
AcDbCircle
 10
951.350943
 20
-142.298785
 30
0.0
 40
336.0
100
AcDbArc
 50
139.4021219999999
 51
141.956859
  0
ARC
  5
50FB
330
18
100
AcDbEntity
  8
0
100
AcDbCircle
 10
951.350943
 20
-142.298785
 30
0.0
 40
464.0
100
AcDbArc
 50
140.0500389999999
 51
142.935056
  0
ARC
  5
50FC
330
18
100
AcDbEntity
  8
0
100
AcDbCircle
 10
951.350943
 20
-142.298785
 30
0.0
 40
464.0
100
AcDbArc
 50
143.800039
 51
146.685056
  0
ARC
  5
50FD
330
18
100
AcDbEntity
  8
0
100
AcDbCircle
 10
951.350943
 20
-142.298785
 30
0.0
 40
464.0
100
AcDbArc
 50
147.550039
 51
150.4350559999999
  0
ARC
  5
50FE
330
18
100
AcDbEntity
  8
0
100
AcDbCircle
 10
951.350943
 20
-142.298785
 30
0.0
 40
464.0
100
AcDbArc
 50
151.300039
 51
154.185056
  0
ARC
  5
50FF
330
18
100
AcDbEntity
  8
0
100
AcDbCircle
 10
951.350943
 20
-142.298785
 30
0.0
 40
464.0
100
AcDbArc
 50
155.050039
 51
157.9350559999999
  0
ARC
  5
5100
330
18
100
AcDbEntity
  8
0
100
AcDbCircle
 10
951.350943
 20
-142.298785
 30
0.0
 40
464.0
100
AcDbArc
 50
158.8000389999999
 51
161.685056
  0
ARC
  5
5101
330
18
100
AcDbEntity
  8
0
100
AcDbCircle
 10
951.350943
 20
-142.298785
 30
0.0
 40
464.0
100
AcDbArc
 50
162.550039
 51
165.435056
  0
ARC
  5
5102
330
18
100
AcDbEntity
  8
0
100
AcDbCircle
 10
951.350943
 20
-142.298785
 30
0.0
 40
464.0
100
AcDbArc
 50
166.300039
 51
169.1850559999999
  0
ARC
  5
5103
330
18
100
AcDbEntity
  8
0
100
AcDbCircle
 10
951.350943
 20
-142.298785
 30
0.0
 40
464.0
100
AcDbArc
 50
170.050039
 51
172.935056
  0
ARC
  5
5104
330
18
100
AcDbEntity
  8
0
100
AcDbCircle
 10
951.350943
 20
-142.298785
 30
0.0
 40
336.0
100
AcDbArc
 50
165.6521219999999
 51
168.206859
  0
ARC
  5
5105
330
18
100
AcDbEntity
  8
0
100
AcDbCircle
 10
951.350943
 20
-142.298785
 30
0.0
 40
336.0
100
AcDbArc
 50
161.902122
 51
164.456859
  0
ARC
  5
5106
330
18
100
AcDbEntity
  8
0
100
AcDbCircle
 10
951.350943
 20
-142.298785
 30
0.0
 40
336.0
100
AcDbArc
 50
158.1521219999999
 51
160.706859
  0
ARC
  5
5107
330
18
100
AcDbEntity
  8
0
100
AcDbCircle
 10
951.350943
 20
-142.298785
 30
0.0
 40
336.0
100
AcDbArc
 50
154.4021219999999
 51
156.956859
  0
ARC
  5
5108
330
18
100
AcDbEntity
  8
0
100
AcDbCircle
 10
951.350943
 20
-142.298785
 30
0.0
 40
336.0
100
AcDbArc
 50
150.6521219999999
 51
153.206859
  0
ARC
  5
5109
330
18
100
AcDbEntity
  8
0
100
AcDbCircle
 10
951.350943
 20
-142.298785
 30
0.0
 40
336.0
100
AcDbArc
 50
146.9021219999999
 51
149.456859
  0
ARC
  5
510A
330
18
100
AcDbEntity
  8
0
100
AcDbCircle
 10
951.350943
 20
-142.298785
 30
0.0
 40
336.0
100
AcDbArc
 50
143.152122
 51
145.706859
  0
ARC
  5
510B
330
18
100
AcDbEntity
  8
0
100
AcDbCircle
 10
951.350943
 20
-142.298785
 30
0.0
 40
336.0
100
AcDbArc
 50
169.4021219999999
 51
171.956859
  0
ARC
  5
510C
330
18
100
AcDbEntity
  8
0
100
AcDbCircle
 10
951.350943
 20
-142.298785
 30
0.0
 40
336.0
100
AcDbArc
 50
173.1521219999999
 51
175.706859
  0
ARC
  5
510D
330
18
100
AcDbEntity
  8
0
100
AcDbCircle
 10
951.350943
 20
-142.298785
 30
0.0
 40
336.0
100
AcDbArc
 50
176.9021219999999
 51
179.456859
  0
ARC
  5
510E
330
18
100
AcDbEntity
  8
0
100
AcDbCircle
 10
951.350943
 20
-142.298785
 30
0.0
 40
464.0
100
AcDbArc
 50
177.5500389999999
 51
180.4350559999999
  0
ARC
  5
510F
330
18
100
AcDbEntity
  8
0
100
AcDbCircle
 10
951.350943
 20
-142.298785
 30
0.0
 40
464.0
100
AcDbArc
 50
173.800039
 51
176.6850559999999
  0
LINE
  5
5112
330
18
100
AcDbEntity
  8
0
100
AcDbLine
 10
251.951783
 20
1133.167940999999
 30
0.0
 11
268.9519029999999
 21
1150.168040999999
 31
0.0
  0
LINE
  5
5243
330
18
100
AcDbEntity
  8
0
100
AcDbLine
 10
224.951903
 20
648.538054
 30
0.0
 11
192.926465
 21
646.8596719999998
 31
0.0
  0
LINE
  5
5244
330
18
100
AcDbEntity
  8
0
100
AcDbLine
 10
234.213064
 20
642.013804
 30
0.0
 11
228.993766
 21
641.740272
 31
0.0
  0
LINE
  5
524B
330
18
100
AcDbEntity
  8
0
100
AcDbLine
 10
256.139875
 20
663.16294
 30
0.0
 11
239.967514
 21
662.3153819999998
 31
0.0
  0
LINE
  5
524C
330
18
100
AcDbEntity
  8
0
100
AcDbLine
 10
255.773523
 20
670.1533459999998
 30
0.0
 11
245.598139
 21
669.6200769999998
 31
0.0
  0
ARC
  5
524D
330
18
100
AcDbEntity
  8
0
100
AcDbCircle
 10
255.9566989999999
 20
666.6581429999999
 30
0.0
 40
3.5
100
AcDbArc
 50
273.0
 51
93.0
  0
ARC
  5
524E
330
18
100
AcDbEntity
  8
0
100
AcDbCircle
 10
255.9566989999999
 20
686.658143
 30
0.0
 40
3.5
100
AcDbArc
 50
273.0
 51
93.0
  0
LINE
  5
524F
330
18
100
AcDbEntity
  8
0
100
AcDbLine
 10
256.139875
 20
683.16294
 30
0.0
 11
249.9516029999999
 21
682.838626
 31
0.0
  0
LINE
  5
5250
330
18
100
AcDbEntity
  8
0
100
AcDbLine
 10
253.4519029999999
 20
683.0220689999999
 30
0.0
 11
253.4519029999999
 21
670.0316749999998
 31
0.0
  0
LINE
  5
5251
330
18
100
AcDbEntity
  8
0
100
AcDbLine
 10
255.773523
 20
690.1533459999998
 30
0.0
 11
249.9516029999999
 21
689.848232
 31
0.0
  0
LINE
  5
5252
330
18
100
AcDbEntity
  8
0
100
AcDbLine
 10
256.139875
 20
703.16294
 30
0.0
 11
249.9516029999999
 21
702.8386259999998
 31
0.0
  0
LINE
  5
5253
330
18
100
AcDbEntity
  8
0
100
AcDbLine
 10
255.773523
 20
710.1533459999998
 30
0.0
 11
249.9516029999999
 21
709.848232
 31
0.0
  0
LINE
  5
5254
330
18
100
AcDbEntity
  8
0
100
AcDbLine
 10
253.4519029999999
 20
703.022069
 30
0.0
 11
253.4519029999999
 21
690.0316749999998
 31
0.0
  0
ARC
  5
5255
330
18
100
AcDbEntity
  8
0
100
AcDbCircle
 10
255.9566989999999
 20
706.658143
 30
0.0
 40
3.5
100
AcDbArc
 50
273.0
 51
93.0
  0
ARC
  5
5256
330
18
100
AcDbEntity
  8
0
100
AcDbCircle
 10
255.9566989999999
 20
726.658143
 30
0.0
 40
3.5
100
AcDbArc
 50
273.0
 51
93.0
  0
LINE
  5
5257
330
18
100
AcDbEntity
  8
0
100
AcDbLine
 10
253.4519029999999
 20
723.022069
 30
0.0
 11
253.4519029999999
 21
710.0316749999998
 31
0.0
  0
LINE
  5
5258
330
18
100
AcDbEntity
  8
0
100
AcDbLine
 10
255.773523
 20
730.1533459999998
 30
0.0
 11
249.9516029999999
 21
729.848232
 31
0.0
  0
LINE
  5
5259
330
18
100
AcDbEntity
  8
0
100
AcDbLine
 10
256.139875
 20
723.16294
 30
0.0
 11
249.9516029999999
 21
722.8386259999998
 31
0.0
  0
LINE
  5
525A
330
18
100
AcDbEntity
  8
0
100
AcDbLine
 10
253.4519029999999
 20
743.0220689999998
 30
0.0
 11
253.4519029999999
 21
730.0316749999998
 31
0.0
  0
LINE
  5
525B
330
18
100
AcDbEntity
  8
0
100
AcDbLine
 10
256.139875
 20
743.16294
 30
0.0
 11
249.9516029999999
 21
742.8386259999999
 31
0.0
  0
LINE
  5
525C
330
18
100
AcDbEntity
  8
0
100
AcDbLine
 10
255.773523
 20
750.1533459999998
 30
0.0
 11
249.9516029999999
 21
749.848232
 31
0.0
  0
ARC
  5
525D
330
18
100
AcDbEntity
  8
0
100
AcDbCircle
 10
255.9566989999999
 20
746.6581429999998
 30
0.0
 40
3.5
100
AcDbArc
 50
273.0
 51
93.0
  0
ARC
  5
525E
330
18
100
AcDbEntity
  8
0
100
AcDbCircle
 10
255.9566989999999
 20
766.6581429999999
 30
0.0
 40
3.5
100
AcDbArc
 50
273.0
 51
93.0
  0
LINE
  5
525F
330
18
100
AcDbEntity
  8
0
100
AcDbLine
 10
255.773523
 20
770.1533459999998
 30
0.0
 11
249.9516029999999
 21
769.848232
 31
0.0
  0
LINE
  5
5260
330
18
100
AcDbEntity
  8
0
100
AcDbLine
 10
256.139875
 20
763.16294
 30
0.0
 11
249.9516029999999
 21
762.838626
 31
0.0
  0
LINE
  5
5261
330
18
100
AcDbEntity
  8
0
100
AcDbLine
 10
253.4519029999999
 20
763.0220689999998
 30
0.0
 11
253.4519029999999
 21
750.0316749999998
 31
0.0
  0
LINE
  5
5262
330
18
100
AcDbEntity
  8
0
100
AcDbLine
 10
253.4519029999999
 20
783.0220689999999
 30
0.0
 11
253.4519029999999
 21
770.0316749999998
 31
0.0
  0
LINE
  5
5263
330
18
100
AcDbEntity
  8
0
100
AcDbLine
 10
256.139875
 20
783.16294
 30
0.0
 11
249.9516029999999
 21
782.838626
 31
0.0
  0
LINE
  5
5264
330
18
100
AcDbEntity
  8
0
100
AcDbLine
 10
255.773523
 20
790.1533459999998
 30
0.0
 11
249.9516029999999
 21
789.848232
 31
0.0
  0
ARC
  5
5265
330
18
100
AcDbEntity
  8
0
100
AcDbCircle
 10
255.9566989999999
 20
786.658143
 30
0.0
 40
3.5
100
AcDbArc
 50
273.0
 51
93.0
  0
ARC
  5
5266
330
18
100
AcDbEntity
  8
0
100
AcDbCircle
 10
255.9566989999999
 20
806.6581429999999
 30
0.0
 40
3.5
100
AcDbArc
 50
273.0
 51
93.0
  0
LINE
  5
5267
330
18
100
AcDbEntity
  8
0
100
AcDbLine
 10
255.773523
 20
810.1533459999997
 30
0.0
 11
249.9516029999999
 21
809.848232
 31
0.0
  0
LINE
  5
5268
330
18
100
AcDbEntity
  8
0
100
AcDbLine
 10
256.139875
 20
803.1629399999998
 30
0.0
 11
249.9516029999999
 21
802.8386259999999
 31
0.0
  0
LINE
  5
5269
330
18
100
AcDbEntity
  8
0
100
AcDbLine
 10
253.4519029999999
 20
803.022069
 30
0.0
 11
253.4519029999999
 21
790.0316749999998
 31
0.0
  0
LINE
  5
526A
330
18
100
AcDbEntity
  8
0
100
AcDbLine
 10
253.4519029999999
 20
823.0220689999999
 30
0.0
 11
253.4519029999999
 21
810.0316749999999
 31
0.0
  0
LINE
  5
526B
330
18
100
AcDbEntity
  8
0
100
AcDbLine
 10
256.139875
 20
823.16294
 30
0.0
 11
249.9516029999999
 21
822.838626
 31
0.0
  0
ARC
  5
526D
330
18
100
AcDbEntity
  8
0
100
AcDbCircle
 10
255.9566989999999
 20
826.658143
 30
0.0
 40
3.5
100
AcDbArc
 50
273.0
 51
40.251003
  0
LINE
  5
526E
330
18
100
AcDbEntity
  8
0
100
AcDbLine
 10
225.7916859999999
 20
641.572458
 30
0.0
 11
194.335713
 21
639.9239209999998
 31
0.0
  0
LINE
  5
56DE
330
18
100
AcDbEntity
  8
0
100
AcDbLine
 10
868.8248019999999
 20
1165.268041
 30
0.0
 11
892.6001019999999
 21
1169.460241
 31
0.0
  0
ARC
  5
56DF
330
18
100
AcDbEntity
  8
0
100
AcDbCircle
 10
893.932202
 20
1167.664340999998
 30
0.0
 40
7.0
100
AcDbArc
 50
100.0
 51
173.39845
  0
ARC
  5
56E0
330
18
100
AcDbEntity
  8
0
100
AcDbCircle
 10
909.6891259999999
 20
1170.442712
 30
0.0
 40
3.0
100
AcDbArc
 50
51.810315
 51
100.0
  0
ARC
  5
56E1
330
18
100
AcDbEntity
  8
0
100
AcDbCircle
 10
909.6891259999999
 20
1170.442712
 30
0.0
 40
3.0
100
AcDbArc
 50
280.0
 51
328.1896849999998
  0
ARC
  5
56E2
330
18
100
AcDbEntity
  8
0
100
AcDbCircle
 10
910.673934
 20
1170.61636
 30
0.0
 40
2.0
100
AcDbArc
 50
100.0
 51
280.0
  0
LINE
  5
56E3
330
18
100
AcDbEntity
  8
0
100
AcDbLine
 10
908.740404
 20
1173.321706
 30
0.0
 11
909.1681819999999
 21
1173.397134999998
 31
0.0
  0
ARC
  5
56E4
330
18
100
AcDbEntity
  8
0
100
AcDbCircle
 10
893.932202
 20
1167.664340999998
 30
0.0
 40
3.0
100
AcDbArc
 50
100.0
 51
148.189685
  0
LINE
  5
56E5
330
18
100
AcDbEntity
  8
0
100
AcDbLine
 10
909.1681819999999
 20
1173.397134999998
 30
0.0
 11
893.4112569999998
 21
1170.618764
 31
0.0
  0
LINE
  5
56E7
330
18
100
AcDbEntity
  8
0
100
AcDbLine
 10
910.3266369999996
 20
1172.585975
 30
0.0
 11
935.931639
 21
1177.100827999999
 31
0.0
  0
LINE
  5
56E8
330
18
100
AcDbEntity
  8
0
100
AcDbLine
 10
911.02123
 20
1168.646743999999
 30
0.0
 11
936.626232
 21
1173.161597
 31
0.0
  0
ARC
  5
56E9
330
18
100
AcDbEntity
  8
0
100
AcDbCircle
 10
909.6891259999999
 20
1170.442712
 30
0.0
 40
7.0
100
AcDbArc
 50
280.0
 51
353.39845
  0
ARC
  5
56EA
330
18
100
AcDbEntity
  8
0
100
AcDbCircle
 10
909.6891259999999
 20
1170.442712
 30
0.0
 40
7.0
100
AcDbArc
 50
26.60155
 51
100.0
  0
LINE
  5
56EB
330
18
100
AcDbEntity
  8
0
100
AcDbLine
 10
908.28173
 20
1177.302536
 30
0.0
 11
908.4735889999999
 21
1177.336366
 31
0.0
  0
LINE
  5
56EC
330
18
100
AcDbEntity
  8
0
100
AcDbLine
 10
893.684919
 20
1164.574458
 30
0.0
 11
910.210071
 21
1167.488289
 31
0.0
  0
LINE
  5
56ED
330
18
100
AcDbEntity
  8
0
100
AcDbLine
 10
908.4735889999999
 20
1177.336366
 30
0.0
 11
892.716665
 21
1174.557995
 31
0.0
  0
LINE
  5
56EE
330
18
100
AcDbEntity
  8
0
100
AcDbLine
 10
898.018646
 20
1161.276905
 30
0.0
 11
910.9046629999999
 21
1163.549058
 31
0.0
  0
ARC
  5
56EF
330
18
100
AcDbEntity
  8
0
100
AcDbCircle
 10
893.932202
 20
1167.664340999998
 30
0.0
 40
7.0
100
AcDbArc
 50
225.541435
 51
280.0
  0
LINE
  5
56F0
330
18
100
AcDbEntity
  8
0
100
AcDbLine
 10
979.3797469999999
 20
1189.839035
 30
0.0
 11
995.136671
 21
1192.617406
 31
0.0
  0
LINE
  5
56F1
330
18
100
AcDbEntity
  8
0
100
AcDbLine
 10
981.1162289999996
 20
1179.990957
 30
0.0
 11
996.8731529999999
 21
1182.769327999998
 31
0.0
  0
LINE
  5
56F2
330
18
100
AcDbEntity
  8
0
100
AcDbLine
 10
981.810822
 20
1176.051725999998
 30
0.0
 11
997.5677459999999
 21
1178.830097
 31
0.0
  0
LINE
  5
56F3
330
18
100
AcDbEntity
  8
0
100
AcDbLine
 10
980.0743399999999
 20
1185.899803999999
 30
0.0
 11
995.831264
 21
1188.678175
 31
0.0
  0
ARC
  5
56F4
330
18
100
AcDbEntity
  8
0
100
AcDbCircle
 10
937.2637429999999
 20
1175.304860999998
 30
0.0
 40
7.0
100
AcDbArc
 50
206.60155
 51
280.0
  0
ARC
  5
56F5
330
18
100
AcDbEntity
  8
0
100
AcDbCircle
 10
937.2637429999999
 20
1175.304860999998
 30
0.0
 40
3.0
100
AcDbArc
 50
100.0
 51
148.189685
  0
ARC
  5
56F6
330
18
100
AcDbEntity
  8
0
100
AcDbCircle
 10
937.2637429999999
 20
1175.304860999998
 30
0.0
 40
7.0
100
AcDbArc
 50
100.0
 51
173.39845
  0
ARC
  5
56F7
330
18
100
AcDbEntity
  8
0
100
AcDbCircle
 10
953.020667
 20
1178.083232
 30
0.0
 40
7.0
100
AcDbArc
 50
26.60155
 51
100.0
  0
ARC
  5
56F8
330
18
100
AcDbEntity
  8
0
100
AcDbCircle
 10
953.020667
 20
1178.083232
 30
0.0
 40
7.0
100
AcDbArc
 50
280.0
 51
353.39845
  0
LINE
  5
56F9
330
18
100
AcDbEntity
  8
0
100
AcDbLine
 10
979.9577729999999
 20
1180.802117
 30
0.0
 11
954.3527709999999
 21
1176.287264
 31
0.0
  0
LINE
  5
56FA
330
18
100
AcDbEntity
  8
0
100
AcDbLine
 10
979.26318
 20
1184.741347999999
 30
0.0
 11
953.6581789999999
 21
1180.226495
 31
0.0
  0
ARC
  5
56FB
330
18
100
AcDbEntity
  8
0
100
AcDbCircle
 10
953.020667
 20
1178.083232
 30
0.0
 40
3.0
100
AcDbArc
 50
51.810315
 51
100.0
  0
ARC
  5
56FC
330
18
100
AcDbEntity
  8
0
100
AcDbCircle
 10
954.0054750000001
 20
1178.25688
 30
0.0
 40
2.0
100
AcDbArc
 50
100.0
 51
280.0
  0
ARC
  5
56FD
330
18
100
AcDbEntity
  8
0
100
AcDbCircle
 10
953.020667
 20
1178.083232
 30
0.0
 40
3.0
100
AcDbArc
 50
280.0
 51
328.1896849999998
  0
ARC
  5
56FE
330
18
100
AcDbEntity
  8
0
100
AcDbCircle
 10
936.2789349999999
 20
1175.131213
 30
0.0
 40
2.0
100
AcDbArc
 50
280.0
 51
100.0
  0
ARC
  5
56FF
330
18
100
AcDbEntity
  8
0
100
AcDbCircle
 10
937.2637429999999
 20
1175.304860999998
 30
0.0
 40
3.0
100
AcDbArc
 50
231.810315
 51
280.0
  0
LINE
  5
5700
330
18
100
AcDbEntity
  8
0
100
AcDbLine
 10
938.4792799999999
 20
1168.411207
 30
0.0
 11
954.2362039999996
 21
1171.189576999998
 31
0.0
  0
LINE
  5
5701
330
18
100
AcDbEntity
  8
0
100
AcDbLine
 10
937.7846879999999
 20
1172.350438
 30
0.0
 11
953.5416119999997
 21
1175.128807999999
 31
0.0
  0
LINE
  5
5702
330
18
100
AcDbEntity
  8
0
100
AcDbLine
 10
936.7427989999999
 20
1178.259283999999
 30
0.0
 11
952.499723
 21
1181.037655
 31
0.0
  0
LINE
  5
5703
330
18
100
AcDbEntity
  8
0
100
AcDbLine
 10
936.048206
 20
1182.198515
 30
0.0
 11
951.8051299999999
 21
1184.976886
 31
0.0
  0
ARC
  5
5704
330
18
100
AcDbEntity
  8
0
100
AcDbCircle
 10
979.6104769999999
 20
1182.771731999999
 30
0.0
 40
2.0
100
AcDbArc
 50
280.0
 51
100.0
  0
ARC
  5
5705
330
18
100
AcDbEntity
  8
0
100
AcDbCircle
 10
980.5952839999999
 20
1182.945381
 30
0.0
 40
3.0
100
AcDbArc
 50
100.0
 51
148.189685
  0
ARC
  5
5706
330
18
100
AcDbEntity
  8
0
100
AcDbCircle
 10
980.5952839999999
 20
1182.945381
 30
0.0
 40
3.0
100
AcDbArc
 50
231.810315
 51
280.0
  0
ARC
  5
5707
330
18
100
AcDbEntity
  8
0
100
AcDbCircle
 10
980.5952839999999
 20
1182.945381
 30
0.0
 40
7.0
100
AcDbArc
 50
206.60155
 51
280.0
  0
ARC
  5
5708
330
18
100
AcDbEntity
  8
0
100
AcDbCircle
 10
980.5952839999999
 20
1182.945381
 30
0.0
 40
7.0
100
AcDbArc
 50
100.0
 51
173.39845
  0
LINE
  5
5709
330
18
100
AcDbEntity
  8
0
100
AcDbLine
 10
1024.057839
 20
1197.074890999998
 30
0.0
 11
1028.328295
 21
1213.012554
 31
0.0
  0
LINE
  5
570A
330
18
100
AcDbEntity
  8
0
100
AcDbLine
 10
1027.921384
 20
1196.039585999999
 30
0.0
 11
1032.191882
 21
1211.977339
 31
0.0
  0
LINE
  5
570B
330
18
100
AcDbEntity
  8
0
100
AcDbLine
 10
1018.262189
 20
1198.627727999999
 30
0.0
 11
1022.532728999998
 21
1214.565571
 31
0.0
  0
LINE
  5
570C
330
18
100
AcDbEntity
  8
0
100
AcDbLine
 10
1014.39851
 20
1199.662984
 30
0.0
 11
1018.669140999999
 21
1215.600784999999
 31
0.0
  0
LINE
  5
570D
330
18
100
AcDbEntity
  8
0
100
AcDbLine
 10
1020.055782
 20
1198.69809
 30
0.0
 11
996.49178
 21
1187.710015
 31
0.0
  0
LINE
  5
570E
330
18
100
AcDbEntity
  8
0
100
AcDbLine
 10
1021.746255
 20
1195.072858999999
 30
0.0
 11
998.182253
 21
1184.084783999999
 31
0.0
  0
ARC
  5
570F
330
18
100
AcDbEntity
  8
0
100
AcDbCircle
 10
996.352208
 20
1185.723751
 30
0.0
 40
7.0
100
AcDbArc
 50
39.40297199999999
 51
100.0
  0
ARC
  5
5710
330
18
100
AcDbEntity
  8
0
100
AcDbCircle
 10
996.352208
 20
1185.723751
 30
0.0
 40
3.0
100
AcDbArc
 50
60.47823499999999
 51
100.0
  0
ARC
  5
5711
330
18
100
AcDbEntity
  8
0
100
AcDbCircle
 10
996.352208
 20
1185.723751
 30
0.0
 40
3.0
100
AcDbArc
 50
280.0
 51
328.1896849999998
  0
ARC
  5
5712
330
18
100
AcDbEntity
  8
0
100
AcDbCircle
 10
996.352208
 20
1185.723751
 30
0.0
 40
7.0
100
AcDbArc
 50
280.0
 51
6.174412
  0
ARC
  5
5713
330
18
100
AcDbEntity
  8
0
100
AcDbCircle
 10
997.3370159999999
 20
1185.8974
 30
0.0
 40
2.0
100
AcDbArc
 50
115.0
 51
295.0
  0
ARC
  5
5714
330
18
100
AcDbEntity
  8
0
100
AcDbCircle
 10
1020.901018999998
 20
1196.885473999999
 30
0.0
 40
2.0
100
AcDbArc
 50
295.0
 51
115.0
  0
ARC
  5
5715
330
18
100
AcDbEntity
  8
0
100
AcDbCircle
 10
1021.160059
 20
1197.851288
 30
0.0
 40
3.0
100
AcDbArc
 50
165.0
 51
180.708221
  0
ARC
  5
5716
330
18
100
AcDbEntity
  8
0
100
AcDbCircle
 10
1021.160059
 20
1197.851288
 30
0.0
 40
7.000000999999999
100
AcDbArc
 50
165.0
 51
194.845261
  0
ARC
  5
5717
330
18
100
AcDbEntity
  8
0
100
AcDbCircle
 10
1021.160059
 20
1197.851288
 30
0.0
 40
3.0
100
AcDbArc
 50
272.212821
 51
345.0
  0
ARC
  5
5718
330
18
100
AcDbEntity
  8
0
100
AcDbCircle
 10
1021.160059
 20
1197.851288
 30
0.0
 40
7.000000999999999
100
AcDbArc
 50
228.2735399999999
 51
345.0
  0
ARC
  5
5719
330
18
100
AcDbEntity
  8
0
100
AcDbCircle
 10
1025.430466
 20
1213.789084
 30
0.0
 40
7.000000999999999
100
AcDbArc
 50
345.0
 51
72.833441
  0
ARC
  5
571A
330
18
100
AcDbEntity
  8
0
100
AcDbCircle
 10
1025.430466
 20
1213.789084
 30
0.0
 40
3.0
100
AcDbArc
 50
345.0
 51
46.473938
  0
ARC
  5
571B
330
18
100
AcDbEntity
  8
0
100
AcDbCircle
 10
1025.430466
 20
1213.789084
 30
0.0
 40
7.000000999999999
100
AcDbArc
 50
106.038195
 51
165.0
  0
ARC
  5
571C
330
18
100
AcDbEntity
  8
0
100
AcDbCircle
 10
1025.430466
 20
1213.789084
 30
0.0
 40
3.0
100
AcDbArc
 50
130.139361
 51
165.0
  0
ARC
  5
571D
330
18
100
AcDbEntity
  8
0
100
AcDbCircle
 10
1025.430466
 20
1213.789084
 30
0.0
 40
3.0
100
AcDbArc
 50
130.139361
 51
165.258075
  0
ARC
  5
571E
330
18
100
AcDbEntity
  8
0
100
AcDbCircle
 10
1025.496519999999
 20
1214.788356
 30
0.0
 40
2.0
100
AcDbArc
 50
180.0
 51
0.0
  0
LINE
  5
571F
330
18
100
AcDbEntity
  8
0
100
AcDbLine
 10
1023.496519999999
 20
1214.788356
 30
0.0
 11
1023.496519999999
 21
1240.788356
 31
0.0
  0
LINE
  5
5720
330
18
100
AcDbEntity
  8
0
100
AcDbLine
 10
1027.496519999999
 20
1214.788356
 30
0.0
 11
1027.496519999999
 21
1240.788356
 31
0.0
  0
ARC
  5
5722
330
18
100
AcDbEntity
  8
0
100
AcDbCircle
 10
1025.496519999999
 20
1240.788356
 30
0.0
 40
2.0
100
AcDbArc
 50
0.0
 51
180.00001
  0
ARC
  5
5723
330
18
100
AcDbEntity
  8
0
100
AcDbCircle
 10
892.947402
 20
1167.490641
 30
0.0
 40
2.0
100
AcDbArc
 50
280.0
 51
100.0
  0
LINE
  5
5725
330
18
100
AcDbEntity
  8
0
100
AcDbLine
 10
891.3559359999997
 20
1165.179157
 30
0.0
 11
893.2946900000002
 21
1165.521009
 31
0.0
  0
LINE
  5
5726
330
18
100
AcDbEntity
  8
0
100
AcDbLine
 10
1027.496519999999
 20
1223.167941
 30
0.0
 11
1201.225603
 21
1223.167941
 31
0.0
  0
LINE
  5
5727
330
18
100
AcDbEntity
  8
0
100
AcDbLine
 10
1013.372346
 20
1191.168040999998
 30
0.0
 11
1019.078182
 21
1191.168040999998
 31
0.0
  0
LINE
  5
5728
330
18
100
AcDbEntity
  8
0
100
AcDbLine
 10
1000.752175999998
 20
1191.168040999998
 30
0.0
 11
1003.907539999999
 21
1191.168040999998
 31
0.0
  0
LINE
  5
5729
330
18
100
AcDbEntity
  8
0
100
AcDbLine
 10
1023.241936
 20
1191.168040999998
 30
0.0
 11
1203.225702999999
 21
1191.168040999998
 31
0.0
  0
SPLINE
  5
5747
330
18
100
AcDbEntity
  8
0
100
AcDbSpline
210
0.0
220
0.0
230
1.0
 70
     8
 71
     3
 72
    10
 73
     6
 74
     0
 42
0.0000000001
 43
0.0000000001
 40
3.452041396444966
 40
3.452041396444966
 40
3.452041396444966
 40
3.452041396444966
 40
44.62379800676025
 40
100.5013474371037
 40
135.8354368614046
 40
135.8354368614046
 40
135.8354368614046
 40
135.8354368614046
 10
1218.725757519418
 20
993.5007256930354
 30
0.0
 10
1231.591937981646
 20
999.8745811395799
 30
0.0
 10
1261.990842904328
 20
1013.87709814658
 30
0.0
 10
1306.407820712467
 20
990.5061633903727
 30
0.0
 10
1335.525036747048
 20
999.0168401308057
 30
0.0
 10
1346.72575751939
 20
1003.620253837279
 30
0.0
  0
SPLINE
  5
5748
330
18
100
AcDbEntity
  8
0
100
AcDbSpline
210
0.0
220
0.0
230
1.0
 70
     8
 71
     3
 72
    10
 73
     6
 74
     0
 42
0.0000000001
 43
0.0000000001
 40
1.196677609723759
 40
1.196677609723759
 40
1.196677609723759
 40
1.196677609723759
 40
44.62379800676025
 40
100.5013474371037
 40
133.6132960814547
 40
133.6132960814547
 40
133.6132960814547
 40
133.6132960814547
 10
1218.725757519394
 20
971.323872054485
 30
0.0
 10
1232.294396438835
 20
978.0806134371367
 30
0.0
 10
1263.348320914171
 20
993.1489262587543
 30
0.0
 10
1307.776445630494
 20
969.7721263204297
 30
0.0
 10
1336.219612808028
 20
977.4904332685201
 30
0.0
 10
1346.72575751939
 20
981.6414980133256
 30
0.0
  0
LINE
  5
5749
330
18
100
AcDbEntity
  8
0
100
AcDbLine
 10
1235.261612
 20
1001.029844999999
 30
0.0
 11
1216.404137
 21
1000.041567
 31
0.0
  0
LINE
  5
574A
330
18
100
AcDbEntity
  8
0
100
AcDbLine
 10
1276.269797
 20
983.1789929999999
 30
0.0
 11
1241.29532
 21
981.3460579999999
 31
0.0
  0
SPLINE
  5
574C
330
18
100
AcDbEntity
  8
0
100
AcDbSpline
210
0.0
220
0.0
230
1.0
 70
     8
 71
     3
 72
    10
 73
     6
 74
     0
 42
0.0000000001
 43
0.0000000001
 40
12.08551436553293
 40
12.08551436553293
 40
12.08551436553293
 40
12.08551436553293
 40
57.38642858585855
 40
122.6602605762133
 40
152.551056391508
 40
152.551056391508
 40
152.551056391508
 40
152.551056391508
 10
481.7224630256096
 20
-231.0649216522501
 30
0.0
 10
495.8856898544826
 20
-223.6330480023027
 30
0.0
 10
530.5947812112771
 20
-208.9602559702965
 30
0.0
 10
576.7205504275128
 20
-241.376192480793
 30
0.0
 10
606.1939537815187
 20
-234.0536554512194
 30
0.0
 10
615.3509791908045
 20
-230.0980135123735
 30
0.0
  0
LINE
  5
574E
330
18
100
AcDbEntity
  8
0
100
AcDbLine
 10
493.000155
 20
-225.554061
 30
0.0
 11
484.663007
 21
-225.990992
 31
0.0
  0
ARC
  5
577B
330
18
100
AcDbEntity
  8
0
100
AcDbCircle
 10
198.0135297276877
 20
1218.04763488962
 30
0.0
 40
38.84277195201542
100
AcDbArc
 50
60.32040089366939
 51
72.87371280590661
  0
ARC
  5
577C
330
18
100
AcDbEntity
  8
0
100
AcDbCircle
 10
200.2039203066749
 20
1221.802463468149
 30
0.0
 40
34.49600468946182
100
AcDbArc
 50
46.25794341336425
 51
60.39319599637877
  0
ARC
  5
577D
330
18
100
AcDbEntity
  8
0
100
AcDbCircle
 10
198.2044770833018
 20
1219.947189845457
 30
0.0
 40
37.21915769423247
100
AcDbArc
 50
32.90798629927091
 51
46.00893082356084
  0
ARC
  5
577E
330
18
100
AcDbEntity
  8
0
100
AcDbCircle
 10
151.110673322583
 20
975.6026461638162
 30
0.0
 40
109.0212268665494
100
AcDbArc
 50
349.668233111681
 51
356.1237596260446
  0
ARC
  5
577F
330
18
100
AcDbEntity
  8
0
100
AcDbCircle
 10
157.1142384708982
 20
974.4724605676706
 30
0.0
 40
102.9123148333838
100
AcDbArc
 50
342.8489379541045
 51
349.6877942716551
  0
ARC
  5
5780
330
18
100
AcDbEntity
  8
0
100
AcDbCircle
 10
165.5641336890186
 20
971.8425496949567
 30
0.0
 40
94.06264417185033
100
AcDbArc
 50
335.3802779755479
 51
342.8618231588572
  0
ARC
  5
5781
330
18
100
AcDbEntity
  8
0
100
AcDbCircle
 10
173.6677212485195
 20
968.1211117802327
 30
0.0
 40
85.14540391686374
100
AcDbArc
 50
327.1193427152798
 51
335.3851421143948
  0
ARC
  5
5782
330
18
100
AcDbEntity
  8
0
100
AcDbCircle
 10
179.8015017798101
 20
964.1654738130144
 30
0.0
 40
77.84675575153534
100
AcDbArc
 50
318.072964267001
 51
327.1134423862156
  0
ARC
  5
5783
330
18
100
AcDbEntity
  8
0
100
AcDbCircle
 10
180.4828149036063
 20
963.7295881885522
 30
0.0
 40
77.04872088681465
100
AcDbArc
 50
308.8401498786223
 51
317.9755895147838
  0
ARC
  5
5784
330
18
100
AcDbEntity
  8
0
100
AcDbCircle
 10
177.9904288771341
 20
966.8142627670613
 30
0.0
 40
81.01446947418066
100
AcDbArc
 50
300.1568691112106
 51
308.8449330232633
  0
ARC
  5
5785
330
18
100
AcDbEntity
  8
0
100
AcDbCircle
 10
176.3462381676781
 20
969.6176488558206
 30
0.0
 40
84.26441810040719
100
AcDbArc
 50
291.8133803768141
 51
300.1659260513548
  0
ARC
  5
5786
330
18
100
AcDbEntity
  8
0
100
AcDbCircle
 10
175.7298747872517
 20
971.106707402785
 30
0.0
 40
85.87589193767701
100
AcDbArc
 50
283.6304726990249
 51
291.8260035880528
  0
ARC
  5
5787
330
18
100
AcDbEntity
  8
0
100
AcDbCircle
 10
175.8241581467528
 20
970.6370075995392
 30
0.0
 40
85.3972042557125
100
AcDbArc
 50
275.4017238981668
 51
283.6432613809138
  0
ARC
  5
5788
330
18
100
AcDbEntity
  8
0
100
AcDbCircle
 10
175.9990930438666
 20
968.8486549046125
 30
0.0
 40
83.60032553133384
100
AcDbArc
 50
266.9785962916856
 51
275.3977450026559
  0
ARC
  5
5789
330
18
100
AcDbEntity
  8
0
100
AcDbCircle
 10
176.09625763403
 20
970.5344674399816
 30
0.0
 40
85.28891648306069
100
AcDbArc
 50
258.7208113066306
 51
266.9731064543774
  0
ARC
  5
578A
330
18
100
AcDbEntity
  8
0
100
AcDbCircle
 10
176.3605327576048
 20
971.9041660136625
 30
0.0
 40
86.68385037553576
100
AcDbArc
 50
250.6072710080383
 51
258.7265805654571
  0
ARC
  5
578B
330
18
100
AcDbEntity
  8
0
100
AcDbCircle
 10
176.4545757438119
 20
972.2025481359008
 30
0.0
 40
86.99653051471235
100
AcDbArc
 50
242.5243173260851
 51
250.6140992171836
  0
ARC
  5
578C
330
18
100
AcDbEntity
  8
0
100
AcDbCircle
 10
151.0719868293423
 20
975.6073921630786
 30
0.0
 40
119.0601900397014
100
AcDbArc
 50
349.7896786738281
 51
356.1215426021378
  0
ARC
  5
578D
330
18
100
AcDbEntity
  8
0
100
AcDbCircle
 10
156.87348256921
 20
974.5281363021156
 30
0.0
 40
113.1592625299822
100
AcDbArc
 50
343.1444728072071
 51
349.8067822094491
  0
ARC
  5
578E
330
18
100
AcDbEntity
  8
0
100
AcDbCircle
 10
165.0602192906608
 20
972.0289159531953
 30
0.0
 40
104.5995657579964
100
AcDbArc
 50
335.9466251786658
 51
343.1543487959207
  0
ARC
  5
578F
330
18
100
AcDbEntity
  8
0
100
AcDbCircle
 10
172.9754729297549
 20
968.4903541125583
 30
0.0
 40
95.92935057596571
100
AcDbArc
 50
328.0908770834222
 51
335.9496930735072
  0
ARC
  5
5790
330
18
100
AcDbEntity
  8
0
100
AcDbCircle
 10
179.1004559870431
 20
964.6857933515127
 30
0.0
 40
88.71893912837505
100
AcDbArc
 50
319.5879209252176
 51
328.0858012867282
  0
ARC
  5
5791
330
18
100
AcDbEntity
  8
0
100
AcDbCircle
 10
180.9917311630858
 20
963.2121710216567
 30
0.0
 40
86.32366127549721
100
AcDbArc
 50
310.7850197904168
 51
319.518854139463
  0
ARC
  5
5792
330
18
100
AcDbEntity
  8
0
100
AcDbCircle
 10
178.5305872587023
 20
966.0613439055929
 30
0.0
 40
90.08863274279079
100
AcDbArc
 50
302.4172605046013
 51
310.7865142904203
  0
ARC
  5
5793
330
18
100
AcDbEntity
  8
0
100
AcDbCircle
 10
176.7098338878243
 20
968.9105016782061
 30
0.0
 40
93.46986821183788
100
AcDbArc
 50
294.3569638813372
 51
302.4231692257478
  0
ARC
  5
5794
330
18
100
AcDbEntity
  8
0
100
AcDbCircle
 10
175.8286986474214
 20
970.818889416706
 30
0.0
 40
95.57179673359383
100
AcDbArc
 50
286.4777719996117
 51
294.3663466432422
  0
ARC
  5
5795
330
18
100
AcDbEntity
  8
0
100
AcDbCircle
 10
175.7414233137794
 20
971.0546681670907
 30
0.0
 40
95.82264855755807
100
AcDbArc
 50
278.6200819852745
 51
286.4878255993049
  0
ARC
  5
5796
330
18
100
AcDbEntity
  8
0
100
AcDbCircle
 10
175.9696795141517
 20
969.4428308586379
 30
0.0
 40
94.19480858301895
100
AcDbArc
 50
270.6258138488341
 51
278.6297579783588
  0
ARC
  5
5797
330
18
100
AcDbEntity
  8
0
100
AcDbCircle
 10
176.0174103504467
 20
969.6684879901996
 30
0.0
 40
94.41994426480992
100
AcDbArc
 50
262.6099531160641
 51
270.5953559932318
  0
ARC
  5
5798
330
18
100
AcDbEntity
  8
0
100
AcDbCircle
 10
176.2282863632646
 20
971.3438256801801
 30
0.0
 40
96.10848958258266
100
AcDbArc
 50
254.7691232354914
 51
262.6137465435328
  0
ARC
  5
5799
330
18
100
AcDbEntity
  8
0
100
AcDbCircle
 10
176.4494311446255
 20
972.1883740560526
 30
0.0
 40
96.98147038578028
100
AcDbArc
 50
247.0004821422259
 51
254.7741411393421
  0
ARC
  5
579A
330
18
100
AcDbEntity
  8
0
100
AcDbCircle
 10
151.042443331261
 20
975.6097631396713
 30
0.0
 40
129.0897708445693
100
AcDbArc
 50
349.8824749790693
 51
356.1204444769184
  0
ARC
  5
579B
330
18
100
AcDbEntity
  8
0
100
AcDbCircle
 10
156.6942138198354
 20
974.5694480317707
 30
0.0
 40
123.3431423002069
100
AcDbArc
 50
343.3684388282987
 51
349.8970161083425
  0
ARC
  5
579C
330
18
100
AcDbEntity
  8
0
100
AcDbCircle
 10
164.6804129032735
 20
972.166824391423
 30
0.0
 40
115.0033767077265
100
AcDbArc
 50
336.3742308825641
 51
343.3765747730243
  0
ARC
  5
579D
330
18
100
AcDbEntity
  8
0
100
AcDbCircle
 10
172.44095666286
 20
968.7676833503958
 30
0.0
 40
106.5310581921038
100
AcDbArc
 50
328.8177443359673
 51
336.3764411025296
  0
ARC
  5
579E
330
18
100
AcDbEntity
  8
0
100
AcDbCircle
 10
178.5413330525609
 20
965.0837275046328
 30
0.0
 40
99.40462340339049
100
AcDbArc
 50
320.7128105821766
 51
328.8138084402431
  0
ARC
  5
579F
330
18
100
AcDbEntity
  8
0
100
AcDbCircle
 10
181.2975568415249
 20
962.921397293989
 30
0.0
 40
95.90217867495558
100
AcDbArc
 50
312.2723645976837
 51
320.6699990807674
  0
ARC
  5
57A0
330
18
100
AcDbEntity
  8
0
100
AcDbCircle
 10
178.9726072954391
 20
965.4865195831503
 30
0.0
 40
99.36414600548426
100
AcDbArc
 50
304.1647724789461
 51
312.2694326851688
  0
ARC
  5
57A1
330
18
100
AcDbEntity
  8
0
100
AcDbCircle
 10
177.0487927479499
 20
968.3072999599986
 30
0.0
 40
102.7784990192634
100
AcDbArc
 50
296.3331600425937
 51
304.1690845802694
  0
ARC
  5
57A2
330
18
100
AcDbEntity
  8
0
100
AcDbCircle
 10
175.9708635215687
 20
970.4563498756456
 30
0.0
 40
105.1827010650835
100
AcDbArc
 50
288.6838978912797
 51
296.3401191304318
  0
ARC
  5
57A3
330
18
100
AcDbEntity
  8
0
100
AcDbCircle
 10
175.7080482186641
 20
971.1867308863086
 30
0.0
 40
105.9587843435692
100
AcDbArc
 50
281.092098808856
 51
288.692003435177
  0
ARC
  5
57A4
330
18
100
AcDbEntity
  8
0
100
AcDbCircle
 10
175.8932106050382
 20
970.1629940145638
 30
0.0
 40
104.9185500301222
100
AcDbArc
 50
273.4249756505345
 51
281.1004267411092
  0
ARC
  5
57A5
330
18
100
AcDbEntity
  8
0
100
AcDbCircle
 10
175.9957417272486
 20
968.9904976569613
 30
0.0
 40
103.742027555375
100
AcDbArc
 50
265.6440072601219
 51
273.4071359417799
  0
ARC
  5
57A6
330
18
100
AcDbEntity
  8
0
100
AcDbCircle
 10
176.1270657825697
 20
970.7518094060851
 30
0.0
 40
105.5082260708552
100
AcDbArc
 50
258.0126749030774
 51
265.6455454634011
  0
ARC
  5
57A7
330
18
100
AcDbEntity
  8
0
100
AcDbCircle
 10
176.3739986970344
 20
971.9505046826126
 30
0.0
 40
106.7320691472755
100
AcDbArc
 50
250.4716948102403
 51
258.0166555147703
  0
ARC
  5
57A8
330
18
100
AcDbEntity
  8
0
100
AcDbCircle
 10
151.020102761634
 20
975.6126001337651
 30
0.0
 40
139.1122965871699
100
AcDbArc
 50
349.9553466934339
 51
356.1191152069251
  0
ARC
  5
57A9
330
18
100
AcDbEntity
  8
0
100
AcDbCircle
 10
156.5554436232138
 20
974.6010394415801
 30
0.0
 40
133.4853722677026
100
AcDbArc
 50
343.5454753221708
 51
349.9684835179256
  0
ARC
  5
57AA
330
18
100
AcDbEntity
  8
0
100
AcDbCircle
 10
164.3790076228724
 20
972.2747124123756
 30
0.0
 40
125.32328236171
100
AcDbArc
 50
336.7104974046268
 51
343.5523304494038
  0
ARC
  5
57AB
330
18
100
AcDbEntity
  8
0
100
AcDbCircle
 10
172.0141943007923
 20
968.983981652266
 30
0.0
 40
117.0091396567244
100
AcDbArc
 50
329.3844437949938
 51
336.7123675869963
  0
ARC
  5
57AC
330
18
100
AcDbEntity
  8
0
100
AcDbCircle
 10
178.0839503003054
 20
965.3999098760072
 30
0.0
 40
109.9602063698165
100
AcDbArc
 50
321.5830232016047
 51
329.3809475831726
  0
ARC
  5
57AD
330
18
100
AcDbEntity
  8
0
100
AcDbCircle
 10
181.4297949782286
 20
962.8051326899608
 30
0.0
 40
105.7263731543074
100
AcDbArc
 50
313.4477073750352
 51
321.5580899919609
  0
ARC
  5
57AE
330
18
100
AcDbEntity
  8
0
100
AcDbCircle
 10
179.3363216109024
 20
965.0376016556132
 30
0.0
 40
108.7868173017794
100
AcDbArc
 50
305.557439245701
 51
313.4396043556343
  0
ARC
  5
57AF
330
18
100
AcDbEntity
  8
0
100
AcDbCircle
 10
177.3533867119094
 20
967.8017356719044
 30
0.0
 40
112.1886455162067
100
AcDbArc
 50
297.9169934098631
 51
305.5603946881368
  0
ARC
  5
57B0
330
18
100
AcDbEntity
  8
0
100
AcDbCircle
 10
176.1280598910906
 20
970.0902880607372
 30
0.0
 40
114.7845604138827
100
AcDbArc
 50
290.4522817520086
 51
297.9226089076573
  0
ARC
  5
57B1
330
18
100
AcDbEntity
  8
0
100
AcDbCircle
 10
175.7121176398688
 20
971.168647817773
 30
0.0
 40
115.9402864192049
100
AcDbArc
 50
283.0632008236493
 51
290.4586639008428
  0
ARC
  5
57B2
330
18
100
AcDbEntity
  8
0
100
AcDbCircle
 10
175.8266129386088
 20
970.6125520663057
 30
0.0
 40
115.3727036701952
100
AcDbArc
 50
275.638367625275
 51
283.0702327002748
  0
ARC
  5
57B3
330
18
100
AcDbEntity
  8
0
100
AcDbCircle
 10
176.001098164717
 20
968.8348267499003
 30
0.0
 40
113.58643623796
100
AcDbArc
 50
268.0893423732139
 51
275.6388817711179
  0
ARC
  5
57B4
330
18
100
AcDbEntity
  8
0
100
AcDbCircle
 10
176.0610482236759
 20
970.202243026452
 30
0.0
 40
114.95509196675
100
AcDbArc
 50
260.6226352594105
 51
268.0822022324314
  0
ARC
  5
57B5
330
18
100
AcDbEntity
  8
0
100
AcDbCircle
 10
176.2896086679356
 20
971.620744549541
 30
0.0
 40
116.3918784027724
100
AcDbArc
 50
253.2583275324093
 51
260.6254013710165
  0
ARC
  5
57B6
330
18
100
AcDbEntity
  8
0
100
AcDbCircle
 10
151.0039492527276
 20
975.6140663005211
 30
0.0
 40
149.1284569537511
100
AcDbArc
 50
350.0157061016539
 51
356.1183265355286
  0
ARC
  5
57B7
330
18
100
AcDbEntity
  8
0
100
AcDbCircle
 10
156.4390504452634
 20
974.6272575996448
 30
0.0
 40
143.604580554545
100
AcDbArc
 50
343.6903592149406
 51
350.0274903291024
  0
ARC
  5
57B8
330
18
100
AcDbEntity
  8
0
100
AcDbCircle
 10
164.1309210690114
 20
972.3614646471094
 30
0.0
 40
135.5859479944514
100
AcDbArc
 50
336.9844947500521
 51
343.6964945598549
  0
ARC
  5
57B9
330
18
100
AcDbEntity
  8
0
100
AcDbCircle
 10
171.6637537436915
 20
969.1598111165857
 30
0.0
 40
127.4009525348164
100
AcDbArc
 50
329.8420616809823
 51
336.9852189911566
  0
ARC
  5
57BA
330
18
100
AcDbEntity
  8
0
100
AcDbCircle
 10
177.6986853712683
 20
965.6602729695073
 30
0.0
 40
120.424769565769
100
AcDbArc
 50
322.2818804898587
 51
329.8392036526605
  0
ARC
  5
57BB
330
18
100
AcDbEntity
  8
0
100
AcDbCircle
 10
181.422187548361
 20
962.8172911380417
 30
0.0
 40
115.7400993629833
100
AcDbArc
 50
314.4040956418018
 51
322.267489903559
  0
ARC
  5
57BC
330
18
100
AcDbEntity
  8
0
100
AcDbCircle
 10
179.6372939776953
 20
964.6799763666534
 30
0.0
 40
118.3197630155794
100
AcDbArc
 50
306.6985162269263
 51
314.3904499612528
  0
ARC
  5
57BD
330
18
100
AcDbEntity
  8
0
100
AcDbCircle
 10
177.6267978587628
 20
967.3716562856126
 30
0.0
 40
121.6794094159358
100
AcDbArc
 50
299.2201925871972
 51
306.7001351973208
  0
ARC
  5
57BE
330
18
100
AcDbEntity
  8
0
100
AcDbCircle
 10
176.2915005459453
 20
969.7386760253039
 30
0.0
 40
124.3970749387194
100
AcDbArc
 50
291.9084954851183
 51
299.2247428645033
  0
ARC
  5
57BF
330
18
100
AcDbEntity
  8
0
100
AcDbCircle
 10
175.7403468380934
 20
971.0755586224033
 30
0.0
 40
125.8430591752209
100
AcDbArc
 50
284.6824341417292
 51
291.9141981133805
  0
ARC
  5
57C0
330
18
100
AcDbEntity
  8
0
100
AcDbCircle
 10
175.7751485081894
 20
970.8929062028694
 30
0.0
 40
125.6575509334269
100
AcDbArc
 50
277.4458971708501
 51
284.688193057167
  0
ARC
  5
57C1
330
18
100
AcDbEntity
  8
0
100
AcDbCircle
 10
175.9852308905996
 20
969.2016911536676
 30
0.0
 40
123.953372676686
100
AcDbArc
 50
270.108566538822
 51
277.4509140821003
  0
ARC
  5
57C2
330
18
100
AcDbEntity
  8
0
100
AcDbCircle
 10
176.0221471975602
 20
969.7134235409377
 30
0.0
 40
124.4650399607418
100
AcDbArc
 50
262.7783131525577
 51
270.0911262857038
  0
ARC
  5
57C3
330
18
100
AcDbEntity
  8
0
100
AcDbCircle
 10
176.2131498330442
 20
971.2614728229644
 30
0.0
 40
126.024819668897
100
AcDbArc
 50
255.5589490959498
 51
262.7806390336775
  0
ARC
  5
57C4
330
18
100
AcDbEntity
  8
0
100
AcDbCircle
 10
150.986278586665
 20
975.6157992989813
 30
0.0
 40
159.1462488578491
100
AcDbArc
 50
350.0664902359788
 51
356.1175807141622
  0
ARC
  5
57C5
330
18
100
AcDbEntity
  8
0
100
AcDbCircle
 10
156.3414064365853
 20
974.6491542057976
 30
0.0
 40
153.7046531456577
100
AcDbArc
 50
343.8116131760176
 51
350.0770641888028
  0
ARC
  5
57C6
330
18
100
AcDbEntity
  8
0
100
AcDbCircle
 10
163.9255356758591
 20
972.4336299253787
 30
0.0
 40
145.8035532819897
100
AcDbArc
 50
337.2122166701826
 51
343.8168202970171
  0
ARC
  5
57C7
330
18
100
AcDbEntity
  8
0
100
AcDbCircle
 10
171.3647176256098
 20
969.3058648910746
 30
0.0
 40
137.7335881875737
100
AcDbArc
 50
330.2211303006213
 51
337.2131705611946
  0
ARC
  5
57C8
330
18
100
AcDbEntity
  8
0
100
AcDbCircle
 10
177.3750067835573
 20
965.8754271130716
 30
0.0
 40
130.8132255915072
100
AcDbArc
 50
322.8559979974625
 51
330.2178060653118
  0
ARC
  5
57C9
330
18
100
AcDbEntity
  8
0
100
AcDbCircle
 10
181.3246253137906
 20
962.9071746407502
 30
0.0
 40
125.8726141157004
100
AcDbArc
 50
315.1964821473473
 51
322.8474380512202
  0
ARC
  5
57CA
330
18
100
AcDbEntity
  8
0
100
AcDbCircle
 10
179.8945678012544
 20
964.3862317810496
 30
0.0
 40
127.9295446989114
100
AcDbArc
 50
307.6497856263316
 51
315.1778051130185
  0
ARC
  5
57CB
330
18
100
AcDbEntity
  8
0
100
AcDbCircle
 10
177.8657435610134
 20
967.0100013358458
 30
0.0
 40
131.2462119204936
100
AcDbArc
 50
300.3136122940091
 51
307.6513808749268
  0
ARC
  5
57CC
330
18
100
AcDbEntity
  8
0
100
AcDbCircle
 10
176.4493229584902
 20
969.4176757353453
 30
0.0
 40
134.0396126843691
100
AcDbArc
 50
293.1317738925875
 51
300.3168307446463
  0
ARC
  5
57CD
330
18
100
AcDbEntity
  8
0
100
AcDbCircle
 10
175.7863908551221
 20
970.9392607724327
 30
0.0
 40
135.699299547722
100
AcDbArc
 50
286.0401138225574
 51
293.1367918472427
  0
ARC
  5
57CE
330
18
100
AcDbEntity
  8
0
100
AcDbCircle
 10
175.7398705185189
 20
971.0569214738844
 30
0.0
 40
135.8252341346444
100
AcDbArc
 50
278.955450400472
 51
286.0452595156143
  0
ARC
  5
57CF
330
18
100
AcDbEntity
  8
0
100
AcDbCircle
 10
175.9480682370149
 20
969.6653096548644
 30
0.0
 40
134.4181775620759
100
AcDbArc
 50
271.7956747437633
 51
278.9601253236147
  0
ARC
  5
57D0
330
18
100
AcDbEntity
  8
0
100
AcDbCircle
 10
176.0016974736386
 20
969.2819509877724
 30
0.0
 40
134.0333331155409
100
AcDbArc
 50
264.5923812250044
 51
271.7778959929048
  0
ARC
  5
57D1
330
18
100
AcDbEntity
  8
0
100
AcDbCircle
 10
176.1528725433699
 20
970.9144226757798
 30
0.0
 40
135.6727862783919
100
AcDbArc
 50
257.4952832751098
 51
264.5937930068531
  0
ARC
  5
57D2
330
18
100
AcDbEntity
  8
0
100
AcDbCircle
 10
150.97598824494
 20
975.6163765669898
 30
0.0
 40
169.1564993682467
100
AcDbArc
 50
350.1097954168198
 51
356.1171422077291
  0
ARC
  5
57D3
330
18
100
AcDbEntity
  8
0
100
AcDbCircle
 10
156.2577078817158
 20
974.6684557124684
 30
0.0
 40
163.7904595593286
100
AcDbArc
 50
343.9148106122808
 51
350.1191150098815
  0
ARC
  5
57D4
330
18
100
AcDbEntity
  8
0
100
AcDbCircle
 10
163.7470530789478
 20
972.4953880451677
 30
0.0
 40
155.9922329328446
100
AcDbArc
 50
337.4051872428208
 51
343.9195666718307
  0
ARC
  5
57D5
330
18
100
AcDbEntity
  8
0
100
AcDbCircle
 10
171.1161473079698
 20
969.426230181198
 30
0.0
 40
148.0095470306686
100
AcDbArc
 50
330.5401988016303
 51
337.4060745585032
  0
ARC
  5
57D6
330
18
100
AcDbEntity
  8
0
100
AcDbCircle
 10
177.0929097570318
 20
966.0585389441923
 30
0.0
 40
141.1493007276868
100
AcDbArc
 50
323.3377965087786
 51
330.5372776822592
  0
ARC
  5
57D7
330
18
100
AcDbEntity
  8
0
100
AcDbCircle
 10
181.1785060230231
 20
963.0353804224867
 30
0.0
 40
136.0668437462339
100
AcDbArc
 50
315.8632341074703
 51
323.3317297449969
  0
ARC
  5
57D8
330
18
100
AcDbEntity
  8
0
100
AcDbCircle
 10
180.1138887716543
 20
964.1415458023551
 30
0.0
 40
137.6012120553889
100
AcDbArc
 50
308.4559836611514
 51
315.8413731634981
  0
ARC
  5
57D9
330
18
100
AcDbEntity
  8
0
100
AcDbCircle
 10
178.080236253834
 20
966.6983680947019
 30
0.0
 40
140.8681796332649
100
AcDbArc
 50
301.2428268634673
 51
308.4569612574306
  0
ARC
  5
57DA
330
18
100
AcDbEntity
  8
0
100
AcDbCircle
 10
176.598686693662
 20
969.1268188875259
 30
0.0
 40
143.7128786419892
100
AcDbArc
 50
294.1739505827338
 51
301.2456715084922
  0
ARC
  5
57DB
330
18
100
AcDbEntity
  8
0
100
AcDbCircle
 10
175.8426711548231
 20
970.7870803158616
 30
0.0
 40
145.5371407246858
100
AcDbArc
 50
287.1953958019071
 51
294.1778193157425
  0
ARC
  5
57DC
330
18
100
AcDbEntity
  8
0
100
AcDbCircle
 10
175.7172562285604
 20
971.1501155947301
 30
0.0
 40
145.921026206638
100
AcDbArc
 50
280.236649964789
 51
287.2002978546128
  0
ARC
  5
57DD
330
18
100
AcDbEntity
  8
0
100
AcDbCircle
 10
175.9075776430123
 20
970.0377990384682
 30
0.0
 40
144.7925929017949
100
AcDbArc
 50
273.2223867564084
 51
280.240758459285
  0
ARC
  5
57DE
330
18
100
AcDbEntity
  8
0
100
AcDbCircle
 10
175.9961680343742
 20
968.9472259930314
 30
0.0
 40
143.6987669416593
100
AcDbArc
 50
266.1393836310899
 51
273.2115624867818
  0
ARC
  5
57DF
330
18
100
AcDbEntity
  8
0
100
AcDbCircle
 10
176.1053421352642
 20
970.5832793079359
 30
0.0
 40
145.3384583583205
100
AcDbArc
 50
259.1473696458832
 51
266.1398678461633
  0
ARC
  5
57E0
330
18
100
AcDbEntity
  8
0
100
AcDbCircle
 10
150.9615400867711
 20
975.6183422679582
 30
0.0
 40
179.1710919614685
100
AcDbArc
 50
350.1470735731031
 51
356.1164019345433
  0
ARC
  5
57E1
330
18
100
AcDbEntity
  8
0
100
AcDbCircle
 10
156.190156301938
 20
974.6826609964239
 30
0.0
 40
173.8594851699726
100
AcDbArc
 50
344.0041649590053
 51
350.1560245517645
  0
ARC
  5
57E2
330
18
100
AcDbEntity
  8
0
100
AcDbCircle
 10
163.5971233282978
 20
972.5474800560201
 30
0.0
 40
166.150917054023
100
AcDbArc
 50
337.5708867538111
 51
344.0080931205701
  0
ARC
  5
57E3
330
18
100
AcDbEntity
  8
0
100
AcDbCircle
 10
170.8932312963177
 20
969.5332141323913
 30
0.0
 40
158.2566796588005
100
AcDbArc
 50
330.8133028932459
 51
337.571786706507
  0
ARC
  5
57E4
330
18
100
AcDbEntity
  8
0
100
AcDbCircle
 10
176.8529090885393
 20
966.2127963423101
 30
0.0
 40
151.4344457214138
100
AcDbArc
 50
323.7476980230586
 51
330.8104893038298
  0
ARC
  5
57E5
330
18
100
AcDbEntity
  8
0
100
AcDbCircle
 10
181.0116765406968
 20
963.177744411703
 30
0.0
 40
146.2859755961632
100
AcDbArc
 50
316.4316662949098
 51
323.7431057286406
  0
ARC
  5
57E6
330
18
100
AcDbEntity
  8
0
100
AcDbCircle
 10
180.300031025605
 20
963.9382942633728
 30
0.0
 40
147.3257984279333
100
AcDbArc
 50
309.1479525840473
 51
316.4081068644081
  0
ARC
  5
57E7
330
18
100
AcDbEntity
  8
0
100
AcDbCircle
 10
178.2709481281743
 20
966.4295044364203
 30
0.0
 40
150.5387884467276
100
AcDbArc
 50
302.0431178555792
 51
309.1482675178015
  0
ARC
  5
57E8
330
18
100
AcDbEntity
  8
0
100
AcDbCircle
 10
176.7392024541794
 20
968.8644838996673
 30
0.0
 40
153.4154755184833
100
AcDbArc
 50
295.0734205762953
 51
302.0455404056185
  0
ARC
  5
57E9
330
18
100
AcDbEntity
  8
0
100
AcDbCircle
 10
175.9018762089025
 20
970.6328215723566
 30
0.0
 40
155.3720165322383
100
AcDbArc
 50
288.1927879272036
 51
295.0767528630766
  0
ARC
  5
57EA
330
18
100
AcDbEntity
  8
0
100
AcDbCircle
 10
175.706569577192
 20
971.189873797944
 30
0.0
 40
155.9622006334085
100
AcDbArc
 50
281.3396543832829
 51
288.1970579635913
  0
ARC
  5
57EB
330
18
100
AcDbEntity
  8
0
100
AcDbCircle
 10
175.8712361830346
 20
970.3175233482479
 30
0.0
 40
155.074502295063
100
AcDbArc
 50
274.446359732936
 51
281.3433763016517
  0
ARC
  5
57EC
330
18
100
AcDbEntity
  8
0
100
AcDbCircle
 10
175.9994842702365
 20
968.7860266320237
 30
0.0
 40
153.5376725902828
100
AcDbArc
 50
267.4765565097118
 51
274.4429520576765
  0
ARC
  5
57ED
330
18
100
AcDbEntity
  8
0
100
AcDbCircle
 10
176.0697250831342
 20
970.2772790986022
 30
0.0
 40
155.0305716145349
100
AcDbArc
 50
260.5751233723984
 51
267.4748876475924
  0
ARC
  5
57EE
330
18
100
AcDbEntity
  8
0
100
AcDbCircle
 10
176.0994728341833
 20
971.4612259006788
 30
0.0
 40
106.1767258243077
100
AcDbArc
 50
230.2989518728233
 51
248.6299339566774
  0
ARC
  5
57EF
330
18
100
AcDbEntity
  8
0
100
AcDbCircle
 10
175.6165332866841
 20
970.5549627445023
 30
0.0
 40
105.1711692812769
100
AcDbArc
 50
211.6792265650958
 51
230.1859976899689
  0
ARC
  5
57F0
330
18
100
AcDbEntity
  8
0
100
AcDbCircle
 10
178.4831946141788
 20
972.4685937760796
 30
0.0
 40
108.6157407482897
100
AcDbArc
 50
193.8246971502186
 51
211.7441303055545
  0
ARC
  5
57F1
330
18
100
AcDbEntity
  8
0
100
AcDbCircle
 10
175.5204820585563
 20
971.8405232703036
 30
0.0
 40
105.5888207295514
100
AcDbArc
 50
175.4446882885853
 51
193.877913014961
  0
ARC
  5
57F2
330
18
100
AcDbEntity
  8
0
100
AcDbCircle
 10
178.6126459001901
 20
971.4670524168436
 30
0.0
 40
108.7009522646808
100
AcDbArc
 50
157.4721356121286
 51
175.3779016107492
  0
ARC
  5
57F3
330
18
100
AcDbEntity
  8
0
100
AcDbCircle
 10
178.7403225665169
 20
971.5657757673913
 30
0.0
 40
108.7811524318295
100
AcDbArc
 50
139.6538323440499
 51
157.5459310583398
  0
ARC
  5
57F4
330
18
100
AcDbEntity
  8
0
100
AcDbCircle
 10
177.7175481176546
 20
972.1339988353372
 30
0.0
 40
107.6340218687388
100
AcDbArc
 50
121.4484598327302
 51
139.5318888799242
  0
ARC
  5
57F5
330
18
100
AcDbEntity
  8
0
100
AcDbCircle
 10
179.6708817546194
 20
969.1671772303919
 30
0.0
 40
111.1842251441504
100
AcDbArc
 50
104.0045038933354
 51
121.5095381034462
  0
ARC
  5
57F6
330
18
100
AcDbEntity
  8
0
100
AcDbCircle
 10
179.0409955588327
 20
972.1304365974464
 30
0.0
 40
108.1566641841028
100
AcDbArc
 50
86.06511378411388
 51
104.0606251083119
  0
ARC
  5
57F7
330
18
100
AcDbEntity
  8
0
100
AcDbCircle
 10
178.7013850541234
 20
969.4307932921496
 30
0.0
 40
110.8733549051823
100
AcDbArc
 50
68.43105811856201
 51
85.98576251617892
  0
ARC
  5
57F8
330
18
100
AcDbEntity
  8
0
100
AcDbCircle
 10
178.4488799702341
 20
968.4744278905387
 30
0.0
 40
111.8556386577393
100
AcDbArc
 50
51.09064380318578
 51
68.4908639597308
  0
ARC
  5
57F9
330
18
100
AcDbEntity
  8
0
100
AcDbCircle
 10
179.0085868157361
 20
969.4047966312846
 30
0.0
 40
110.7802345932289
100
AcDbArc
 50
33.44415726688982
 51
51.01367126323365
  0
ARC
  5
57FA
330
18
100
AcDbEntity
  8
0
100
AcDbCircle
 10
177.6525136610786
 20
968.3166722558214
 30
0.0
 40
112.511579770533
100
AcDbArc
 50
16.22712068002031
 51
33.52593769168306
  0
ARC
  5
57FB
330
18
100
AcDbEntity
  8
0
100
AcDbCircle
 10
183.7533447241061
 20
969.9637391248053
 30
0.0
 40
106.1936026165369
100
AcDbArc
 50
357.9654507615765
 51
16.29370020213799
  0
ARC
  5
57FC
330
18
100
AcDbEntity
  8
0
100
AcDbCircle
 10
176.2887303724798
 20
971.811548612534
 30
0.0
 40
116.573153811213
100
AcDbArc
 50
233.1553274798101
 51
251.6131439957877
  0
ARC
  5
57FD
330
18
100
AcDbEntity
  8
0
100
AcDbCircle
 10
175.1373327818066
 20
970.1066569916417
 30
0.0
 40
114.5184017945273
100
AcDbArc
 50
214.3148477041143
 51
233.1048391096158
  0
ARC
  5
57FE
330
18
100
AcDbEntity
  8
0
100
AcDbCircle
 10
178.3989012164664
 20
972.4384501523273
 30
0.0
 40
118.5268589832036
100
AcDbArc
 50
196.2034581308263
 51
214.3570353193164
  0
ARC
  5
57FF
330
18
100
AcDbEntity
  8
0
100
AcDbCircle
 10
176.002362888207
 20
971.8797239995662
 30
0.0
 40
116.0696820163037
100
AcDbArc
 50
177.7307616695014
 51
196.2687262440162
  0
ARC
  5
5800
330
18
100
AcDbEntity
  8
0
100
AcDbCircle
 10
178.1645157390943
 20
971.572430244009
 30
0.0
 40
118.2425140536992
100
AcDbArc
 50
159.4261553262156
 51
177.6234595023853
  0
ARC
  5
5801
330
18
100
AcDbEntity
  8
0
100
AcDbCircle
 10
179.0177924764564
 20
971.4060599691761
 30
0.0
 40
119.0999209072628
100
AcDbArc
 50
141.4291283222276
 51
159.4954753269368
  0
ARC
  5
5802
330
18
100
AcDbEntity
  8
0
100
AcDbCircle
 10
177.4149362586399
 20
972.4739961969971
 30
0.0
 40
117.1810238319578
100
AcDbArc
 50
122.9861100811708
 51
141.3487449023044
  0
ARC
  5
5803
330
18
100
AcDbEntity
  8
0
100
AcDbCircle
 10
179.6550669280817
 20
969.2136388282497
 30
0.0
 40
121.1354717354907
100
AcDbArc
 50
105.2725791413924
 51
123.0352879264082
  0
ARC
  5
5804
330
18
100
AcDbEntity
  8
0
100
AcDbCircle
 10
179.0616845220674
 20
971.8652678558353
 30
0.0
 40
118.421252105313
100
AcDbArc
 50
87.16358761785086
 51
105.3335625821022
  0
ARC
  5
5805
330
18
100
AcDbEntity
  8
0
100
AcDbCircle
 10
178.7509244338325
 20
969.6424799019162
 30
0.0
 40
120.6568611137807
100
AcDbArc
 50
69.23510334046174
 51
87.06843128023628
  0
ARC
  5
5806
330
18
100
AcDbEntity
  8
0
100
AcDbCircle
 10
178.4132404923391
 20
968.4115007891646
 30
0.0
 40
121.927659804315
100
AcDbArc
 50
51.64437769307367
 51
69.29181053816463
  0
ARC
  5
5807
330
18
100
AcDbEntity
  8
0
100
AcDbCircle
 10
179.0836209612943
 20
969.472702077115
 30
0.0
 40
120.6795678014324
100
AcDbArc
 50
33.75094977424771
 51
51.58131633366754
  0
ARC
  5
5808
330
18
100
AcDbEntity
  8
0
100
AcDbCircle
 10
177.6320622270702
 20
968.307735775074
 30
0.0
 40
122.5338253688061
100
AcDbArc
 50
16.26660210844294
 51
33.82677468270181
  0
ARC
  5
5809
330
18
100
AcDbEntity
  8
0
100
AcDbCircle
 10
183.7772090992791
 20
969.9690013300017
 30
0.0
 40
116.1694130197405
100
AcDbArc
 50
357.80652941794
 51
16.32901119830597
  0
ARC
  5
580A
330
18
100
AcDbEntity
  8
0
100
AcDbCircle
 10
176.3809589923511
 20
972.00764213064
 30
0.0
 40
126.7888877066932
100
AcDbArc
 50
235.4785905916768
 51
254.0650516438376
  0
ARC
  5
580B
330
18
100
AcDbEntity
  8
0
100
AcDbCircle
 10
174.9364122673431
 20
969.8849092183023
 30
0.0
 40
124.2212929106395
100
AcDbArc
 50
216.5017285960352
 51
235.4726868194837
  0
ARC
  5
580C
330
18
100
AcDbEntity
  8
0
100
AcDbCircle
 10
178.2292035901936
 20
972.3616056020276
 30
0.0
 40
128.3414262518554
100
AcDbArc
 50
198.1545886212965
 51
216.5160848669229
  0
ARC
  5
580D
330
18
100
AcDbEntity
  8
0
100
AcDbCircle
 10
176.4778774621985
 20
971.9440316532097
 30
0.0
 40
126.5472614719604
100
AcDbArc
 50
179.5997962637374
 51
198.2220024782336
  0
ARC
  5
580E
330
18
100
AcDbEntity
  8
0
100
AcDbCircle
 10
177.7419836873189
 20
971.6560661898148
 30
0.0
 40
127.8136530376127
100
AcDbArc
 50
161.0373460245258
 51
179.4746694120579
  0
ARC
  5
580F
330
18
100
AcDbEntity
  8
0
100
AcDbCircle
 10
179.2022642266085
 20
971.3084295954514
 30
0.0
 40
129.3077322782742
100
AcDbArc
 50
142.8775222863657
 51
161.1019274188881
  0
ARC
  5
5810
330
18
100
AcDbEntity
  8
0
100
AcDbCircle
 10
177.2068138155244
 20
972.6887932545288
 30
0.0
 40
126.8836295465098
100
AcDbArc
 50
124.2579100985423
 51
142.8307103396621
  0
ARC
  5
5811
330
18
100
AcDbEntity
  8
0
100
AcDbCircle
 10
179.6267600149651
 20
969.2843029653706
 30
0.0
 40
131.059742259315
100
AcDbArc
 50
106.3140067588812
 51
124.2944849869925
  0
ARC
  5
5812
330
18
100
AcDbEntity
  8
0
100
AcDbCircle
 10
179.0870295410764
 20
971.6230564039113
 30
0.0
 40
128.6636188956979
100
AcDbArc
 50
88.0601628549182
 51
106.3758876135771
  0
ARC
  5
5813
330
18
100
AcDbEntity
  8
0
100
AcDbCircle
 10
178.7905863905094
 20
969.8265036603062
 30
0.0
 40
130.4693891667807
100
AcDbArc
 50
69.89474083279656
 51
87.95676035480184
  0
ARC
  5
5814
330
18
100
AcDbEntity
  8
0
100
AcDbCircle
 10
178.3887671547065
 20
968.3657953547028
 30
0.0
 40
131.9792685551443
100
AcDbArc
 50
52.093714388219
 51
69.94891079812416
  0
ARC
  5
5815
330
18
100
AcDbEntity
  8
0
100
AcDbCircle
 10
179.1380559175663
 20
969.5240383012871
 30
0.0
 40
130.6051091684396
100
AcDbArc
 50
33.99732909643042
 51
52.04089973162503
  0
ARC
  5
5816
330
18
100
AcDbEntity
  8
0
100
AcDbCircle
 10
177.6192113619863
 20
968.3017869389439
 30
0.0
 40
132.5478565411849
100
AcDbArc
 50
16.28958931340007
 51
34.06824465507634
  0
ARC
  5
5817
330
18
100
AcDbEntity
  8
0
100
AcDbCircle
 10
183.7998133400896
 20
969.9734398558875
 30
0.0
 40
126.1465472007811
100
AcDbArc
 50
357.667038196017
 51
16.34821055929918
  0
ARC
  5
5818
330
18
100
AcDbEntity
  8
0
100
AcDbCircle
 10
176.4193031616444
 20
972.1029446177061
 30
0.0
 40
136.8910554297348
100
AcDbArc
 50
237.4144570119752
 51
256.1224934401479
  0
ARC
  5
5819
330
18
100
AcDbEntity
  8
0
100
AcDbCircle
 10
174.9290735415058
 20
969.8556327792971
 30
0.0
 40
134.1949290173655
100
AcDbArc
 50
218.3497372292495
 51
237.4338161386076
  0
ARC
  5
581A
330
18
100
AcDbEntity
  8
0
100
AcDbCircle
 10
178.0222757096574
 20
972.2564307662647
 30
0.0
 40
138.1103399072777
100
AcDbArc
 50
199.7916581764375
 51
218.3346318539359
  0
ARC
  5
581B
330
18
100
AcDbEntity
  8
0
100
AcDbCircle
 10
176.8843787837941
 20
972.0149644112147
 30
0.0
 40
136.9579889741902
100
AcDbArc
 50
181.1588644338074
 51
199.8577944569929
  0
ARC
  5
581C
330
18
100
AcDbEntity
  8
0
100
AcDbCircle
 10
177.3516167561784
 20
971.7216259757186
 30
0.0
 40
137.4195321673849
100
AcDbArc
 50
162.396550464777
 51
181.0326446822281
  0
ARC
  5
581D
330
18
100
AcDbEntity
  8
0
100
AcDbCircle
 10
179.3232550526249
 20
971.2493740218203
 30
0.0
 40
139.4417419484041
100
AcDbArc
 50
144.090775556072
 51
162.4565983837929
  0
ARC
  5
581E
330
18
100
AcDbEntity
  8
0
100
AcDbCircle
 10
177.0747618935016
 20
972.8137685213098
 30
0.0
 40
136.7030692201149
100
AcDbArc
 50
125.3349021188336
 51
144.0691191314622
  0
ARC
  5
581F
330
18
100
AcDbEntity
  8
0
100
AcDbCircle
 10
179.5910669108953
 20
969.3652238860604
 30
0.0
 40
140.9716705113216
100
AcDbArc
 50
107.1922593528717
 51
125.3585903830586
  0
ARC
  5
5820
330
18
100
AcDbEntity
  8
0
100
AcDbCircle
 10
179.1142739236443
 20
971.4087702777556
 30
0.0
 40
138.8785826870645
100
AcDbArc
 50
88.81280225886575
 51
107.2535411883334
  0
ARC
  5
5821
330
18
100
AcDbEntity
  8
0
100
AcDbCircle
 10
178.8235502571265
 20
969.9879508898357
 30
0.0
 40
140.3053637658793
100
AcDbArc
 50
70.45348355572696
 51
88.70612779686105
  0
ARC
  5
5822
330
18
100
AcDbEntity
  8
0
100
AcDbCircle
 10
178.3693198949904
 20
968.3293884336414
 30
0.0
 40
142.0203729938228
100
AcDbArc
 50
52.47225123625689
 51
70.50466131998105
  0
ARC
  5
5823
330
18
100
AcDbEntity
  8
0
100
AcDbCircle
 10
179.1811851403458
 20
969.5644788408552
 30
0.0
 40
140.5463718931354
100
AcDbArc
 50
34.20635006897589
 51
52.4280223550924
  0
ARC
  5
5824
330
18
100
AcDbEntity
  8
0
100
AcDbCircle
 10
177.6070885158648
 20
968.2969055759654
 30
0.0
 40
142.5608702457521
100
AcDbArc
 50
16.30839378414524
 51
34.27201653833607
  0
ARC
  5
5825
330
18
100
AcDbEntity
  8
0
100
AcDbCircle
 10
183.8180857388296
 20
969.9766546981406
 30
0.0
 40
136.1281557745545
100
AcDbArc
 50
357.5509393103208
 51
16.36392277577773
  0
ARC
  5
5826
330
18
100
AcDbEntity
  8
0
100
AcDbCircle
 10
176.426559038314
 20
972.1313780900642
 30
0.0
 40
146.9199732490259
100
AcDbArc
 50
239.0543635919767
 51
257.8746315913375
  0
ARC
  5
5827
330
18
100
AcDbEntity
  8
0
100
AcDbCircle
 10
175.0213477779626
 20
969.9436765902625
 30
0.0
 40
144.3211069932353
100
AcDbArc
 50
219.927026027633
 51
239.0862101065883
  0
ARC
  5
5828
330
18
100
AcDbEntity
  8
0
100
AcDbCircle
 10
177.8057161090949
 20
972.1375885528392
 30
0.0
 40
147.8644494216351
100
AcDbArc
 50
201.1864222882941
 51
219.8864906153397
  0
ARC
  5
5829
330
18
100
AcDbEntity
  8
0
100
AcDbCircle
 10
177.2065215579397
 20
972.0806536849819
 30
0.0
 40
147.285268990041
100
AcDbArc
 50
182.4764111945551
 51
201.2500119892179
  0
ARC
  5
582A
330
18
100
AcDbEntity
  8
0
100
AcDbCircle
 10
176.9997883896305
 20
971.7721139587483
 30
0.0
 40
147.0657020822502
100
AcDbArc
 50
163.5579695398543
 51
182.3597984889419
  0
ARC
  5
582B
330
18
100
AcDbEntity
  8
0
100
AcDbCircle
 10
179.4021586977921
 20
971.2136400255943
 30
0.0
 40
149.5279742805514
100
AcDbArc
 50
145.1213075352718
 51
163.6132786078368
  0
ARC
  5
582C
330
18
100
AcDbEntity
  8
0
100
AcDbCircle
 10
177.0005877274007
 20
972.8761354609792
 30
0.0
 40
146.6071280251354
100
AcDbArc
 50
126.2568213908269
 51
145.117608913996
  0
ARC
  5
582D
330
18
100
AcDbEntity
  8
0
100
AcDbCircle
 10
179.5508938536294
 20
969.4519572863775
 30
0.0
 40
150.8765657002961
100
AcDbArc
 50
107.942098857426
 51
126.268754253655
  0
ARC
  5
582E
330
18
100
AcDbEntity
  8
0
100
AcDbCircle
 10
179.1405676379987
 20
971.2235966166034
 30
0.0
 40
149.0647618318599
100
AcDbArc
 50
89.45202250594517
 51
108.0018267498072
  0
ARC
  5
582F
330
18
100
AcDbEntity
  8
0
100
AcDbCircle
 10
178.8505627137913
 20
970.1291637589122
 30
0.0
 40
150.1621783697266
100
AcDbArc
 50
70.93149742865429
 51
89.34536720662745
  0
ARC
  5
5830
330
18
100
AcDbEntity
  8
0
100
AcDbCircle
 10
178.356624787339
 20
968.3038207850888
 30
0.0
 40
152.0487861832626
100
AcDbArc
 50
52.79483532928988
 51
70.98029691058926
  0
ARC
  5
5831
330
18
100
AcDbEntity
  8
0
100
AcDbCircle
 10
179.2163254767535
 20
969.5990779529111
 30
0.0
 40
150.4973419087327
100
AcDbArc
 50
34.38423570841782
 51
52.75734538158978
  0
ARC
  5
5832
330
18
100
AcDbEntity
  8
0
100
AcDbCircle
 10
177.5982591010841
 20
968.2926175381153
 30
0.0
 40
152.5705807565529
100
AcDbArc
 50
16.32314092345994
 51
34.44597178050764
  0
ARC
  5
5833
330
18
100
AcDbEntity
  8
0
100
AcDbCircle
 10
183.8330709792271
 20
969.9796658102886
 30
0.0
 40
146.1129911179808
100
AcDbArc
 50
357.451106199352
 51
16.37540228279342
  0
ARC
  5
5834
330
18
100
AcDbEntity
  8
0
100
AcDbCircle
 10
176.416598419855
 20
972.1151741381806
 30
0.0
 40
156.9013569813409
100
AcDbArc
 50
240.6605366917376
 51
259.3883793462993
  0
ARC
  5
5835
330
18
100
AcDbEntity
  8
0
100
AcDbCircle
 10
175.1780526478546
 20
970.1208166366464
 30
0.0
 40
154.5559793538465
100
AcDbArc
 50
221.6863706379816
 51
240.6985268065175
  0
ARC
  5
5836
330
18
100
AcDbEntity
  8
0
100
AcDbCircle
 10
177.5051827539161
 20
971.9588315205417
 30
0.0
 40
157.5163458194243
100
AcDbArc
 50
202.9679371046888
 51
221.6227002247183
  0
ARC
  5
5837
330
18
100
AcDbEntity
  8
0
100
AcDbCircle
 10
177.5973414242208
 20
972.1743723584026
 30
0.0
 40
157.6853896554205
100
AcDbArc
 50
184.3924787733169
 51
203.0269792924761
  0
ARC
  5
5838
330
18
100
AcDbEntity
  8
0
100
AcDbCircle
 10
176.4409957628116
 20
971.8315840984017
 30
0.0
 40
156.5063917266275
100
AcDbArc
 50
165.5245828591459
 51
184.2997771938674
  0
ARC
  5
5839
330
18
100
AcDbEntity
  8
0
100
AcDbCircle
 10
179.4884963147556
 20
971.1800352672844
 30
0.0
 40
159.6200671195355
100
AcDbArc
 50
147.1627099906081
 51
165.5715702096314
  0
ARC
  5
583A
330
18
100
AcDbEntity
  8
0
100
AcDbCircle
 10
176.9766409891191
 20
972.8745628732035
 30
0.0
 40
156.5907172610826
100
AcDbArc
 50
128.4201076108654
 51
147.1852853778545
  0
ARC
  5
583B
330
18
100
AcDbEntity
  8
0
100
AcDbCircle
 10
179.4096606250825
 20
969.7273351709339
 30
0.0
 40
160.5684342674291
100
AcDbArc
 50
110.1019601223914
 51
128.4024273931596
  0
ARC
  5
583C
330
18
100
AcDbEntity
  8
0
100
AcDbCircle
 10
179.2460932552391
 20
970.6394368891203
 30
0.0
 40
159.655758794142
100
AcDbArc
 50
91.7545744237058
 51
110.1593358995664
  0
ARC
  5
583D
330
18
100
AcDbEntity
  8
0
100
AcDbCircle
 10
178.9477392345117
 20
970.7447280036799
 30
0.0
 40
159.541654664812
100
AcDbArc
 50
73.23043906274503
 51
91.64863526380257
  0
ARC
  5
583E
330
18
100
AcDbEntity
  8
0
100
AcDbCircle
 10
178.303268109902
 20
968.1875149495427
 30
0.0
 40
162.1761067046151
100
AcDbArc
 50
55.15436852532684
 51
73.27309982209951
  0
ARC
  5
583F
330
18
100
AcDbEntity
  8
0
100
AcDbCircle
 10
179.4651351446103
 20
969.8663657918961
 30
0.0
 40
160.1344303784664
100
AcDbArc
 50
36.8024453549792
 51
55.15232807856095
  0
ARC
  5
5840
330
18
100
AcDbEntity
  8
0
100
AcDbCircle
 10
177.3740349655258
 20
968.170526553369
 30
0.0
 40
162.8247260768745
100
AcDbArc
 50
18.79338017226167
 51
36.83945622559379
  0
ARC
  5
5841
330
18
100
AcDbEntity
  8
0
100
AcDbCircle
 10
182.6844063901168
 20
969.813175804189
 30
0.0
 40
157.2683564377331
100
AcDbArc
 50
0.1659710834930777
 51
18.85010307237632
  0
ARC
  5
5842
330
18
100
AcDbEntity
  8
0
100
AcDbCircle
 10
175.7365640985891
 20
970.88014803724
 30
0.0
 40
95.49446278745058
100
AcDbArc
 50
226.6792161797911
 51
244.8992943031059
  0
ARC
  5
5843
330
18
100
AcDbEntity
  8
0
100
AcDbCircle
 10
176.4114764887692
 20
971.1990041306217
 30
0.0
 40
96.18986896456801
100
AcDbArc
 50
208.4279244094525
 51
226.5170474260757
  0
ARC
  5
5844
330
18
100
AcDbEntity
  8
0
100
AcDbCircle
 10
178.3943021777638
 20
972.4262365348407
 30
0.0
 40
98.5179193541451
100
AcDbArc
 50
190.8455203507056
 51
208.5066227482957
  0
ARC
  5
5845
330
18
100
AcDbEntity
  8
0
100
AcDbCircle
 10
175.2443079359226
 20
971.8454401209607
 30
0.0
 40
95.31490907516388
100
AcDbArc
 50
172.6035398328785
 51
190.8589168615138
  0
ARC
  5
5846
330
18
100
AcDbEntity
  8
0
100
AcDbCircle
 10
179.0529701627761
 20
971.3431693039115
 30
0.0
 40
99.15653967430252
100
AcDbArc
 50
155.0516274274716
 51
172.5990408917486
  0
ARC
  5
5847
330
18
100
AcDbEntity
  8
0
100
AcDbCircle
 10
178.3257866269438
 20
971.8265026736414
 30
0.0
 40
98.2934281796853
100
AcDbArc
 50
137.4268559496628
 51
155.128282793201
  0
ARC
  5
5848
330
18
100
AcDbEntity
  8
0
100
AcDbCircle
 10
178.1228037742931
 20
971.6375601075458
 30
0.0
 40
98.27216306997136
100
AcDbArc
 50
119.5596851729615
 51
137.2656683820629
  0
ARC
  5
5849
330
18
100
AcDbEntity
  8
0
100
AcDbCircle
 10
179.6630191933789
 20
969.1748556300652
 30
0.0
 40
101.1742388921166
100
AcDbArc
 50
102.4334196734453
 51
119.6303709636024
  0
ARC
  5
584A
330
18
100
AcDbEntity
  8
0
100
AcDbCircle
 10
179.0306137499219
 20
972.3929698055654
 30
0.0
 40
97.89546852525909
100
AcDbArc
 50
84.70339310659019
 51
102.4774923068149
  0
ARC
  5
584B
330
18
100
AcDbEntity
  8
0
100
AcDbCircle
 10
178.6399390777648
 20
969.1893374168486
 30
0.0
 40
101.1215287672662
100
AcDbArc
 50
67.443792969049
 51
84.65054371915364
  0
ARC
  5
584C
330
18
100
AcDbEntity
  8
0
100
AcDbCircle
 10
178.4998919818562
 20
968.5615887387287
 30
0.0
 40
101.7550386344542
100
AcDbArc
 50
50.40737440830215
 51
67.50655554954882
  0
ARC
  5
584D
330
18
100
AcDbEntity
  8
0
100
AcDbCircle
 10
178.909723114843
 20
969.3168830738493
 30
0.0
 40
100.9119526381802
100
AcDbArc
 50
33.07061866928279
 51
50.31337619572664
  0
ARC
  5
584E
330
18
100
AcDbEntity
  8
0
100
AcDbCircle
 10
177.6759067625009
 20
968.3268373551243
 30
0.0
 40
102.4862489381715
100
AcDbArc
 50
16.18035358825596
 51
33.15805404374937
  0
ARC
  5
584F
330
18
100
AcDbEntity
  8
0
100
AcDbCircle
 10
183.723418023516
 20
969.9575480399303
 30
0.0
 40
96.22394077703717
100
AcDbArc
 50
358.1685210253743
 51
16.25126679473336
  0
ARC
  5
585B
330
18
100
AcDbEntity
  8
0
100
AcDbCircle
 10
183.9025294781143
 20
699.644636944112
 30
0.0
 40
39.786273419863
100
AcDbArc
 50
275.1495943505604
 51
290.3975274694717
  0
ARC
  5
585C
330
18
100
AcDbEntity
  8
0
100
AcDbCircle
 10
187.7658513266586
 20
690.6556822644063
 30
0.0
 40
30.0184323993251
100
AcDbArc
 50
289.4657699279088
 51
309.6753039162446
  0
ARC
  5
585D
330
18
100
AcDbEntity
  8
0
100
AcDbCircle
 10
194.9696567860172
 20
682.1306827721977
 30
0.0
 40
18.85806080521527
100
AcDbArc
 50
309.3656426107821
 51
341.5441069553948
  0
ARC
  5
585E
330
18
100
AcDbEntity
  8
0
100
AcDbCircle
 10
184.0041115458923
 20
685.2450859289172
 30
0.0
 40
30.24998446388996
100
AcDbArc
 50
342.5237525957963
 51
2.577049517122401
  0
ARC
  5
585F
330
18
100
AcDbEntity
  8
0
100
AcDbCircle
 10
164.5142580391078
 20
685.0798488544073
 30
0.0
 40
49.73264284408364
100
AcDbArc
 50
1.757608619002409
 51
13.95672167891963
  0
ARC
  5
5860
330
18
100
AcDbEntity
  8
0
100
AcDbCircle
 10
151.4259873606922
 20
681.7566534745577
 30
0.0
 40
63.23607883393798
100
AcDbArc
 50
14.01864449426692
 51
23.61282931746516
  0
ARC
  5
5861
330
18
100
AcDbEntity
  8
0
100
AcDbCircle
 10
124.6307749979068
 20
670.050681671934
 30
0.0
 40
92.47668668065726
100
AcDbArc
 50
23.60844991802789
 51
30.16862868639775
  0
ARC
  5
5862
330
18
100
AcDbEntity
  8
0
100
AcDbCircle
 10
86.13835053775209
 20
648.1100503387693
 30
0.0
 40
136.7820219522331
100
AcDbArc
 50
30.01135259353077
 51
34.44663805574712
  0
ARC
  5
5863
330
18
100
AcDbEntity
  8
0
100
AcDbCircle
 10
56.02159117480628
 20
627.4391079498433
 30
0.0
 40
173.3101885554364
100
AcDbArc
 50
34.45032911144508
 51
37.95082900452347
  0
ARC
  5
5864
330
18
100
AcDbEntity
  8
0
100
AcDbCircle
 10
4.110432728574862
 20
586.9538274419132
 30
0.0
 40
239.1419917278978
100
AcDbArc
 50
37.95074097377868
 51
40.48746530872818
  0
ARC
  5
5865
330
18
100
AcDbEntity
  8
0
100
AcDbCircle
 10
-87.19054348650471
 20
509.2448753015816
 30
0.0
 40
359.0358124191652
100
AcDbArc
 50
40.45895421713349
 51
42.14869072831567
  0
ARC
  5
5866
330
18
100
AcDbEntity
  8
0
100
AcDbCircle
 10
183.9015034613708
 20
699.6502748686558
 30
0.0
 40
39.29197584061805
100
AcDbArc
 50
275.1525114581494
 51
290.4358105854228
  0
ARC
  5
5867
330
18
100
AcDbEntity
  8
0
100
AcDbCircle
 10
187.8007890270946
 20
690.5887948404681
 30
0.0
 40
29.44340117206255
100
AcDbArc
 50
289.4822570751716
 51
309.877568116687
  0
ARC
  5
5868
330
18
100
AcDbEntity
  8
0
100
AcDbCircle
 10
194.9947764584228
 20
682.1207046398972
 30
0.0
 40
18.33266005164112
100
AcDbArc
 50
309.5916822055671
 51
342.3577336293858
  0
ARC
  5
5869
330
18
100
AcDbEntity
  8
0
100
AcDbCircle
 10
183.4039375448984
 20
685.3211200526184
 30
0.0
 40
30.3518418084106
100
AcDbArc
 50
343.2317413281896
 51
3.013682688285878
  0
ARC
  5
586A
330
18
100
AcDbEntity
  8
0
100
AcDbCircle
 10
164.2229530663606
 20
685.0375863678705
 30
0.0
 40
49.5265167633619
100
AcDbArc
 50
2.174588358855034
 51
14.30011208929458
  0
ARC
  5
586B
330
18
100
AcDbEntity
  8
0
100
AcDbCircle
 10
150.8595627744813
 20
681.5614961188648
 30
0.0
 40
63.33447926539566
100
AcDbArc
 50
14.36128019169788
 51
23.84290210410399
  0
ARC
  5
586C
330
18
100
AcDbEntity
  8
0
100
AcDbCircle
 10
123.6408764946852
 20
669.54409998969
 30
0.0
 40
93.08804397427095
100
AcDbArc
 50
23.83624299103505
 51
30.28764747937414
  0
ARC
  5
586D
330
18
100
AcDbEntity
  8
0
100
AcDbCircle
 10
85.62832433119865
 20
647.7865356972272
 30
0.0
 40
136.8858256673689
100
AcDbArc
 50
30.12710365831053
 51
34.51404939475603
  0
ARC
  5
586E
330
18
100
AcDbEntity
  8
0
100
AcDbCircle
 10
55.49918682837191
 20
627.054295245492
 30
0.0
 40
173.4589115790226
100
AcDbArc
 50
34.51790840844432
 51
37.97991442087772
  0
ARC
  5
586F
330
18
100
AcDbEntity
  8
0
100
AcDbCircle
 10
3.687803789862158
 20
586.6040862695141
 30
0.0
 40
239.1904779574591
100
AcDbArc
 50
37.97990722564257
 51
40.49050785303143
  0
ARC
  5
5870
330
18
100
AcDbEntity
  8
0
100
AcDbCircle
 10
-87.20778311430917
 20
509.2308187812101
 30
0.0
 40
358.5580167589098
100
AcDbArc
 50
40.4622094633136
 51
42.1370498744733
  0
ARC
  5
5871
330
18
100
AcDbEntity
  8
0
100
AcDbCircle
 10
-78.15504671941403
 20
517.4767698440415
 30
0.0
 40
348.5626809786447
100
AcDbArc
 50
42.18210524310817
 51
42.78187609383896
  0
ARC
  5
5872
330
18
100
AcDbEntity
  8
0
100
AcDbCircle
 10
-68.12244055717517
 20
526.7581792616348
 30
0.0
 40
334.8952839271824
100
AcDbArc
 50
42.78225187419364
 51
43.40654514364925
  0
ARC
  5
5873
330
18
100
AcDbEntity
  8
0
100
AcDbCircle
 10
-58.85886934034402
 20
535.5302577209597
 30
0.0
 40
322.1374213372106
100
AcDbArc
 50
43.40525946504136
 51
44.05430432020756
  0
ARC
  5
5874
330
18
100
AcDbEntity
  8
0
100
AcDbCircle
 10
-50.27862932006783
 20
543.8213974484913
 30
0.0
 40
310.2058054192504
100
AcDbArc
 50
44.05568911088547
 51
44.72971471775797
  0
ARC
  5
5875
330
18
100
AcDbEntity
  8
0
100
AcDbCircle
 10
-42.39255029904287
 20
551.6362759015985
 30
0.0
 40
299.1034379555126
100
AcDbArc
 50
44.72932635645007
 51
45.42833269901287
  0
ARC
  5
5876
330
18
100
AcDbEntity
  8
0
100
AcDbCircle
 10
-35.08470527843005
 20
559.0613388905698
 30
0.0
 40
288.6853703178494
100
AcDbArc
 50
45.42733976074035
 51
46.15155600321425
  0
ARC
  5
5877
330
18
100
AcDbEntity
  8
0
100
AcDbCircle
 10
-28.28687441694571
 20
566.12671453407
 30
0.0
 40
278.8807809122959
100
AcDbArc
 50
46.15317136308246
 51
46.90282666860837
  0
ARC
  5
5878
330
18
100
AcDbEntity
  8
0
100
AcDbCircle
 10
-22.02993584401439
 20
572.8151164152883
 30
0.0
 40
269.7219600797482
100
AcDbArc
 50
46.9026190796083
 51
47.67771342971354
  0
ARC
  5
5879
330
18
100
AcDbEntity
  8
0
100
AcDbCircle
 10
-16.30891020953743
 20
579.0948180950997
 30
0.0
 40
261.2269742614035
100
AcDbArc
 50
47.67811400126012
 51
48.47841819652257
  0
ARC
  5
587A
330
18
100
AcDbEntity
  8
0
100
AcDbCircle
 10
-10.9858700449374
 20
585.1144768546778
 30
0.0
 40
253.1913646489951
100
AcDbArc
 50
48.47727495829059
 51
49.30301815948705
  0
ARC
  5
587B
330
18
100
AcDbEntity
  8
0
100
AcDbCircle
 10
-6.0645863251668
 20
590.8390516668147
 30
0.0
 40
245.642206576042
100
AcDbArc
 50
49.30264629870282
 51
50.15382848548575
  0
ARC
  5
587C
330
18
100
AcDbEntity
  8
0
100
AcDbCircle
 10
-79.28387124426325
 20
516.4499308343476
 30
0.0
 40
346.0887214265391
100
AcDbArc
 50
42.11350460795753
 51
42.71556727411285
  0
ARC
  5
587D
330
18
100
AcDbEntity
  8
0
100
AcDbCircle
 10
-69.06158449327353
 20
525.8818008543092
 30
0.0
 40
332.1799005789732
100
AcDbArc
 50
42.71634391874002
 51
43.34361654651729
  0
ARC
  5
587E
330
18
100
AcDbEntity
  8
0
100
AcDbCircle
 10
-59.6449785783806
 20
534.7624857159728
 30
0.0
 40
319.2362146103722
100
AcDbArc
 50
43.34448056269279
 51
43.99719231817199
  0
ARC
  5
587F
330
18
100
AcDbEntity
  8
0
100
AcDbCircle
 10
-50.95956805794164
 20
543.160105493785
 30
0.0
 40
307.1549767474343
100
AcDbArc
 50
43.99571102086907
 51
44.67409106907704
  0
ARC
  5
5880
330
18
100
AcDbEntity
  8
0
100
AcDbCircle
 10
-42.93228960227803
 20
551.1009865949008
 30
0.0
 40
295.8636180220936
100
AcDbArc
 50
44.67348398173029
 51
45.37776148660261
  0
ARC
  5
5881
330
18
100
AcDbEntity
  8
0
100
AcDbCircle
 10
-35.49153390213447
 20
558.6317196678026
 30
0.0
 40
285.2769874697788
100
AcDbArc
 50
45.37900180985888
 51
46.10940593420102
  0
ARC
  5
5882
330
18
100
AcDbEntity
  8
0
100
AcDbCircle
 10
-28.66226037478694
 20
565.7324652423102
 30
0.0
 40
275.4251062735945
100
AcDbArc
 50
46.10915380539831
 51
46.86568453022588
  0
ARC
  5
5883
330
18
100
AcDbEntity
  8
0
100
AcDbCircle
 10
-22.32700347461027
 20
572.4913241734251
 30
0.0
 40
266.1613246686716
100
AcDbArc
 50
46.86612933867039
 51
47.64901582476454
  0
ARC
  5
5884
330
18
100
AcDbEntity
  8
0
100
AcDbCircle
 10
-16.45742964985864
 20
578.9381287925728
 30
0.0
 40
257.4427721212998
100
AcDbArc
 50
47.64785429827678
 51
48.45755488544861
  0
ARC
  5
5885
330
18
100
AcDbEntity
  8
0
100
AcDbCircle
 10
-11.03486005044229
 20
585.0494170729819
 30
0.0
 40
249.272578037781
100
AcDbArc
 50
48.45887650016146
 51
49.29493280611048
  0
ARC
  5
5886
330
18
100
AcDbEntity
  8
0
100
AcDbCircle
 10
-6.075542631319762
 20
590.8261964621707
 30
0.0
 40
241.6590410518707
100
AcDbArc
 50
49.29306613731434
 51
50.15479060030113
  0
ARC
  5
5887
330
18
100
AcDbEntity
  8
0
100
AcDbCircle
 10
151.2553493227931
 20
975.5873438134507
 30
0.0
 40
88.87585924614597
100
AcDbArc
 50
349.2252483374912
 51
356.130508019688
  0
ARC
  5
5888
330
18
100
AcDbEntity
  8
0
100
AcDbCircle
 10
157.9937743519936
 20
974.2598648184868
 30
0.0
 40
82.00807634720822
100
AcDbArc
 50
341.772390379051
 51
349.2562249513558
  0
ARC
  5
5889
330
18
100
AcDbEntity
  8
0
100
AcDbCircle
 10
167.3637262068842
 20
971.1419236403584
 30
0.0
 40
72.13303265359837
100
AcDbArc
 50
333.2883159007402
 51
341.796724180102
  0
ARC
  5
588A
330
18
100
AcDbEntity
  8
0
100
AcDbCircle
 10
176.0305093450855
 20
966.7667163176981
 30
0.0
 40
62.42451129652256
100
AcDbArc
 50
323.4688757351589
 51
333.2998393028407
  0
ARC
  5
588B
330
18
100
AcDbEntity
  8
0
100
AcDbCircle
 10
181.2572769972456
 20
962.9663992000381
 30
0.0
 40
55.96248302057983
100
AcDbArc
 50
312.4427031766318
 51
323.4099035721142
  0
ARC
  5
588C
330
18
100
AcDbEntity
  8
0
100
AcDbCircle
 10
178.7062521763143
 20
965.8096879024414
 30
0.0
 40
59.78227190701661
100
AcDbArc
 50
302.1416851378338
 51
312.4079461517226
  0
ARC
  5
588D
330
18
100
AcDbEntity
  8
0
100
AcDbCircle
 10
176.5424312234825
 20
969.2125304723743
 30
0.0
 40
63.81476649702765
100
AcDbArc
 50
292.5437562456213
 51
302.1612767042221
  0
ARC
  5
588E
330
18
100
AcDbEntity
  8
0
100
AcDbCircle
 10
175.7367111670238
 20
971.08230577886
 30
0.0
 40
65.85057645297038
100
AcDbArc
 50
283.2474202365783
 51
292.5675109648226
  0
ARC
  5
588F
330
18
100
AcDbEntity
  8
0
100
AcDbCircle
 10
175.8590740635219
 20
970.4393288259979
 30
0.0
 40
65.19667524188725
100
AcDbArc
 50
273.8585639774254
 51
283.2722341088483
  0
ARC
  5
5890
330
18
100
AcDbEntity
  8
0
100
AcDbCircle
 10
175.9921429900914
 20
969.1250479891428
 30
0.0
 40
63.876434279728
100
AcDbArc
 50
264.2104366961417
 51
273.8188059489278
  0
ARC
  5
5891
330
18
100
AcDbEntity
  8
0
100
AcDbCircle
 10
176.1942670974423
 20
971.1841113866002
 30
0.0
 40
65.94538421705009
100
AcDbArc
 50
254.909364073215
 51
264.2161841201787
  0
ARC
  5
5892
330
18
100
AcDbEntity
  8
0
100
AcDbCircle
 10
176.4534357184981
 20
972.2001883446344
 30
0.0
 40
66.99389718287284
100
AcDbArc
 50
245.7605276230962
 51
254.9215948912563
  0
ARC
  5
5893
330
18
100
AcDbEntity
  8
0
100
AcDbCircle
 10
176.2413573583934
 20
971.7691668392731
 30
0.0
 40
66.51380859125831
100
AcDbArc
 50
236.547481276637
 51
245.7746759276845
  0
ARC
  5
5894
330
18
100
AcDbEntity
  8
0
100
AcDbCircle
 10
175.1855335943323
 20
970.1940002240744
 30
0.0
 40
64.61756233265346
100
AcDbArc
 50
227.0614873822541
 51
236.5586670439513
  0
ARC
  5
5895
330
18
100
AcDbEntity
  8
0
100
AcDbCircle
 10
151.166683462762
 20
975.5961487129006
 30
0.0
 40
98.96486150007376
100
AcDbArc
 50
349.4978837067191
 51
356.126760500305
  0
ARC
  5
5896
330
18
100
AcDbEntity
  8
0
100
AcDbCircle
 10
157.4490615358508
 20
974.3929031367946
 30
0.0
 40
92.5684147260365
100
AcDbArc
 50
342.4350221933976
 51
349.5213968489896
  0
ARC
  5
5897
330
18
100
AcDbEntity
  8
0
100
AcDbCircle
 10
166.2618110894895
 20
971.5776396307413
 30
0.0
 40
83.31694995937697
100
AcDbArc
 50
334.5781254435193
 51
342.4518207935779
  0
ARC
  5
5898
330
18
100
AcDbEntity
  8
0
100
AcDbCircle
 10
174.6094710598847
 20
967.5994268054898
 30
0.0
 40
74.06981514841652
100
AcDbArc
 50
325.7285400377388
 51
334.5854933928037
  0
ARC
  5
5899
330
18
100
AcDbEntity
  8
0
100
AcDbCircle
 10
180.6562560260848
 20
963.4943289687999
 30
0.0
 40
66.76124082188533
100
AcDbArc
 50
315.8910527488235
 51
325.7176698412216
  0
ARC
  5
589A
330
18
100
AcDbEntity
  8
0
100
AcDbCircle
 10
179.758086978433
 20
964.5235309341153
 30
0.0
 40
68.12258736057315
100
AcDbArc
 50
306.1642894514193
 51
315.7953078825773
  0
ARC
  5
589B
330
18
100
AcDbEntity
  8
0
100
AcDbCircle
 10
177.3296926037045
 20
967.826421278303
 30
0.0
 40
72.2221068241094
100
AcDbArc
 50
297.0896606721284
 51
306.1733867126741
  0
ARC
  5
589C
330
18
100
AcDbEntity
  8
0
100
AcDbCircle
 10
175.9908020977961
 20
970.400365348523
 30
0.0
 40
75.12338863479206
100
AcDbArc
 50
288.3728147401447
 51
297.1048182850697
  0
ARC
  5
589D
330
18
100
AcDbEntity
  8
0
100
AcDbCircle
 10
175.7189754847169
 20
971.1486768135817
 30
0.0
 40
75.91923806159186
100
AcDbArc
 50
279.7483476723919
 51
288.3894961669573
  0
ARC
  5
589E
330
18
100
AcDbEntity
  8
0
100
AcDbCircle
 10
175.9545515585566
 20
969.6488389736908
 30
0.0
 40
74.40117165872566
100
AcDbArc
 50
270.9475275274884
 51
279.7651199687373
  0
ARC
  5
589F
330
18
100
AcDbEntity
  8
0
100
AcDbCircle
 10
176.0162549151871
 20
969.6946760036182
 30
0.0
 40
74.44600824558726
100
AcDbArc
 50
262.0869041033145
 51
270.8994619714861
  0
ARC
  5
58A0
330
18
100
AcDbEntity
  8
0
100
AcDbCircle
 10
176.2570464560329
 20
971.4863220878081
 30
0.0
 40
76.25374474963251
100
AcDbArc
 50
253.4896477631555
 51
262.0930345415578
  0
ARC
  5
58A1
330
18
100
AcDbEntity
  8
0
100
AcDbCircle
 10
176.4653849079794
 20
972.2302535604132
 30
0.0
 40
77.02621103235286
100
AcDbArc
 50
244.9814509934375
 51
253.4983273545688
  0
ARC
  5
58A2
330
18
100
AcDbEntity
  8
0
100
AcDbCircle
 10
176.2110093179788
 20
971.7161089676762
 30
0.0
 40
76.45273087045556
100
AcDbArc
 50
236.4105165055964
 51
244.9912460298394
  0
ARC
  5
58A3
330
18
100
AcDbEntity
  8
0
100
AcDbCircle
 10
157.6222687066054
 20
974.6617706356566
 30
0.0
 40
72.46265645628056
100
AcDbArc
 50
336.0960267968238
 51
356.523851751006
  0
ARC
  5
58A4
330
18
100
AcDbEntity
  8
0
100
AcDbCircle
 10
179.4217045792755
 20
964.7835583866427
 30
0.0
 40
48.53075023088306
100
AcDbArc
 50
305.8232404742249
 51
336.3294064178516
  0
ARC
  5
58A5
330
18
100
AcDbEntity
  8
0
100
AcDbCircle
 10
175.9887257334208
 20
970.1564844591686
 30
0.0
 40
54.89772547990028
100
AcDbArc
 50
278.4828804598175
 51
305.4463103091038
  0
ARC
  5
58A6
330
18
100
AcDbEntity
  8
0
100
AcDbCircle
 10
175.9655827497914
 20
970.1428814518543
 30
0.0
 40
54.88769084771713
100
AcDbArc
 50
251.539336655977
 51
278.5088691738963
  0
ARC
  5
58A7
330
18
100
AcDbEntity
  8
0
100
AcDbCircle
 10
176.0066463591304
 20
971.2175845083386
 30
0.0
 40
55.92090601028181
100
AcDbArc
 50
225.3775354832612
 51
251.8481053110916
  0
ARC
  5
58A8
330
18
100
AcDbEntity
  8
0
100
AcDbCircle
 10
177.4198725220623
 20
971.9613505821744
 30
0.0
 40
57.44501165424924
100
AcDbArc
 50
199.1272064668019
 51
224.8953661506472
  0
ARC
  5
58A9
330
18
100
AcDbEntity
  8
0
100
AcDbCircle
 10
176.0471703351362
 20
971.845990214838
 30
0.0
 40
56.11132685223997
100
AcDbArc
 50
173.0935063013766
 51
199.475199371638
  0
ARC
  5
58AA
330
18
100
AcDbEntity
  8
0
100
AcDbCircle
 10
179.2705078878549
 20
971.2875318357744
 30
0.0
 40
59.37866350678715
100
AcDbArc
 50
148.0031727569476
 51
172.9325553695038
  0
ARC
  5
58AB
330
18
100
AcDbEntity
  8
0
100
AcDbCircle
 10
177.3054613389787
 20
972.6050805729649
 30
0.0
 40
57.01407014565052
100
AcDbArc
 50
122.1151413556015
 51
148.0797087074146
  0
ARC
  5
58AC
330
18
100
AcDbEntity
  8
0
100
AcDbCircle
 10
179.5847619248091
 20
969.3480885614922
 30
0.0
 40
60.98473410276995
100
AcDbArc
 50
98.02953010691799
 51
122.3021374213597
  0
ARC
  5
58AD
330
18
100
AcDbEntity
  8
0
100
AcDbCircle
 10
179.0700596253258
 20
971.4218961985176
 30
0.0
 40
58.85977331674371
100
AcDbArc
 50
72.66612154643897
 51
97.81539517198716
  0
ARC
  5
58AE
330
18
100
AcDbEntity
  8
0
100
AcDbCircle
 10
178.4263318066904
 20
968.469901262833
 30
0.0
 40
61.87006228127574
100
AcDbArc
 50
48.98618416732861
 51
72.91155088900637
  0
ARC
  5
58AF
330
18
100
AcDbEntity
  8
0
100
AcDbCircle
 10
178.0745839704235
 20
968.5824162683124
 30
0.0
 40
62.01692317715544
100
AcDbArc
 50
24.8040680985577
 51
48.67275972525018
  0
ARC
  5
58B0
330
18
100
AcDbEntity
  8
0
100
AcDbCircle
 10
181.4214667743247
 20
969.6588372312927
 30
0.0
 40
58.5287789222685
100
AcDbArc
 50
359.9307930775235
 51
25.22203138741899
  0
ARC
  5
58B1
330
18
100
AcDbEntity
  8
0
100
AcDbCircle
 10
177.2138196357509
 20
971.7567844646097
 30
0.0
 40
67.16342336377749
100
AcDbArc
 50
205.7391205215973
 51
222.1441615543827
  0
ARC
  5
58B2
330
18
100
AcDbEntity
  8
0
100
AcDbCircle
 10
178.2502023897475
 20
972.3761652851564
 30
0.0
 40
68.36604315992757
100
AcDbArc
 50
189.7131550773723
 51
205.829508465871
  0
ARC
  5
58B3
330
18
100
AcDbEntity
  8
0
100
AcDbCircle
 10
175.1771819659356
 20
971.8471394891743
 30
0.0
 40
65.24782034197319
100
AcDbArc
 50
172.8235598148828
 51
189.7105423765923
  0
ARC
  5
58B4
330
18
100
AcDbEntity
  8
0
100
AcDbCircle
 10
178.9168335092779
 20
971.3768501510539
 30
0.0
 40
69.0169270555142
100
AcDbArc
 50
156.859570606475
 51
172.8240345154584
  0
ARC
  5
58B5
330
18
100
AcDbEntity
  8
0
100
AcDbCircle
 10
178.822308466808
 20
971.5270782317316
 30
0.0
 40
68.87104358730552
100
AcDbArc
 50
140.9453723788117
 51
156.9435907241288
  0
ARC
  5
58B6
330
18
100
AcDbEntity
  8
0
100
AcDbCircle
 10
177.2949747640736
 20
972.5859119126482
 30
0.0
 40
67.01801585600264
100
AcDbArc
 50
124.3847744854764
 51
140.8256128191334
  0
ARC
  5
58B7
330
18
100
AcDbEntity
  8
0
100
AcDbCircle
 10
179.5866257969056
 20
969.3617585615472
 30
0.0
 40
70.97303185870973
100
AcDbArc
 50
108.9175971856638
 51
124.441593886436
  0
ARC
  5
58B8
330
18
100
AcDbEntity
  8
0
100
AcDbCircle
 10
179.2750412174031
 20
970.5773023617092
 30
0.0
 40
69.72219720501081
100
AcDbArc
 50
93.19624706843944
 51
108.9992274801977
  0
ARC
  5
58B9
330
18
100
AcDbEntity
  8
0
100
AcDbCircle
 10
179.0121955370019
 20
971.4804942233543
 30
0.0
 40
68.80608192162167
100
AcDbArc
 50
77.00614736875644
 51
93.01964621012755
  0
ARC
  5
58BA
330
18
100
AcDbEntity
  8
0
100
AcDbCircle
 10
178.3408079003907
 20
968.2622094169259
 30
0.0
 40
72.09295254805652
100
AcDbArc
 50
61.77825096503179
 51
77.06132192684369
  0
ARC
  5
58BB
330
18
100
AcDbEntity
  8
0
100
AcDbCircle
 10
178.9603576651005
 20
969.255176702183
 30
0.0
 40
70.9250903589417
100
AcDbArc
 50
46.30497451661143
 51
61.83992157493
  0
ARC
  5
58BC
330
18
100
AcDbEntity
  8
0
100
AcDbCircle
 10
178.2229364986686
 20
968.7578518427001
 30
0.0
 40
71.79434513910933
100
AcDbArc
 50
30.80669620284521
 51
46.15365230713449
  0
ARC
  5
58BD
330
18
100
AcDbEntity
  8
0
100
AcDbCircle
 10
177.8832228900846
 20
968.4149673423624
 30
0.0
 40
72.26183166143247
100
AcDbArc
 50
15.65477990683086
 51
30.90225668539423
  0
ARC
  5
58BE
330
18
100
AcDbEntity
  8
0
100
AcDbCircle
 10
183.6421085378245
 20
969.9310848388433
 30
0.0
 40
66.30752856034404
100
AcDbArc
 50
359.1192452573701
 51
15.73609426461806
  0
ARC
  5
58BF
330
18
100
AcDbEntity
  8
0
100
AcDbCircle
 10
175.0441016840595
 20
970.0057778550753
 30
0.0
 40
74.3817298439959
100
AcDbArc
 50
215.3605098978188
 51
233.1200293508171
  0
ARC
  5
58C0
330
18
100
AcDbEntity
  8
0
100
AcDbCircle
 10
178.2878881091841
 20
972.3858645579223
 30
0.0
 40
78.40455267633498
100
AcDbArc
 50
198.5595724792572
 51
215.4071207338928
  0
ARC
  5
58C1
330
18
100
AcDbEntity
  8
0
100
AcDbCircle
 10
176.7816571022243
 20
972.0056966465662
 30
0.0
 40
76.85574421024566
100
AcDbArc
 50
181.4611516717328
 51
198.6483034389426
  0
ARC
  5
58C2
330
18
100
AcDbEntity
  8
0
100
AcDbCircle
 10
177.0824299207891
 20
971.7484790919327
 30
0.0
 40
77.15031484762015
100
AcDbArc
 50
164.1422948765888
 51
181.2644947273049
  0
ARC
  5
58C3
330
18
100
AcDbEntity
  8
0
100
AcDbCircle
 10
179.5068702880749
 20
971.1723530654968
 30
0.0
 40
79.63998854744895
100
AcDbArc
 50
147.6341209547257
 51
164.2201923041224
  0
ARC
  5
58C4
330
18
100
AcDbEntity
  8
0
100
AcDbCircle
 10
177.0158958664971
 20
972.8323090581804
 30
0.0
 40
76.64741140102956
100
AcDbArc
 50
130.4508464892041
 51
147.6854000149818
  0
ARC
  5
58C5
330
18
100
AcDbEntity
  8
0
100
AcDbCircle
 10
179.1276414978504
 20
970.1955272529628
 30
0.0
 40
80.02406264608479
100
AcDbArc
 50
113.8695888874747
 51
130.3765475097287
  0
ARC
  5
58C6
330
18
100
AcDbEntity
  8
0
100
AcDbCircle
 10
179.5024592613883
 20
969.6383792178799
 30
0.0
 40
80.68531480810198
100
AcDbArc
 50
97.58159429756412
 51
113.952889369798
  0
ARC
  5
58C7
330
18
100
AcDbEntity
  8
0
100
AcDbCircle
 10
179.0554550627792
 20
972.4078122267579
 30
0.0
 40
77.88115418970405
100
AcDbArc
 50
80.56291198222071
 51
97.52442948462793
  0
ARC
  5
58C8
330
18
100
AcDbEntity
  8
0
100
AcDbCircle
 10
178.4622805196022
 20
968.5926921295086
 30
0.0
 40
81.74191091543788
100
AcDbArc
 50
64.43154557292032
 51
80.59122820102206
  0
ARC
  5
58C9
330
18
100
AcDbEntity
  8
0
100
AcDbCircle
 10
178.7088737053499
 20
968.8931918256384
 30
0.0
 40
81.36446499023625
100
AcDbArc
 50
48.2621524111942
 51
64.49686030014333
  0
ARC
  5
58CA
330
18
100
AcDbEntity
  8
0
100
AcDbCircle
 10
178.5575831360203
 20
969.0211462965672
 30
0.0
 40
81.36994430124152
100
AcDbArc
 50
31.88888405536232
 51
48.12267980398249
  0
ARC
  5
58CB
330
18
100
AcDbEntity
  8
0
100
AcDbCircle
 10
177.7714796614384
 20
968.36803007925
 30
0.0
 40
82.38254625488719
100
AcDbArc
 50
15.95240125029778
 51
31.9857417169999
  0
ARC
  5
58CC
330
18
100
AcDbEntity
  8
0
100
AcDbCircle
 10
183.660977845885
 20
969.9408446354311
 30
0.0
 40
76.28765450906644
100
AcDbArc
 50
358.7168727233414
 51
16.03232487457104
  0
ARC
  5
58CD
330
18
100
AcDbEntity
  8
0
100
AcDbCircle
 10
175.1372537252709
 20
970.0773701183264
 30
0.0
 40
84.49677218972755
100
AcDbArc
 50
221.8961135423415
 51
240.0280544917213
  0
ARC
  5
58CE
330
18
100
AcDbEntity
  8
0
100
AcDbCircle
 10
177.3827364767273
 20
971.8744340395785
 30
0.0
 40
87.36840959187297
100
AcDbArc
 50
204.2544164110735
 51
221.7899820327783
  0
ARC
  5
58CF
330
18
100
AcDbEntity
  8
0
100
AcDbCircle
 10
177.9504770954901
 20
972.2772986758036
 30
0.0
 40
88.05163046519721
100
AcDbArc
 50
186.9428116873276
 51
204.3416646557644
  0
ARC
  5
58D0
330
18
100
AcDbEntity
  8
0
100
AcDbCircle
 10
175.6623831456456
 20
971.8661058465952
 30
0.0
 40
85.73071101327895
100
AcDbArc
 50
168.9834932466493
 51
186.8548630030341
  0
ARC
  5
58D1
330
18
100
AcDbEntity
  8
0
100
AcDbCircle
 10
179.4113885961763
 20
971.2193582002946
 30
0.0
 40
89.53425576083548
100
AcDbArc
 50
151.9248909556394
 51
169.0356954488566
  0
ARC
  5
58D2
330
18
100
AcDbEntity
  8
0
100
AcDbCircle
 10
177.7084161195453
 20
972.25995769
 30
0.0
 40
87.5420115339681
100
AcDbArc
 50
134.500556283717
 51
152.0012613626604
  0
ARC
  5
58D3
330
18
100
AcDbEntity
  8
0
100
AcDbCircle
 10
178.6081189427539
 20
970.9843541232602
 30
0.0
 40
89.08280146435966
100
AcDbArc
 50
117.1394547655917
 51
134.3382292158592
  0
ARC
  5
58D4
330
18
100
AcDbEntity
  8
0
100
AcDbCircle
 10
179.6156786310818
 20
969.2902023454816
 30
0.0
 40
91.05011568917836
100
AcDbArc
 50
100.3914823423381
 51
117.2173754944425
  0
ARC
  5
58D5
330
18
100
AcDbEntity
  8
0
100
AcDbCircle
 10
179.0374054467416
 20
972.5667945293789
 30
0.0
 40
87.72296318876628
100
AcDbArc
 50
82.94106290648487
 51
100.4059952124277
  0
ARC
  5
58D6
330
18
100
AcDbEntity
  8
0
100
AcDbCircle
 10
178.5619875803314
 20
968.9092933965953
 30
0.0
 40
91.41116839092559
100
AcDbArc
 50
66.16727220986871
 51
82.92705845195444
  0
ARC
  5
58D7
330
18
100
AcDbEntity
  8
0
100
AcDbCircle
 10
178.578472322676
 20
968.6915016002146
 30
0.0
 40
91.60378590965969
100
AcDbArc
 50
49.50729507050976
 51
66.2317471625359
  0
ARC
  5
58D8
330
18
100
AcDbEntity
  8
0
100
AcDbCircle
 10
178.7686072281327
 20
969.1952709010639
 30
0.0
 40
91.09739360220592
100
AcDbArc
 50
32.5750350232235
 51
49.39249400129996
  0
ARC
  5
58D9
330
18
100
AcDbEntity
  8
0
100
AcDbCircle
 10
177.712565968047
 20
968.3430121561324
 30
0.0
 40
92.44628620745812
100
AcDbArc
 50
16.09536779975163
 51
32.66775999766942
  0
ARC
  5
58DA
330
18
100
AcDbEntity
  8
0
100
AcDbCircle
 10
183.6924872765968
 20
969.949955619621
 30
0.0
 40
86.25533947677118
100
AcDbArc
 50
358.4096858467684
 51
16.17102777604952
  0
ARC
  5
58E2
330
18
100
AcDbEntity
  8
0
100
AcDbCircle
 10
116.2022734778153
 20
1346.408479165301
 30
0.0
 40
0.7593618352723147
100
AcDbArc
 50
89.9977724761702
 51
95.65836088287737
  0
ARC
  5
58E3
330
18
100
AcDbEntity
  8
0
100
AcDbCircle
 10
116.2043093790291
 20
1346.397855172422
 30
0.0
 40
0.7701354171054767
100
AcDbArc
 50
95.73115778506279
 51
101.3076865296717
  0
ARC
  5
58E4
330
18
100
AcDbEntity
  8
0
100
AcDbCircle
 10
116.2053546301919
 20
1346.387261800279
 30
0.0
 40
0.780728813974315
100
AcDbArc
 50
101.2304708434758
 51
106.7307261704039
  0
ARC
  5
58E5
330
18
100
AcDbEntity
  8
0
100
AcDbCircle
 10
116.2087010599774
 20
1346.378604878626
 30
0.0
 40
0.7899829450439238
100
AcDbArc
 50
106.7824143059407
 51
112.2164733961227
  0
ARC
  5
58E6
330
18
100
AcDbEntity
  8
0
100
AcDbCircle
 10
116.2123314261225
 20
1346.370396285559
 30
0.0
 40
0.798954855983039
100
AcDbArc
 50
112.2349129534644
 51
117.6142277574431
  0
ARC
  5
58E7
330
18
100
AcDbEntity
  8
0
100
AcDbCircle
 10
116.2150667387884
 20
1346.364360304931
 30
0.0
 40
0.8055712172924835
100
AcDbArc
 50
117.5876240262534
 51
122.9252503005763
  0
ARC
  5
58E8
330
18
100
AcDbEntity
  8
0
100
AcDbCircle
 10
116.2161125418389
 20
1346.362459819141
 30
0.0
 40
0.807734903140872
100
AcDbArc
 50
122.9142433571031
 51
128.3354753896061
  0
ARC
  5
58E9
330
18
100
AcDbEntity
  8
0
100
AcDbCircle
 10
116.2186120940204
 20
1346.359699100793
 30
0.0
 40
0.8114508120932859
100
AcDbArc
 50
128.3530043337979
 51
133.660165689799
  0
ARC
  5
58EA
330
18
100
AcDbEntity
  8
0
100
AcDbCircle
 10
116.2179242810801
 20
1346.360433998077
 30
0.0
 40
0.8104443006678261
100
AcDbArc
 50
133.6608558091872
 51
138.9430495358213
  0
ARC
  5
58EB
330
18
100
AcDbEntity
  8
0
100
AcDbCircle
 10
116.2154071439575
 20
1346.360867752393
 30
0.0
 40
0.8082624298839558
100
AcDbArc
 50
138.849038191495
 51
144.0973307161633
  0
ARC
  5
58EC
330
18
100
AcDbEntity
  8
0
100
AcDbCircle
 10
116.2124918812081
 20
1346.365242723314
 30
0.0
 40
0.8033375922564308
100
AcDbArc
 50
144.2281534898063
 51
149.543561007674
  0
ARC
  5
58ED
330
18
100
AcDbEntity
  8
0
100
AcDbCircle
 10
116.2077688668784
 20
1346.367641914457
 30
0.0
 40
0.7980502410872925
100
AcDbArc
 50
149.5201646878339
 51
154.997743898059
  0
ARC
  5
58EE
330
18
100
AcDbEntity
  8
0
100
AcDbCircle
 10
116.1994381641805
 20
1346.370409655422
 30
0.0
 40
0.7893310518953733
100
AcDbArc
 50
154.9242396701391
 51
160.3653994383284
  0
ARC
  5
58EF
330
18
100
AcDbEntity
  8
0
100
AcDbCircle
 10
116.1904164361805
 20
1346.37423707301
 30
0.0
 40
0.7795480153831972
100
AcDbArc
 50
160.4075426151471
 51
165.9155856745009
  0
ARC
  5
58F0
330
18
100
AcDbEntity
  8
0
100
AcDbCircle
 10
116.1804441108338
 20
1346.376492777833
 30
0.0
 40
0.7693265842733248
100
AcDbArc
 50
165.8977948266593
 51
171.4823402253875
  0
ARC
  5
58F1
330
18
100
AcDbEntity
  8
0
100
AcDbCircle
 10
116.168332544991
 20
1346.378453031772
 30
0.0
 40
0.7570582781862765
100
AcDbArc
 50
171.4932942653351
 51
177.1616701389175
  0
ARC
  5
58F2
330
18
100
AcDbEntity
  8
0
100
AcDbCircle
 10
283.3816006062251
 20
1295.877191530238
 30
0.0
 40
37.45241188590461
100
AcDbArc
 50
277.9445958316695
 51
292.0661496196801
  0
ARC
  5
58F3
330
18
100
AcDbEntity
  8
0
100
AcDbCircle
 10
284.0526939347188
 20
1291.990992180569
 30
0.0
 40
33.51099871405985
100
AcDbArc
 50
261.9434315631381
 51
277.7265675762291
  0
ARC
  5
58F4
330
18
100
AcDbEntity
  8
0
100
AcDbCircle
 10
284.7362153477543
 20
1297.128776931779
 30
0.0
 40
38.69389469339548
100
AcDbArc
 50
248.3355821808249
 51
262.0075316881511
  0
ARC
  5
58F5
330
18
100
AcDbEntity
  8
0
100
AcDbCircle
 10
288.257337780976
 20
1188.274774715999
 30
0.0
 40
75.03657134560459
100
AcDbArc
 50
103.7268901039666
 51
113.7651036443781
  0
ARC
  5
58F6
330
18
100
AcDbEntity
  8
0
100
AcDbCircle
 10
286.1342755515448
 20
1193.025940000151
 30
0.0
 40
69.8327170406975
100
AcDbArc
 50
113.7418224604662
 51
124.5290617287047
  0
ARC
  5
58F7
330
18
100
AcDbEntity
  8
0
100
AcDbCircle
 10
288.4611952342162
 20
1189.82659596919
 30
0.0
 40
73.78748773753857
100
AcDbArc
 50
124.6094611601518
 51
134.8176257338939
  0
ARC
  5
58F8
330
18
100
AcDbEntity
  8
0
100
AcDbCircle
 10
262.701271912452
 20
1346.409276552064
 30
0.0
 40
0.7585644510661022
100
AcDbArc
 50
84.33866155567505
 51
90.00520508528635
  0
ARC
  5
58F9
330
18
100
AcDbEntity
  8
0
100
AcDbCircle
 10
262.6993043428428
 20
1346.398574288704
 30
0.0
 40
0.7694091390052203
100
AcDbArc
 50
78.68967942605697
 51
84.27147625919742
  0
ARC
  5
58FA
330
18
100
AcDbEntity
  8
0
100
AcDbCircle
 10
262.6972604813973
 20
1346.387810994372
 30
0.0
 40
0.7803642582209635
100
AcDbArc
 50
73.19291056095902
 51
78.69751785757476
  0
ARC
  5
58FB
330
18
100
AcDbEntity
  8
0
100
AcDbCircle
 10
262.6949383043275
 20
1346.378881499423
 30
0.0
 40
0.7895838581075587
100
AcDbArc
 50
67.78215227848129
 51
73.21896001945368
  0
ARC
  5
58FC
330
18
100
AcDbEntity
  8
0
100
AcDbCircle
 10
262.6911819332263
 20
1346.371483866015
 30
0.0
 40
0.7978529217350944
100
AcDbArc
 50
62.35307367622917
 51
67.73330470764119
  0
ARC
  5
58FD
330
18
100
AcDbEntity
  8
0
100
AcDbCircle
 10
262.6893423880281
 20
1346.364190796927
 30
0.0
 40
0.8051687968927009
100
AcDbArc
 50
57.14122308832745
 51
62.47793312725264
  0
ARC
  5
58FE
330
18
100
AcDbEntity
  8
0
100
AcDbCircle
 10
262.6858983018942
 20
1346.361937709591
 30
0.0
 40
0.8089317974513544
100
AcDbArc
 50
51.60555735822415
 51
57.02289545577833
  0
ARC
  5
58FF
330
18
100
AcDbEntity
  8
0
100
AcDbCircle
 10
262.6841494573288
 20
1346.358857919482
 30
0.0
 40
0.8124319331918684
100
AcDbArc
 50
46.34304115583819
 51
51.64378882088393
  0
ARC
  5
5900
330
18
100
AcDbEntity
  8
0
100
AcDbCircle
 10
262.6850492883226
 20
1346.359920786619
 30
0.0
 40
0.8110417794474036
100
AcDbArc
 50
41.05889748668249
 51
46.33719716805916
  0
ARC
  5
5901
330
18
100
AcDbEntity
  8
0
100
AcDbCircle
 10
262.6874791838088
 20
1346.361485550174
 30
0.0
 40
0.8081818702064236
100
AcDbArc
 50
35.84400206190899
 51
41.08840051485792
  0
ARC
  5
5902
330
18
100
AcDbEntity
  8
0
100
AcDbCircle
 10
262.6903996954258
 20
1346.36376191624
 30
0.0
 40
0.8044814776217968
100
AcDbArc
 50
30.52264037999903
 51
35.83438293873586
  0
ARC
  5
5903
330
18
100
AcDbEntity
  8
0
100
AcDbCircle
 10
262.6962395146861
 20
1346.36735867465
 30
0.0
 40
0.7976241843090302
100
AcDbArc
 50
25.03898410518052
 51
30.51312753077925
  0
ARC
  5
5904
330
18
100
AcDbEntity
  8
0
100
AcDbCircle
 10
262.7034256266759
 20
1346.371260157252
 30
0.0
 40
0.7894623338420903
100
AcDbArc
 50
19.56567972726755
 51
25.00317463069269
  0
ARC
  5
5905
330
18
100
AcDbEntity
  8
0
100
AcDbCircle
 10
262.7125047590713
 20
1346.373065453943
 30
0.0
 40
0.7803040255300389
100
AcDbArc
 50
14.15919441358699
 51
19.6640307611287
  0
ARC
  5
5906
330
18
100
AcDbEntity
  8
0
100
AcDbCircle
 10
262.7225712523951
 20
1346.377450271904
 30
0.0
 40
0.769472833729382
100
AcDbArc
 50
8.443944727773036
 51
14.02597060810685
  0
ARC
  5
5907
330
18
100
AcDbEntity
  8
0
100
AcDbCircle
 10
262.7348102223721
 20
1346.377421592856
 30
0.0
 40
0.7573729456313119
100
AcDbArc
 50
2.915277130973326
 51
8.582049703621272
  0
ARC
  5
5908
330
18
100
AcDbEntity
  8
0
100
AcDbCircle
 10
868.8899952545433
 20
401.1697394111706
 30
0.0
 40
43.30134204804554
100
AcDbArc
 50
219.5995126400479
 51
220.7742950137776
  0
ARC
  5
5909
330
18
100
AcDbEntity
  8
0
100
AcDbCircle
 10
830.7315406714888
 20
368.3624760972632
 30
0.0
 40
7.021811761979061
100
AcDbArc
 50
32.90285879649534
 51
40.15408389084489
  0
ARC
  5
590A
330
18
100
AcDbEntity
  8
0
100
AcDbCircle
 10
863.786975648318
 20
389.3804298363165
 30
0.0
 40
32.15008012308473
100
AcDbArc
 50
212.3508684350714
 51
213.9354152647006
  0
ARC
  5
590B
330
18
100
AcDbEntity
  8
0
100
AcDbCircle
 10
839.1100482324038
 20
372.6862125927849
 30
0.0
 40
2.357936356868993
100
AcDbArc
 50
212.1235116138024
 51
233.7417220961021
  0
ARC
  5
590C
330
18
100
AcDbEntity
  8
0
100
AcDbCircle
 10
838.0386612883096
 20
371.3330892054033
 30
0.0
 40
0.6363777753157175
100
AcDbArc
 50
239.4820094461738
 51
319.6577757456897
  0
ARC
  5
591B
330
18
100
AcDbEntity
  8
0
100
AcDbCircle
 10
836.1883993199997
 20
770.8674409855423
 30
0.0
 40
3.906360149781723
100
AcDbArc
 50
180.6659104702048
 51
214.8104900439069
  0
ARC
  5
591C
330
18
100
AcDbEntity
  8
0
100
AcDbCircle
 10
837.8009444693145
 20
771.9845272325848
 30
0.0
 40
5.868036983326057
100
AcDbArc
 50
214.777623660074
 51
237.5133416848536
  0
ARC
  5
591D
330
18
100
AcDbEntity
  8
0
100
AcDbCircle
 10
839.2936592091055
 20
774.2342647433667
 30
0.0
 40
8.567620183551492
100
AcDbArc
 50
237.1736937382723
 51
252.7471946147586
  0
ARC
  5
591E
330
18
100
AcDbEntity
  8
0
100
AcDbCircle
 10
839.948615468295
 20
776.2289606365521
 30
0.0
 40
10.66687178194288
100
AcDbArc
 50
252.565194657847
 51
265.0769198468751
  0
ARC
  5
591F
330
18
100
AcDbEntity
  8
0
100
AcDbCircle
 10
840.0315477533244
 20
776.9277974220143
 30
0.0
 40
11.37027009551635
100
AcDbArc
 50
264.9627674763011
 51
276.6983634871203
  0
ARC
  5
5920
330
18
100
AcDbEntity
  8
0
100
AcDbCircle
 10
840.1612526651268
 20
776.0104954628633
 30
0.0
 40
10.44412336838022
100
AcDbArc
 50
276.5786423668289
 51
289.3599809796823
  0
ARC
  5
5921
330
18
100
AcDbEntity
  8
0
100
AcDbCircle
 10
840.9332565653349
 20
773.9004116419562
 30
0.0
 40
8.197485191329608
100
AcDbArc
 50
289.1583145863122
 51
305.4377167197271
  0
ARC
  5
5922
330
18
100
AcDbEntity
  8
0
100
AcDbCircle
 10
842.519274671643
 20
771.7308179407025
 30
0.0
 40
5.510321856349757
100
AcDbArc
 50
305.0817559273436
 51
329.3033720816034
  0
ARC
  5
5923
330
18
100
AcDbEntity
  8
0
100
AcDbCircle
 10
844.0099642500657
 20
770.8338342655925
 30
0.0
 40
3.770615085913728
100
AcDbArc
 50
329.4601096747998
 51
4.845592389104067
  0
ARC
  5
5924
330
18
100
AcDbEntity
  8
0
100
AcDbCircle
 10
843.7063696705493
 20
770.7164016077367
 30
0.0
 40
4.084066395963323
100
AcDbArc
 50
6.127511388769128
 51
38.78286162581036
  0
ARC
  5
5925
330
18
100
AcDbEntity
  8
0
100
AcDbCircle
 10
842.0126508338587
 20
769.3803644282466
 30
0.0
 40
6.241247898021422
100
AcDbArc
 50
38.60457367235864
 51
59.97425668716682
  0
ARC
  5
5926
330
18
100
AcDbEntity
  8
0
100
AcDbCircle
 10
840.6265075962663
 20
767.0798727543123
 30
0.0
 40
8.926760417246187
100
AcDbArc
 50
59.65986202937712
 51
74.60772540531507
  0
ARC
  5
5927
330
18
100
AcDbEntity
  8
0
100
AcDbCircle
 10
840.0814716639294
 20
765.2216601658043
 30
0.0
 40
10.86303585193485
100
AcDbArc
 50
74.43753153274673
 51
86.72371442803585
  0
ARC
  5
5928
330
18
100
AcDbEntity
  8
0
100
AcDbCircle
 10
840.0326632479387
 20
764.7500620980991
 30
0.0
 40
11.33667347495868
100
AcDbArc
 50
86.61365584713511
 51
98.38193894602326
  0
ARC
  5
5929
330
18
100
AcDbEntity
  8
0
100
AcDbCircle
 10
839.8439286066771
 20
765.8785140788049
 30
0.0
 40
10.19278739752093
100
AcDbArc
 50
98.25701949172541
 51
111.3433441203895
  0
ARC
  5
592A
330
18
100
AcDbEntity
  8
0
100
AcDbCircle
 10
838.9515885590654
 20
768.0795701444647
 30
0.0
 40
7.817973496732099
100
AcDbArc
 50
111.123097105733
 51
128.1933334386399
  0
ARC
  5
592B
330
18
100
AcDbEntity
  8
0
100
AcDbCircle
 10
1295.987526940852
 20
1097.365505195017
 30
0.0
 40
5.953130990843863
100
AcDbArc
 50
257.1944559665011
 51
267.4778711889225
  0
ARC
  5
592C
330
18
100
AcDbEntity
  8
0
100
AcDbCircle
 10
1295.889830214334
 20
1096.957542328115
 30
0.0
 40
5.533663351674205
100
AcDbArc
 50
246.1774965703579
 51
257.2446187251589
  0
ARC
  5
592D
330
18
100
AcDbEntity
  8
0
100
AcDbCircle
 10
1295.975516169965
 20
1097.107580268632
 30
0.0
 40
5.705554896496331
100
AcDbArc
 50
235.2779791835277
 51
245.9989015802588
  0
ARC
  5
592E
330
18
100
AcDbEntity
  8
0
100
AcDbCircle
 10
1295.987138131006
 20
1094.473566238656
 30
0.0
 40
5.950227252230418
100
AcDbArc
 50
92.51961287142448
 51
102.8080599731528
  0
ARC
  5
592F
330
18
100
AcDbEntity
  8
0
100
AcDbCircle
 10
1295.891317326343
 20
1094.875652580935
 30
0.0
 40
5.536905120479517
100
AcDbArc
 50
102.7635654452015
 51
113.8245140660431
  0
ARC
  5
5930
330
18
100
AcDbEntity
  8
0
100
AcDbCircle
 10
1295.975516169965
 20
1094.728501731367
 30
0.0
 40
5.705554896496795
100
AcDbArc
 50
114.0010984197515
 51
124.7220208164829
  0
ARC
  5
5937
330
18
100
AcDbEntity
  8
0
100
AcDbCircle
 10
1213.22153003487
 20
1245.214114304987
 30
0.0
 40
12.94525495486785
100
AcDbArc
 50
359.7960788330258
 51
19.3864683297768
  0
ARC
  5
5938
330
18
100
AcDbEntity
  8
0
100
AcDbCircle
 10
1217.486520252498
 20
1246.817977720745
 30
0.0
 40
8.390264474494857
100
AcDbArc
 50
18.72260661850734
 51
48.94954559359216
  0
ARC
  5
5939
330
18
100
AcDbEntity
  8
0
100
AcDbCircle
 10
1216.161637051383
 20
1244.735154524048
 30
0.0
 40
10.83734266686418
100
AcDbArc
 50
50.89920897380804
 51
74.29738485709498
  0
ARC
  5
593A
330
18
100
AcDbEntity
  8
0
100
AcDbCircle
 10
1211.100924804232
 20
1245.213950559832
 30
0.0
 40
12.94455960812818
100
AcDbArc
 50
359.7967926594753
 51
19.38831971885185
  0
ARC
  5
593B
330
18
100
AcDbEntity
  8
0
100
AcDbCircle
 10
1215.364542324872
 20
1246.81759030473
 30
0.0
 40
8.390936177678616
100
AcDbArc
 50
18.72384532782033
 51
48.9483068842786
  0
ARC
  5
593C
330
18
100
AcDbEntity
  8
0
100
AcDbCircle
 10
1214.040627813127
 20
1244.736053315648
 30
0.0
 40
10.83639872573898
100
AcDbArc
 50
50.89781517728599
 51
74.29757867762798
  0
ARC
  5
593D
330
18
100
AcDbEntity
  8
0
100
AcDbCircle
 10
1209.476203772329
 20
1346.409888899932
 30
0.0
 40
0.7579521000674802
100
AcDbArc
 50
90.00005838259026
 51
95.66362435170665
  0
ARC
  5
593E
330
18
100
AcDbEntity
  8
0
100
AcDbCircle
 10
1209.478253150938
 20
1346.398230532925
 30
0.0
 40
0.7697563181118561
100
AcDbArc
 50
95.72978350075407
 51
101.3090608140275
  0
ARC
  5
593F
330
18
100
AcDbEntity
  8
0
100
AcDbCircle
 10
1209.480316543827
 20
1346.387527283714
 30
0.0
 40
0.7806563869054847
100
AcDbArc
 50
101.3035128718024
 51
106.8060587095864
  0
ARC
  5
5940
330
18
100
AcDbEntity
  8
0
100
AcDbCircle
 10
1209.482584360967
 20
1346.377639911185
 30
0.0
 40
0.7907774591185374
100
AcDbArc
 50
106.7562234523043
 51
112.1916568680767
  0
ARC
  5
5941
330
18
100
AcDbEntity
  8
0
100
AcDbCircle
 10
1209.485124210461
 20
1346.370438863133
 30
0.0
 40
0.7984044949991755
100
AcDbArc
 50
112.1652361456998
 51
117.5452381202697
  0
ARC
  5
5942
330
18
100
AcDbEntity
  8
0
100
AcDbCircle
 10
1209.489051592298
 20
1346.365373303656
 30
0.0
 40
0.8047128729945399
100
AcDbArc
 50
117.626380500708
 51
122.9635486573545
  0
ARC
  5
5943
330
18
100
AcDbEntity
  8
0
100
AcDbCircle
 10
1209.491278131147
 20
1346.361131287953
 30
0.0
 40
0.8094835871575403
100
AcDbArc
 50
122.9324051816162
 51
128.351804774533
  0
ARC
  5
5944
330
18
100
AcDbEntity
  8
0
100
AcDbCircle
 10
1209.491804648662
 20
1346.360358209059
 30
0.0
 40
0.8104165484724333
100
AcDbArc
 50
128.3470832604772
 51
133.6510377720389
  0
ARC
  5
5945
330
18
100
AcDbEntity
  8
0
100
AcDbCircle
 10
1209.492305804379
 20
1346.360069431369
 30
0.0
 40
0.8109714420316638
100
AcDbArc
 50
133.6625737702463
 51
138.9413315747527
  0
ARC
  5
5946
330
18
100
AcDbEntity
  8
0
100
AcDbCircle
 10
1209.490913179926
 20
1346.360487822506
 30
0.0
 40
0.8096467603854303
100
AcDbArc
 50
138.898925730458
 51
144.1437823096483
  0
ARC
  5
5947
330
18
100
AcDbEntity
  8
0
100
AcDbCircle
 10
1209.486898216614
 20
1346.36487769365
 30
0.0
 40
0.8038221987659641
100
AcDbArc
 50
144.229756909338
 51
149.541957588114
  0
ARC
  5
5948
330
18
100
AcDbEntity
  8
0
100
AcDbCircle
 10
1209.481057409588
 20
1346.366344012147
 30
0.0
 40
0.798045935946437
100
AcDbArc
 50
149.4201370205881
 51
154.8947385509464
  0
ARC
  5
5949
330
18
100
AcDbEntity
  8
0
100
AcDbCircle
 10
1209.473818810905
 20
1346.371285386293
 30
0.0
 40
0.7893958772706373
100
AcDbArc
 50
154.9965963150566
 51
160.43454932673
  0
ARC
  5
594A
330
18
100
AcDbEntity
  8
0
100
AcDbCircle
 10
1209.464789094957
 20
1346.374124287857
 30
0.0
 40
0.7799369180096855
100
AcDbArc
 50
160.4089169201554
 51
165.9142113695154
  0
ARC
  5
594B
330
18
100
AcDbEntity
  8
0
100
AcDbCircle
 10
1209.454691816181
 20
1346.376443236764
 30
0.0
 40
0.7695788953308862
100
AcDbArc
 50
165.8987110151295
 51
171.4814240369761
  0
ARC
  5
594C
330
18
100
AcDbEntity
  8
0
100
AcDbCircle
 10
1209.443464513519
 20
1346.378390930293
 30
0.0
 40
0.7581869872123588
100
AcDbArc
 50
171.5013067706983
 51
177.168766472386
  0
ARC
  5
594D
330
18
100
AcDbEntity
  8
0
100
AcDbCircle
 10
1354.34998331218
 20
1245.214000903262
 30
0.0
 40
12.94426190506611
100
AcDbArc
 50
160.6114527687555
 51
180.2034348529111
  0
ARC
  5
594E
330
18
100
AcDbEntity
  8
0
100
AcDbCircle
 10
1350.0868213081
 20
1246.817484634859
 30
0.0
 40
8.391119389137216
100
AcDbArc
 50
131.0520309461548
 51
161.2758168417536
  0
ARC
  5
594F
330
18
100
AcDbEntity
  8
0
100
AcDbCircle
 10
1351.410628186872
 20
1244.735811872271
 30
0.0
 40
10.83661762706213
100
AcDbArc
 50
105.7018213343767
 51
129.1015848347188
  0
ARC
  5
5950
330
18
100
AcDbEntity
  8
0
100
AcDbCircle
 10
1352.228732252248
 20
1245.213975731838
 30
0.0
 40
12.94441075484725
100
AcDbArc
 50
160.6115665249405
 51
180.2033210967261
  0
ARC
  5
5951
330
18
100
AcDbEntity
  8
0
100
AcDbCircle
 10
1347.965050969076
 20
1246.817581266892
 30
0.0
 40
8.390737630282385
100
AcDbArc
 50
131.0500423190177
 51
161.2756299757323
  0
ARC
  5
5952
330
18
100
AcDbEntity
  8
0
100
AcDbCircle
 10
1349.289815003471
 20
1244.734872776167
 30
0.0
 40
10.83765342886128
100
AcDbArc
 50
105.7029553469027
 51
129.1004508221904
  0
ARC
  5
5953
330
18
100
AcDbEntity
  8
0
100
AcDbCircle
 10
1355.975123425809
 20
1346.410317446087
 30
0.0
 40
0.7575235541881135
100
AcDbArc
 50
84.3347723465232
 51
90.0015449191717
  0
ARC
  5
5954
330
18
100
AcDbEntity
  8
0
100
AcDbCircle
 10
1355.973109021791
 20
1346.398605523845
 30
0.0
 40
0.7693775928248871
100
AcDbArc
 50
78.68956490248584
 51
84.27159078282029
  0
ARC
  5
5955
330
18
100
AcDbEntity
  8
0
100
AcDbCircle
 10
1355.971068369806
 20
1346.387842504665
 30
0.0
 40
0.7803318129967114
100
AcDbArc
 50
73.19279603548152
 51
78.69763238302296
  0
ARC
  5
5956
330
18
100
AcDbEntity
  8
0
100
AcDbCircle
 10
1355.968749411934
 20
1346.378912867304
 30
0.0
 40
0.7895506190939054
100
AcDbArc
 50
67.78203775139957
 51
73.2190745465342
  0
ARC
  5
5957
330
18
100
AcDbEntity
  8
0
100
AcDbCircle
 10
1355.965046270011
 20
1346.37045056838
 30
0.0
 40
0.7987849154771171
100
AcDbArc
 50
62.38519960041288
 51
67.76565968865546
  0
ARC
  5
5958
330
18
100
AcDbEntity
  8
0
100
AcDbCircle
 10
1355.963192388027
 20
1346.365263636744
 30
0.0
 40
0.8042406530737025
100
AcDbArc
 50
57.10274591919196
 51
62.43945595811609
  0
ARC
  5
5959
330
18
100
AcDbEntity
  8
0
100
AcDbCircle
 10
1355.959768260525
 20
1346.360908695173
 30
0.0
 40
0.8097571831124252
100
AcDbArc
 50
51.64911144559635
 51
57.06667859823371
  0
ARC
  5
595A
330
18
100
AcDbEntity
  8
0
100
AcDbCircle
 10
1355.957999457328
 20
1346.359938048372
 30
0.0
 40
0.811616268269374
100
AcDbArc
 50
46.29295558024717
 51
51.59370324529366
  0
ARC
  5
595B
330
18
100
AcDbEntity
  8
0
100
AcDbCircle
 10
1355.958441711666
 20
1346.359531324482
 30
0.0
 40
0.8116049190028158
100
AcDbArc
 50
41.06072997996919
 51
46.33536467478863
  0
ARC
  5
595C
330
18
100
AcDbEntity
  8
0
100
AcDbCircle
 10
1355.96083650187
 20
1346.361133851224
 30
0.0
 40
0.8087466629552704
100
AcDbArc
 50
35.84583456766164
 51
41.08656800916565
  0
ARC
  5
595D
330
18
100
AcDbEntity
  8
0
100
AcDbCircle
 10
1355.963763716198
 20
1346.363476852899
 30
0.0
 40
0.8050018205585994
100
AcDbArc
 50
30.52435833082657
 51
35.83266498790836
  0
ARC
  5
595E
330
18
100
AcDbEntity
  8
0
100
AcDbCircle
 10
1355.968629227987
 20
1346.366044240244
 30
0.0
 40
0.7995066581908965
100
AcDbArc
 50
25.07202805148049
 51
30.54296474253805
  0
ARC
  5
595F
330
18
100
AcDbEntity
  8
0
100
AcDbCircle
 10
1355.976863577746
 20
1346.370970803867
 30
0.0
 40
0.78996111562696
100
AcDbArc
 50
19.56739763386318
 51
25.00145672404561
  0
ARC
  5
5960
330
18
100
AcDbEntity
  8
0
100
AcDbCircle
 10
1355.986062771298
 20
1346.372861474395
 30
0.0
 40
0.7806610589927402
100
AcDbArc
 50
14.16045419409616
 51
19.6627709808432
  0
ARC
  5
5961
330
18
100
AcDbEntity
  8
0
100
AcDbCircle
 10
1355.997330239991
 20
1346.376331264685
 30
0.0
 40
0.7688873557660188
100
AcDbArc
 50
8.534731882417059
 51
14.11515443215997
  0
ARC
  5
5962
330
18
100
AcDbEntity
  8
0
100
AcDbCircle
 10
1356.007658418546
 20
1346.378372770741
 30
0.0
 40
0.7583707287182479
100
AcDbArc
 50
2.831920656700969
 51
8.498006100208517
  0
VIEWPORT
  5
37
330
15
100
AcDbEntity
 67
     1
  8
0
100
AcDbViewport
 10
296.9906137588128
 20
209.9992300081634
 30
0.0
 40
655.2164641878737
 41
422.7059310090361
 68
     1
 69
     1
 12
296.9906137588128
 22
209.9992300081634
 13
0.0
 23
0.0
 14
10.0
 24
10.0
 15
10.0
 25
10.0
 16
0.0
 26
0.0
 36
1.0
 17
0.0
 27
0.0
 37
0.0
 42
50.0
 43
0.0
 44
0.0
 45
422.7059310090361
 50
0.0
 51
0.0
 72
   100
 90
    32768
  1

281
     0
 71
     1
 74
     0
110
0.0
120
0.0
130
0.0
111
1.0
121
0.0
131
0.0
112
0.0
122
1.0
132
0.0
 79
     0
146
0.0
  0
ENDSEC
  0
SECTION
  2
OBJECTS
  0
DICTIONARY
  5
C
330
0
100
AcDbDictionary
281
     1
  3
ACAD_GROUP
350
D
  3
ACAD_IMAGE_VARS
350
7A9
  3
ACAD_LAYOUT
350
1AD
  3
ACAD_MLINESTYLE
350
1B
  3
ACAD_PLOTSETTINGS
350
1AE
  3
ACAD_PLOTSTYLENAME
350
1AB
  3
DWGPROPS
350
5973
  0
DICTIONARY
  5
D
102
{ACAD_REACTORS
330
C
102
}
330
C
100
AcDbDictionary
281
     1
  0
RASTERVARIABLES
  5
7A9
102
{ACAD_REACTORS
330
C
102
}
330
C
100
AcDbRasterVariables
 90
        0
 70
     1
 71
     1
 72
     0
  0
DICTIONARY
  5
1AD
102
{ACAD_REACTORS
330
C
102
}
330
C
100
AcDbDictionary
281
     1
  3
Model
350
1AF
  3
ﾚｲｱｳﾄ1
350
1B0
  0
DICTIONARY
  5
1B
102
{ACAD_REACTORS
330
C
102
}
330
C
100
AcDbDictionary
281
     1
  3
STANDARD
350
1C
  0
DICTIONARY
  5
1AE
102
{ACAD_REACTORS
330
C
102
}
330
C
100
AcDbDictionary
281
     1
  3
トレース紙Ａ１
350
7A0
  3
トレース紙Ａ２
350
79E
  3
トレース紙Ａ３
350
79C
  3
トレース紙Ａ４
350
794
  3
モデル
350
91D
  3
モデル XL-5810
350
92C
  3
普通紙Ａ１からＡ３
350
705
  3
普通紙Ａ１からＡ３ XL-5810
350
A53
  3
普通紙Ａ２からＡ３
350
7A2
  3
普通紙Ａ２からＡ３ XL-5810
350
A52
  3
普通紙Ａ３
350
66A
  3
普通紙Ａ３ XL-5810
350
A51
  3
普通紙Ａ４
350
66B
  3
普通紙Ａ４ XL-5810
350
A50
  0
ACDBDICTIONARYWDFLT
  5
1AB
102
{ACAD_REACTORS
330
C
102
}
330
C
100
AcDbDictionary
281
     1
  3
Normal
350
1AC
100
AcDbDictionaryWithDefault
340
1AC
  0
XRECORD
  5
5973
102
{ACAD_REACTORS
330
C
102
}
330
C
100
AcDbXrecord
280
     1
  1
DWGPROPS COOKIE
  2

  3

  4

  6

  7

  8

  9

300
=
301
=
302
=
303
=
304
=
305
=
306
=
307
=
308
=
309
=
 40
2.659684201388889
 41
2453365.429715521
 42
2453634.449512801
  1

 90
        0
  0
LAYOUT
  5
1AF
102
{ACAD_REACTORS
330
1AD
102
}
330
1AD
100
AcDbPlotSettings
  1
モデル
  2
FUJITSU XL-5800
  4
モデル
  6

 40
5.87375
 41
5.704405999999998
 42
5.873749
 43
5.873749
 44
210.057999
 45
296.925995
 46
-934.06
 47
-482.3299999999998
 48
0.0
 49
0.0
140
0.0
141
0.0
142
1.0
143
1.0
 70
 11956
 72
     1
 73
     0
 74
     0
  7
LineScale_10.ctb
 75
    16
147
1.0
148
1033.210332
149
625.0
100
AcDbLayout
  1
Model
 70
     0
 71
     0
 10
0.0
 20
0.0
 11
12.0
 21
9.0
 12
0.0
 22
0.0
 32
0.0
 14
0.0
 24
0.0
 34
0.0
 15
0.0
 25
0.0
 35
0.0
146
0.0
 13
0.0
 23
0.0
 33
0.0
 16
1.0
 26
0.0
 36
0.0
 17
0.0
 27
1.0
 37
0.0
 76
     0
330
18
  0
LAYOUT
  5
1B0
102
{ACAD_REACTORS
330
1AD
102
}
330
1AD
100
AcDbPlotSettings
  1
トレース紙Ａ２
  2
SII LP-2150 (D-SCAN)
  4
トレース紙Ａ２
  6
A1
 40
3.174999999999998
 41
3.174999999999998
 42
3.174987999999998
 43
3.174987999999998
 44
593.979004
 45
419.988983
 46
0.5
 47
-6.5
 48
0.0
 49
0.0
140
594.0
141
420.0
142
1.0
143
1.0
 70
   688
 72
     1
 73
     0
 74
     4
  7
LineScale_10.ctb
 75
    16
147
1.0
148
0.0
149
0.0
100
AcDbLayout
  1
ﾚｲｱｳﾄ1
 70
     1
 71
     1
 10
1.592759999999999
 20
-1.235669
 11
595.726569
 21
418.681148
 12
0.0
 22
0.0
 32
0.0
 14
-0.0363582998343191
 24
-0.0272524492552293
 34
-0.0000000698494069
 15
594.0175858174598
 25
420.0257124655819
 35
0.0000000465733773
146
0.0
 13
0.0
 23
0.0
 33
0.0
 16
1.0
 26
0.0
 36
0.0
 17
0.0
 27
1.0
 37
0.0
 76
     0
330
15
331
37
  0
MLINESTYLE
  5
1C
102
{ACAD_REACTORS
330
1B
102
}
330
1B
100
AcDbMlineStyle
  2
STANDARD
 70
     0
  3

 62
   256
 51
90.0
 52
90.0
 71
     2
 49
0.5
 62
   256
  6
BYLAYER
 49
-0.5
 62
   256
  6
BYLAYER
  0
PLOTSETTINGS
  5
7A0
102
{ACAD_REACTORS
330
1AE
102
}
330
1AE
100
AcDbPlotSettings
  1
トレース紙Ａ１
  2
SII LP-2150 (D-SCAN)
  4
User117
  6
A1
 40
3.174999952316283
 41
3.174999952316283
 42
3.17498779296875
 43
3.17498779296875
 44
840.9939575195313
 45
593.97900390625
 46
1.0
 47
-7.0
 48
0.0
 49
0.0
140
841.0
141
594.0
142
1.0
143
1.0
 70
   688
 72
     1
 73
     0
 74
     4
  7
LineScale_10.ctb
 75
    16
147
1.0
148
0.0
149
0.0
  0
PLOTSETTINGS
  5
79E
102
{ACAD_REACTORS
330
1AE
102
}
330
1AE
100
AcDbPlotSettings
  1
トレース紙Ａ２
  2
SII LP-2150 (D-SCAN)
  4
User118
  6
A1
 40
3.174999952316283
 41
3.174999952316283
 42
3.17498779296875
 43
3.17498779296875
 44
593.97900390625
 45
419.9889831542968
 46
0.5
 47
-6.5
 48
0.0
 49
0.0
140
594.0
141
420.0
142
1.0
143
1.0
 70
   688
 72
     1
 73
     0
 74
     4
  7
LineScale_10.ctb
 75
    16
147
1.0
148
0.0
149
0.0
  0
PLOTSETTINGS
  5
79C
102
{ACAD_REACTORS
330
1AE
102
}
330
1AE
100
AcDbPlotSettings
  1
トレース紙Ａ３
  2
SII LP-2150 (D-SCAN)
  4
User257
  6
A1
 40
3.174999952316283
 41
3.174999952316283
 42
3.17498779296875
 43
3.17498779296875
 44
419.9889831542968
 45
296.989501953125
 46
1.0
 47
-6.0
 48
0.0
 49
0.0
140
420.0
141
297.0
142
1.0
143
1.0
 70
   688
 72
     1
 73
     0
 74
     4
  7
LineScale_10.ctb
 75
    16
147
1.0
148
0.0
149
0.0
  0
PLOTSETTINGS
  5
794
102
{ACAD_REACTORS
330
1AE
102
}
330
1AE
100
AcDbPlotSettings
  1
トレース紙Ａ４
  2
SII LP-2150 (D-SCAN)
  4
User258
  6
A1
 40
3.174999952316283
 41
3.174999952316283
 42
3.17498779296875
 43
3.175003051757812
 44
296.989501953125
 45
209.9944915771484
 46
0.8
 47
-2.0
 48
0.0
 49
0.0
140
210.0
141
297.0
142
1.0
143
1.0
 70
   688
 72
     1
 73
     1
 74
     4
  7
LineScale_10.ctb
 75
    16
147
1.0
148
0.0
149
0.0
  0
PLOTSETTINGS
  5
91D
102
{ACAD_REACTORS
330
1AE
102
}
330
1AE
100
AcDbPlotSettings
  1
モデル
  2
FUJITSU XL-5800
  4
A4
  6

 40
5.873749732971191
 41
5.704405784606932
 42
5.873748779296875
 43
5.873748779296875
 44
210.0579986572264
 45
296.9259948730469
 46
-934.06
 47
-482.3299999999998
 48
0.0
 49
0.0
140
0.0
141
0.0
142
1.0
143
1.0
 70
  1716
 72
     1
 73
     0
 74
     0
  7
LineScale_10.ctb
 75
    16
147
1.0
148
1033.210332103321
149
625.0
  0
PLOTSETTINGS
  5
92C
102
{ACAD_REACTORS
330
1AE
102
}
330
1AE
100
AcDbPlotSettings
  1
モデル XL-5810
  2
\\PROLIANT1500\FUJITSU XL-5810
  4
A4
  6

 40
5.873749732971191
 41
5.704405784606932
 42
5.873748779296875
 43
5.873748779296875
 44
210.0579986572264
 45
296.9259948730469
 46
-588.8099999999998
 47
-890.54
 48
0.0
 49
0.0
140
0.0
141
0.0
142
1.0
143
1.0
 70
  1716
 72
     1
 73
     1
 74
     0
  7
LineScale_10.ctb
 75
    16
147
1.0
148
1033.210332103321
149
625.0
  0
PLOTSETTINGS
  5
705
102
{ACAD_REACTORS
330
1AE
102
}
330
1AE
100
AcDbPlotSettings
  1
普通紙Ａ１からＡ３
  2
FUJITSU XL-5800
  4
A3
  6
A1
 40
5.873749732971191
 41
5.873747825622557
 42
5.70440673828125
 43
5.873748779296875
 44
296.9259948730469
 45
420.1159973144531
 46
-4.129999999999999
 47
-7.07
 48
0.0
 49
0.0
140
841.0
141
594.0
142
1.0
143
2.0
 70
   688
 72
     1
 73
     1
 74
     4
  7
LineScale_05.ctb
 75
    17
147
0.5
148
0.0
149
0.0
  0
PLOTSETTINGS
  5
A53
102
{ACAD_REACTORS
330
1AE
102
}
330
1AE
100
AcDbPlotSettings
  1
普通紙Ａ１からＡ３ XL-5810
  2
\\PROLIANT1500\FUJITSU XL-5810
  4
A3
  6
A1
 40
5.873749732971191
 41
5.873747825622557
 42
5.70440673828125
 43
5.873748779296875
 44
296.9259948730469
 45
420.1159973144531
 46
-4.129999999999999
 47
-7.07
 48
0.0
 49
0.0
140
841.0
141
594.0
142
1.0
143
2.0
 70
   688
 72
     1
 73
     1
 74
     4
  7
LineScale_05.ctb
 75
    17
147
0.5
148
0.0
149
0.0
  0
PLOTSETTINGS
  5
7A2
102
{ACAD_REACTORS
330
1AE
102
}
330
1AE
100
AcDbPlotSettings
  1
普通紙Ａ２からＡ３
  2
FUJITSU XL-5800
  4
A3
  6
A1
 40
5.873749732971191
 41
5.873747825622557
 42
5.70440673828125
 43
5.873748779296875
 44
296.9259948730469
 45
420.1159973144531
 46
-5.0
 47
-7.0
 48
0.0
 49
0.0
140
594.0
141
420.0
142
0.7071066999999999
143
1.0
 70
   672
 72
     1
 73
     1
 74
     4
  7
LineScale_07.ctb
 75
     0
147
0.7071066999999999
148
0.0
149
0.0
  0
PLOTSETTINGS
  5
A52
102
{ACAD_REACTORS
330
1AE
102
}
330
1AE
100
AcDbPlotSettings
  1
普通紙Ａ２からＡ３ XL-5810
  2
\\PROLIANT1500\FUJITSU XL-5810
  4
A3
  6
A1
 40
5.873749732971191
 41
5.873747825622557
 42
5.70440673828125
 43
5.873748779296875
 44
296.9259948730469
 45
420.1159973144531
 46
-5.0
 47
-7.0
 48
0.0
 49
0.0
140
594.0
141
420.0
142
0.7071066999999999
143
1.0
 70
   672
 72
     1
 73
     1
 74
     4
  7
LineScale_07.ctb
 75
     0
147
0.7071066999999999
148
0.0
149
0.0
  0
PLOTSETTINGS
  5
66A
102
{ACAD_REACTORS
330
1AE
102
}
330
1AE
100
AcDbPlotSettings
  1
普通紙Ａ３
  2
FUJITSU XL-5800
  4
A3
  6
A1
 40
5.873749732971191
 41
5.873747825622557
 42
5.70440673828125
 43
5.873748779296875
 44
296.9259948730469
 45
420.1159973144531
 46
-3.83
 47
-6.82
 48
0.0
 49
0.0
140
420.0
141
297.0
142
1.0
143
1.0
 70
   688
 72
     1
 73
     1
 74
     4
  7
LineScale_10.ctb
 75
    16
147
1.0
148
0.0
149
0.0
  0
PLOTSETTINGS
  5
A51
102
{ACAD_REACTORS
330
1AE
102
}
330
1AE
100
AcDbPlotSettings
  1
普通紙Ａ３ XL-5810
  2
\\PROLIANT1500\FUJITSU XL-5810
  4
A3
  6
A1
 40
5.873749732971191
 41
5.873747825622557
 42
5.70440673828125
 43
5.873748779296875
 44
296.9259948730469
 45
420.1159973144531
 46
-3.83
 47
-6.82
 48
0.0
 49
0.0
140
420.0
141
297.0
142
1.0
143
1.0
 70
   688
 72
     1
 73
     1
 74
     4
  7
LineScale_10.ctb
 75
    16
147
1.0
148
0.0
149
0.0
  0
PLOTSETTINGS
  5
66B
102
{ACAD_REACTORS
330
1AE
102
}
330
1AE
100
AcDbPlotSettings
  1
普通紙Ａ４
  2
FUJITSU XL-5800
  4
A4
  6
A1
 40
5.873749732971191
 41
5.704405784606932
 42
5.873748779296875
 43
5.873748779296875
 44
210.0579986572264
 45
296.9259948730469
 46
-6.82
 47
-3.83
 48
0.0
 49
0.0
140
420.0
141
297.0
142
1.0
143
1.0
 70
   688
 72
     1
 73
     0
 74
     4
  7
LineScale_10.ctb
 75
    16
147
1.0
148
0.0
149
0.0
  0
PLOTSETTINGS
  5
A50
102
{ACAD_REACTORS
330
1AE
102
}
330
1AE
100
AcDbPlotSettings
  1
普通紙Ａ４ XL-5810
  2
\\PROLIANT1500\FUJITSU XL-5810
  4
A4
  6
A1
 40
5.873749732971191
 41
5.704405784606932
 42
5.873748779296875
 43
5.873748779296875
 44
210.0579986572264
 45
296.9259948730469
 46
-6.82
 47
-3.83
 48
0.0
 49
0.0
140
420.0
141
297.0
142
1.0
143
1.0
 70
   688
 72
     1
 73
     0
 74
     4
  7
LineScale_10.ctb
 75
    16
147
1.0
148
0.0
149
0.0
  0
ACDBPLACEHOLDER
  5
1AC
102
{ACAD_REACTORS
330
1AB
102
}
330
1AB
  0
ENDSEC
  0
EOF
