  0
SECTION
  2
HEADER
  9
$ACADVER
  1
AC1015
  9
$ACADMAINTVER
 70
     6
  9
$DWGCODEPAGE
  3
ANSI_932
  9
$INSBASE
 10
0.0
 20
0.0
 30
0.0
  9
$EXTMIN
 10
-1027.201918
 20
298.137708
 30
-0.00000001
  9
$EXTMAX
 10
858.5249470000004
 20
2771.433588477323
 30
0.00000001
  9
$LIMMIN
 10
-841.0
 20
-594.0
  9
$LIMMAX
 10
841.0
 20
594.0
  9
$ORTHOMODE
 70
     0
  9
$REGENMODE
 70
     1
  9
$FILLMODE
 70
     1
  9
$QTEXTMODE
 70
     0
  9
$MIRRTEXT
 70
     0
  9
$LTSCALE
 40
7.0
  9
$ATTMODE
 70
     1
  9
$TEXTSIZE
 40
3.2
  9
$TRACEWID
 40
1.0
  9
$TEXTSTYLE
  7
DIMFONT
  9
$CLAYER
  8
0
  9
$CELTYPE
  6
ByLayer
  9
$CECOLOR
 62
   256
  9
$CELTSCALE
 40
1.0
  9
$DISPSILH
 70
     0
  9
$DIMSCALE
 40
5.0
  9
$DIMASZ
 40
3.0
  9
$DIMEXO
 40
0.0
  9
$DIMDLI
 40
10.0
  9
$DIMRND
 40
0.0
  9
$DIMDLE
 40
0.0
  9
$DIMEXE
 40
1.0
  9
$DIMTP
 40
0.0
  9
$DIMTM
 40
0.0
  9
$DIMTXT
 40
3.2
  9
$DIMCEN
 40
0.0
  9
$DIMTSZ
 40
0.0
  9
$DIMTOL
 70
     0
  9
$DIMLIM
 70
     0
  9
$DIMTIH
 70
     0
  9
$DIMTOH
 70
     0
  9
$DIMSE1
 70
     0
  9
$DIMSE2
 70
     0
  9
$DIMTAD
 70
     3
  9
$DIMZIN
 70
     8
  9
$DIMBLK
  1

  9
$DIMASO
 70
     1
  9
$DIMSHO
 70
     1
  9
$DIMPOST
  1

  9
$DIMAPOST
  1

  9
$DIMALT
 70
     0
  9
$DIMALTD
 70
     2
  9
$DIMALTF
 40
25.4
  9
$DIMLFAC
 40
1.0
  9
$DIMTOFL
 70
     1
  9
$DIMTVP
 40
0.0
  9
$DIMTIX
 70
     0
  9
$DIMSOXD
 70
     0
  9
$DIMSAH
 70
     1
  9
$DIMBLK1
  1
OPEN
  9
$DIMBLK2
  1
OPEN
  9
$DIMSTYLE
  2
1_5
  9
$DIMCLRD
 70
     0
  9
$DIMCLRE
 70
     0
  9
$DIMCLRT
 70
     0
  9
$DIMTFAC
 40
0.75
  9
$DIMGAP
 40
1.0
  9
$DIMJUST
 70
     0
  9
$DIMSD1
 70
     0
  9
$DIMSD2
 70
     0
  9
$DIMTOLJ
 70
     1
  9
$DIMTZIN
 70
     8
  9
$DIMALTZ
 70
     0
  9
$DIMALTTZ
 70
     0
  9
$DIMUPT
 70
     0
  9
$DIMDEC
 70
     4
  9
$DIMTDEC
 70
     4
  9
$DIMALTU
 70
     2
  9
$DIMALTTD
 70
     2
  9
$DIMTXSTY
  7
DIMFONT
  9
$DIMAUNIT
 70
     0
  9
$DIMADEC
 70
     2
  9
$DIMALTRND
 40
0.0
  9
$DIMAZIN
 70
     2
  9
$DIMDSEP
 70
    46
  9
$DIMATFIT
 70
     1
  9
$DIMFRAC
 70
     0
  9
$DIMLDRBLK
  1

  9
$DIMLUNIT
 70
     2
  9
$DIMLWD
 70
    -2
  9
$DIMLWE
 70
    -2
  9
$DIMTMOVE
 70
     0
  9
$LUNITS
 70
     2
  9
$LUPREC
 70
     4
  9
$SKETCHINC
 40
1.0
  9
$FILLETRAD
 40
0.7693
  9
$AUNITS
 70
     0
  9
$AUPREC
 70
     4
  9
$MENU
  1
acad
  9
$ELEVATION
 40
0.0
  9
$PELEVATION
 40
0.0
  9
$THICKNESS
 40
0.0
  9
$LIMCHECK
 70
     0
  9
$CHAMFERA
 40
0.0
  9
$CHAMFERB
 40
0.0
  9
$CHAMFERC
 40
0.0
  9
$CHAMFERD
 40
0.0
  9
$SKPOLY
 70
     0
  9
$TDCREATE
 40
2453365.412170671
  9
$TDUCREATE
 40
2453365.037170671
  9
$TDUPDATE
 40
2453634.451639537
  9
$TDUUPDATE
 40
2453634.076639537
  9
$TDINDWG
 40
1.0127520718
  9
$TDUSRTIMER
 40
1.0127513773
  9
$USRTIMER
 70
     1
  9
$ANGBASE
 50
0.0
  9
$ANGDIR
 70
     0
  9
$PDMODE
 70
    35
  9
$PDSIZE
 40
0.5
  9
$PLINEWID
 40
0.0
  9
$SPLFRAME
 70
     0
  9
$SPLINETYPE
 70
     6
  9
$SPLINESEGS
 70
     8
  9
$HANDSEED
  5
43E5
  9
$SURFTAB1
 70
     6
  9
$SURFTAB2
 70
     6
  9
$SURFTYPE
 70
     6
  9
$SURFU
 70
     6
  9
$SURFV
 70
     6
  9
$UCSBASE
  2

  9
$UCSNAME
  2

  9
$UCSORG
 10
0.0
 20
0.0
 30
0.0
  9
$UCSXDIR
 10
1.0
 20
0.0
 30
0.0
  9
$UCSYDIR
 10
0.0
 20
1.0
 30
0.0
  9
$UCSORTHOREF
  2

  9
$UCSORTHOVIEW
 70
     0
  9
$UCSORGTOP
 10
0.0
 20
0.0
 30
0.0
  9
$UCSORGBOTTOM
 10
0.0
 20
0.0
 30
0.0
  9
$UCSORGLEFT
 10
0.0
 20
0.0
 30
0.0
  9
$UCSORGRIGHT
 10
0.0
 20
0.0
 30
0.0
  9
$UCSORGFRONT
 10
0.0
 20
0.0
 30
0.0
  9
$UCSORGBACK
 10
0.0
 20
0.0
 30
0.0
  9
$PUCSBASE
  2

  9
$PUCSNAME
  2

  9
$PUCSORG
 10
0.0
 20
0.0
 30
0.0
  9
$PUCSXDIR
 10
1.0
 20
0.0
 30
0.0
  9
$PUCSYDIR
 10
0.0
 20
1.0
 30
0.0
  9
$PUCSORTHOREF
  2

  9
$PUCSORTHOVIEW
 70
     0
  9
$PUCSORGTOP
 10
0.0
 20
0.0
 30
0.0
  9
$PUCSORGBOTTOM
 10
0.0
 20
0.0
 30
0.0
  9
$PUCSORGLEFT
 10
0.0
 20
0.0
 30
0.0
  9
$PUCSORGRIGHT
 10
0.0
 20
0.0
 30
0.0
  9
$PUCSORGFRONT
 10
0.0
 20
0.0
 30
0.0
  9
$PUCSORGBACK
 10
0.0
 20
0.0
 30
0.0
  9
$USERI1
 70
     0
  9
$USERI2
 70
     0
  9
$USERI3
 70
     0
  9
$USERI4
 70
     0
  9
$USERI5
 70
     0
  9
$USERR1
 40
0.0
  9
$USERR2
 40
0.0
  9
$USERR3
 40
0.0
  9
$USERR4
 40
0.0
  9
$USERR5
 40
0.0
  9
$WORLDVIEW
 70
     1
  9
$SHADEDGE
 70
     3
  9
$SHADEDIF
 70
    70
  9
$TILEMODE
 70
     1
  9
$MAXACTVP
 70
    48
  9
$PINSBASE
 10
0.0
 20
0.0
 30
0.0
  9
$PLIMCHECK
 70
     0
  9
$PEXTMIN
 10
-0.0272640223288363
 20
-0.0272708832300168
 30
-0.0015258207003583
  9
$PEXTMAX
 10
594.0176119049631
 20
420.0192862694615
 30
0.0000000349246037
  9
$PLIMMIN
 10
1.592759999999999
 20
-1.235669
  9
$PLIMMAX
 10
595.726569
 20
418.681148
  9
$UNITMODE
 70
     0
  9
$VISRETAIN
 70
     0
  9
$PLINEGEN
 70
     1
  9
$PSLTSCALE
 70
     1
  9
$TREEDEPTH
 70
  3020
  9
$CMLSTYLE
  2
STANDARD
  9
$CMLJUST
 70
     0
  9
$CMLSCALE
 40
20.0
  9
$PROXYGRAPHICS
 70
     1
  9
$MEASUREMENT
 70
     1
  9
$CELWEIGHT
370
    -1
  9
$ENDCAPS
280
     0
  9
$JOINSTYLE
280
     0
  9
$LWDISPLAY
290
     0
  9
$INSUNITS
 70
     0
  9
$HYPERLINKBASE
  1

  9
$STYLESHEET
  1

  9
$XEDIT
290
     1
  9
$CEPSNTYPE
380
     0
  9
$PSTYLEMODE
290
     1
  9
$FINGERPRINTGUID
  2
{7FD28A7C-F8BA-11D3-9BCC-00A0C977751D}
  9
$VERSIONGUID
  2
{DAB7E841-E362-4C91-96C2-E50128BBB417}
  9
$EXTNAMES
290
     1
  9
$PSVPSCALE
 40
0.0
  9
$OLESTARTUP
290
     0
  0
ENDSEC
  0
SECTION
  2
CLASSES
  0
CLASS
  1
LWPOLYLINE
  2
AcDbPolyline
  3
AutoCAD 2000
 90
    32768
280
     0
281
     1
  0
CLASS
  1
ACDBDICTIONARYWDFLT
  2
AcDbDictionaryWithDefault
  3
AutoCAD 2000
 90
        0
280
     0
281
     0
  0
CLASS
  1
ACDBPLACEHOLDER
  2
AcDbPlaceHolder
  3
AutoCAD 2000
 90
        0
280
     0
281
     0
  0
CLASS
  1
LAYOUT
  2
AcDbLayout
  3
AutoCAD 2000
 90
        0
280
     0
281
     0
  0
CLASS
  1
PLOTSETTINGS
  2
AcDbPlotSettings
  3
AutoCAD 2000
 90
        0
280
     0
281
     0
  0
CLASS
  1
RASTERVARIABLES
  2
AcDbRasterVariables
  3
ISM
 90
        0
280
     0
281
     0
  0
CLASS
  1
IMAGE
  2
AcDbRasterImage
  3
ISM
 90
    32895
280
     0
281
     1
  0
CLASS
  1
OLE2FRAME
  2
AcDbOle2Frame
  3
AutoCAD 2000
 90
    32768
280
     0
281
     1
  0
CLASS
  1
HATCH
  2
AcDbHatch
  3
AutoCAD 2000
 90
    32768
280
     0
281
     1
  0
CLASS
  1
DICTIONARYVAR
  2
AcDbDictionaryVar
  3
AutoCAD 2000
 90
    32768
280
     0
281
     0
  0
CLASS
  1
IMAGEDEF
  2
AcDbRasterImageDef
  3
ISM
 90
    32768
280
     0
281
     0
  0
CLASS
  1
IMAGEDEF_REACTOR
  2
AcDbRasterImageDefReactor
  3
ISM
 90
    32769
280
     0
281
     0
  0
CLASS
  1
IDBUFFER
  2
AcDbIdBuffer
  3
AutoCAD 2000
 90
    32768
280
     0
281
     0
  0
CLASS
  1
SPATIAL_FILTER
  2
AcDbSpatialFilter
  3
AutoCAD 2000
 90
    32768
280
     0
281
     0
  0
CLASS
  1
XRECORD
  2
AcDbXrecord
  3
AutoCAD 2000
 90
    32768
280
     0
281
     0
  0
CLASS
  1
SORTENTSTABLE
  2
AcDbSortentsTable
  3
AutoCAD 2000
 90
    32768
280
     0
281
     0
  0
CLASS
  1
LAYER_INDEX
  2
AcDbLayerIndex
  3
AutoCAD 2000
 90
    32768
280
     0
281
     0
  0
CLASS
  1
SPATIAL_INDEX
  2
AcDbSpatialIndex
  3
AutoCAD 2000
 90
    32768
280
     0
281
     0
  0
CLASS
  1
OBJECT_PTR
  2
CAseDLPNTableRecord
  3
"ASE-LPNTableRecord"
 90
    32769
280
     0
281
     0
  0
CLASS
  1
VBA_PROJECT
  2
AcDbVbaProject
  3
"acadvba"
 90
    32769
280
     0
281
     0
  0
CLASS
  1
WIPEOUT
  2
AcDbWipeout
  3
WipeOut|AutoCAD Express Tool|expresstools@autodesk.com
 90
    32895
280
     0
281
     1
  0
CLASS
  1
WIPEOUTVARIABLES
  2
AcDbWipeoutVariables
  3
WipeOut|AutoCAD Express Tool|expresstools@autodesk.com
 90
    32768
280
     0
281
     0
  0
CLASS
  1
RTEXT
  2
RText
  3
RText|AutoCAD Express Tool|expresstools@autodesk.com
 90
    32768
280
     0
281
     1
  0
CLASS
  1
ARCALIGNEDTEXT
  2
AcDbArcAlignedText
  3
ATEXT|AutoCAD Express Tool|expresstools@autodesk.com
 90
    32768
280
     0
281
     1
  0
ENDSEC
  0
SECTION
  2
TABLES
  0
TABLE
  2
VPORT
  5
8
330
0
100
AcDbSymbolTable
 70
     2
  0
VPORT
  5
43E4
330
8
100
AcDbSymbolTableRecord
100
AcDbViewportTableRecord
  2
*Active
 70
     0
 10
0.0
 20
0.0
 11
1.0
 21
1.0
 12
-44.00070817132473
 22
1215.972440077943
 13
0.0
 23
0.0
 14
5.0
 24
5.0
 15
10.0
 25
10.0
 16
0.0
 26
0.0
 36
1.0
 17
0.0
 27
0.0
 37
0.0
 40
1847.66743901965
 41
1.593716143011917
 42
50.0
 43
0.0
 44
0.0
 50
0.0
 51
0.0
 71
     0
 72
   100
 73
     1
 74
     0
 75
     0
 76
     0
 77
     0
 78
     0
281
     0
 65
     1
110
0.0
120
0.0
130
0.0
111
1.0
121
0.0
131
0.0
112
0.0
122
1.0
132
0.0
 79
     0
146
0.0
  0
ENDTAB
  0
TABLE
  2
LTYPE
  5
5
330
0
100
AcDbSymbolTable
 70
     3
  0
LTYPE
  5
12
330
5
100
AcDbSymbolTableRecord
100
AcDbLinetypeTableRecord
  2
ByBlock
 70
     0
  3

 72
    65
 73
     0
 40
0.0
  0
LTYPE
  5
13
330
5
100
AcDbSymbolTableRecord
100
AcDbLinetypeTableRecord
  2
ByLayer
 70
     0
  3

 72
    65
 73
     0
 40
0.0
  0
LTYPE
  5
14
330
5
100
AcDbSymbolTableRecord
100
AcDbLinetypeTableRecord
  2
CONTINUOUS
 70
     0
  3
Solid line
 72
    65
 73
     0
 40
0.0
  0
ENDTAB
  0
TABLE
  2
LAYER
  5
2
330
0
100
AcDbSymbolTable
 70
    10
  0
LAYER
  5
E
330
2
100
AcDbSymbolTableRecord
100
AcDbLayerTableRecord
  2
0
 70
     0
 62
     7
  6
CONTINUOUS
370
    -3
390
1AC
  0
LAYER
  5
133
330
2
100
AcDbSymbolTableRecord
100
AcDbLayerTableRecord
  2
DEFPOINTS
 70
     0
 62
     7
  6
CONTINUOUS
290
     0
370
    -3
390
1AC
  0
ENDTAB
  0
TABLE
  2
STYLE
  5
3
330
0
100
AcDbSymbolTable
 70
     3
  0
STYLE
  5
F
330
3
100
AcDbSymbolTableRecord
100
AcDbTextStyleTableRecord
  2
STANDARD
 70
     0
 40
0.0
 41
1.0
 50
0.0
 71
     0
 42
2.5
  3
txt
  4

  0
STYLE
  5
30
330
3
100
AcDbSymbolTableRecord
100
AcDbTextStyleTableRecord
  2
DIMFONT
 70
     0
 40
0.0
 41
1.0
 50
10.0
 71
     0
 42
3.2
  3
romans.shx
  4
extfont.shx
  0
ENDTAB
  0
TABLE
  2
VIEW
  5
6
330
0
100
AcDbSymbolTable
 70
     4
  0
VIEW
  5
39
330
6
100
AcDbSymbolTableRecord
100
AcDbViewTableRecord
  2
A1
 70
     0
 40
660.0
 10
420.5
 20
297.0
 41
1136.871508
 11
0.0
 21
0.0
 31
1.0
 12
0.0
 22
0.0
 32
0.0
 42
50.0
 43
0.0
 44
0.0
 50
0.0
 71
     0
281
     1
 72
     0
  0
VIEW
  5
3A
330
6
100
AcDbSymbolTableRecord
100
AcDbViewTableRecord
  2
A2
 70
     0
 40
466.666667
 10
297.0
 20
210.0
 41
803.8485410000001
 11
0.0
 21
0.0
 31
1.0
 12
0.0
 22
0.0
 32
0.0
 42
50.0
 43
0.0
 44
0.0
 50
0.0
 71
     0
281
     1
 72
     0
  0
VIEW
  5
3B
330
6
100
AcDbSymbolTableRecord
100
AcDbViewTableRecord
  2
A3
 70
     0
 40
330.0
 10
210.0
 20
148.5
 41
568.4357539999998
 11
0.0
 21
0.0
 31
1.0
 12
0.0
 22
0.0
 32
0.0
 42
50.0
 43
0.0
 44
0.0
 50
0.0
 71
     0
281
     1
 72
     0
  0
VIEW
  5
3C
330
6
100
AcDbSymbolTableRecord
100
AcDbViewTableRecord
  2
A4
 70
     0
 40
330.0
 10
105.0
 20
148.5
 41
568.4357539999998
 11
0.0
 21
0.0
 31
1.0
 12
0.0
 22
0.0
 32
0.0
 42
50.0
 43
0.0
 44
0.0
 50
0.0
 71
     0
281
     1
 72
     0
  0
ENDTAB
  0
TABLE
  2
UCS
  5
7
330
0
100
AcDbSymbolTable
 70
     0
  0
ENDTAB
  0
TABLE
  2
APPID
  5
9
330
0
100
AcDbSymbolTable
 70
     1
  0
APPID
  5
10
330
9
100
AcDbSymbolTableRecord
100
AcDbRegAppTableRecord
  2
ACAD
 70
     0
  0
ENDTAB
  0
TABLE
  2
DIMSTYLE
  5
A
330
0
100
AcDbSymbolTable
 70
     3
100
AcDbDimStyleTable
 71
     0
  0
DIMSTYLE
105
4F
102
{ACAD_REACTORS
330
3280
330
328C
330
32D7
330
38EC
330
38D5
102
}
330
A
100
AcDbSymbolTableRecord
100
AcDbDimStyleTableRecord
  2
1_5
 70
     0
 40
5.0
 41
3.0
 42
0.0
 43
10.0
 44
1.0
 73
     0
 74
     0
 77
     3
 78
     8
 79
     2
140
3.2
141
0.0
146
0.75
147
1.0
172
     1
173
     1
179
     2
284
     8
340
30
341
125
343
125
344
125
  0
DIMSTYLE
105
C28
330
A
100
AcDbSymbolTableRecord
100
AcDbDimStyleTableRecord
  2
STANDARD
 70
     0
340
F
  0
ENDTAB
  0
TABLE
  2
BLOCK_RECORD
  5
1
330
0
100
AcDbSymbolTable
 70
    11
  0
BLOCK_RECORD
  5
18
330
1
100
AcDbSymbolTableRecord
100
AcDbBlockTableRecord
  2
*MODEL_SPACE
340
1AF
  0
BLOCK_RECORD
  5
15
330
1
100
AcDbSymbolTableRecord
100
AcDbBlockTableRecord
  2
*PAPER_SPACE
340
1B0
  0
BLOCK_RECORD
  5
125
330
1
100
AcDbSymbolTableRecord
100
AcDbBlockTableRecord
  2
_OPEN
340
0
102
{BLKREFS
331
4287
331
4288
331
4290
331
4291
331
4299
331
429A
331
427D
331
427E
331
4274
331
4275
331
4374
331
4375
331
4380
331
4381
331
438C
331
438D
331
4398
331
4399
331
43A4
331
43A5
331
43B9
331
43BA
331
43C2
331
43C3
331
43CB
331
43CC
331
43D4
331
43D5
331
43DD
331
43DE
102
}
  0
ENDTAB
  0
ENDSEC
  0
SECTION
  2
BLOCKS
  0
BLOCK
  5
19
330
18
100
AcDbEntity
  8
0
100
AcDbBlockBegin
  2
*MODEL_SPACE
 70
     0
 10
0.0
 20
0.0
 30
0.0
  3
*MODEL_SPACE
  1

  0
ENDBLK
  5
1A
330
18
100
AcDbEntity
  8
0
100
AcDbBlockEnd
  0
BLOCK
  5
16
330
15
100
AcDbEntity
 67
     1
  8
0
100
AcDbBlockBegin
  2
*PAPER_SPACE
 70
     0
 10
0.0
 20
0.0
 30
0.0
  3
*PAPER_SPACE
  1

  0
ENDBLK
  5
17
330
15
100
AcDbEntity
 67
     1
  8
0
100
AcDbBlockEnd
  0
BLOCK
  5
126
330
125
100
AcDbEntity
  8
0
100
AcDbBlockBegin
  2
_OPEN
 70
     0
 10
0.0
 20
0.0
 30
0.0
  3
_OPEN
  1

  0
LINE
  5
127
330
125
100
AcDbEntity
  8
0
  6
ByBlock
 62
     0
100
AcDbLine
 10
-1.0
 20
0.166667
 30
0.0
 11
0.0
 21
0.0
 31
0.0
  0
LINE
  5
128
330
125
100
AcDbEntity
  8
0
  6
ByBlock
 62
     0
100
AcDbLine
 10
0.0
 20
0.0
 30
0.0
 11
-1.0
 21
-0.166667
 31
0.0
  0
LINE
  5
129
330
125
100
AcDbEntity
  8
0
  6
ByBlock
 62
     0
100
AcDbLine
 10
0.0
 20
0.0
 30
0.0
 11
-1.0
 21
0.0
 31
0.0
  0
ENDBLK
  5
12A
330
125
100
AcDbEntity
  8
0
100
AcDbBlockEnd
  0
ENDSEC
  0
SECTION
  2
ENTITIES
  0
LINE
  5
3279
330
18
100
AcDbEntity
  8
0
100
AcDbLine
 10
-815.897898
 20
1398.890532
 30
0.0
 11
-783.7584879999998
 21
1360.588332
 31
0.0
  0
LINE
  5
327A
330
18
100
AcDbEntity
  8
0
100
AcDbLine
 10
-815.8976479999999
 20
1398.890632
 30
0.0
 11
-848.0371779999996
 21
1360.588132
 31
0.0
  0
LINE
  5
327D
330
18
100
AcDbEntity
  8
0
100
AcDbLine
 10
-736.3977079999998
 20
1553.890532
 30
0.0
 11
-690.249508
 21
1381.663132
 31
0.0
  0
LINE
  5
327E
330
18
100
AcDbEntity
  8
0
100
AcDbLine
 10
-895.397898
 20
1553.890532
 30
0.0
 11
-941.5460279999999
 21
1381.663232
 31
0.0
  0
ARC
  5
327F
330
18
100
AcDbEntity
  8
0
100
AcDbCircle
 10
-655.897708
 20
1768.890332
 30
0.0
 40
110.0
100
AcDbArc
 50
270.0
 51
0.000003
  0
ARC
  5
3282
330
18
100
AcDbEntity
  8
0
100
AcDbCircle
 10
-655.897708
 20
1768.890332
 30
0.0
 40
142.0
100
AcDbArc
 50
270.0
 51
0.000003
  0
LINE
  5
3284
330
18
100
AcDbEntity
  8
0
100
AcDbLine
 10
-707.897808
 20
1666.890532
 30
0.0
 11
-707.897808
 21
1669.890532
 31
0.0
  0
LINE
  5
3285
330
18
100
AcDbEntity
  8
0
100
AcDbLine
 10
-734.8978080000001
 20
1664.890532
 30
0.0
 11
-734.8978080000001
 21
1671.890532
 31
0.0
  0
LINE
  5
3286
330
18
100
AcDbEntity
  8
0
100
AcDbLine
 10
-689.897808
 20
1643.890532
 30
0.0
 11
-689.897808
 21
1680.890532
 31
0.0
  0
LINE
  5
3287
330
18
100
AcDbEntity
  8
0
100
AcDbLine
 10
-795.897778
 20
1658.890532
 30
0.0
 11
-795.897778
 21
1679.890532
 31
0.0
  0
LINE
  5
3288
330
18
100
AcDbEntity
  8
0
100
AcDbLine
 10
-782.8978379999998
 20
1679.890532
 30
0.0
 11
-768.4978679999998
 21
1643.890532
 31
0.0
  0
LINE
  5
3289
330
18
100
AcDbEntity
  8
0
100
AcDbLine
 10
-782.8978379999998
 20
1650.890532
 30
0.0
 11
-782.8978379999998
 21
1679.890532
 31
0.0
  0
LINE
  5
328A
330
18
100
AcDbEntity
  8
0
100
AcDbLine
 10
-939.897778
 20
1658.890532
 30
0.0
 11
-939.897778
 21
1690.890532
 31
0.0
  0
LINE
  5
328D
330
18
100
AcDbEntity
  8
0
100
AcDbLine
 10
-888.5441980000001
 20
1724.890332
 30
0.0
 11
-742.752908
 21
1724.890332
 31
0.0
  0
LINE
  5
328E
330
18
100
AcDbEntity
  8
0
100
AcDbLine
 10
-885.2600179999997
 20
1728.890331999999
 30
0.0
 11
-746.235508
 21
1728.890331999999
 31
0.0
  0
LINE
  5
328F
330
18
100
AcDbEntity
  8
0
100
AcDbLine
 10
-889.1467379999998
 20
1750.890532
 30
0.0
 11
-742.648908
 21
1750.890532
 31
0.0
  0
LINE
  5
3290
330
18
100
AcDbEntity
  8
0
100
AcDbLine
 10
-943.397838
 20
1698.890532
 30
0.0
 11
-688.397808
 21
1698.890532
 31
0.0
  0
LINE
  5
3291
330
18
100
AcDbEntity
  8
0
100
AcDbLine
 10
-939.3978979999999
 20
1694.890532
 30
0.0
 11
-692.397808
 21
1694.890532
 31
0.0
  0
LINE
  5
3292
330
18
100
AcDbEntity
  8
0
100
AcDbLine
 10
-939.897778
 20
1690.890532
 30
0.0
 11
-691.897908
 21
1690.890532
 31
0.0
  0
LINE
  5
3293
330
18
100
AcDbEntity
  8
0
100
AcDbLine
 10
-939.897778
 20
1680.890532
 30
0.0
 11
-689.897808
 21
1680.890532
 31
0.0
  0
LINE
  5
3294
330
18
100
AcDbEntity
  8
0
100
AcDbLine
 10
-891.006718
 20
1729.733332
 30
0.0
 11
-889.937268
 21
1750.140332
 31
0.0
  0
LWPOLYLINE
  5
3295
330
18
100
AcDbEntity
  8
0
100
AcDbPolyline
 90
       17
 70
     0
 43
0.0
 10
-889.1472980000001
 20
1750.890432
 42
0.02472
 10
-889.2221179999998
 20
1750.886732
 42
0.024352
 10
-889.2962279999997
 20
1750.875632
 42
0.024016
 10
-889.368918
 20
1750.857532
 42
0.023722
 10
-889.4395580000001
 20
1750.832532
 42
0.023479
 10
-889.507528
 20
1750.800932
 42
0.023292
 10
-889.5722580000001
 20
1750.763132
 42
0.023648
 10
-889.6344279999999
 20
1750.718532
 42
0.023143
 10
-889.6910979999999
 20
1750.669332
 42
0.023037
 10
-889.742698
 20
1750.615332
 42
0.022888
 10
-889.7887179999999
 20
1750.557332
 42
0.023183
 10
-889.829508
 20
1750.494932
 42
0.023891
 10
-889.865018
 20
1750.427532
 42
0.023731
 10
-889.8934779999999
 20
1750.358231999999
 42
0.024026
 10
-889.9151880000001
 20
1750.286532
 42
0.024363
 10
-889.9298779999996
 20
1750.213032
 42
0.024733
 10
-889.937298
 20
1750.138532
  0
LINE
  5
3296
330
18
100
AcDbEntity
  8
0
100
AcDbLine
 10
-939.3977779999996
 20
1694.890532
 30
0.0
 11
-939.3977779999996
 21
1690.890532
 31
0.0
  0
LINE
  5
3297
330
18
100
AcDbEntity
  8
0
100
AcDbLine
 10
-943.397898
 20
1698.890331999999
 30
0.0
 11
-939.397838
 21
1694.890331999999
 31
0.0
  0
LINE
  5
3298
330
18
100
AcDbEntity
  8
0
100
AcDbLine
 10
-895.760508
 20
1698.890532
 30
0.0
 11
-894.4113279999998
 21
1724.633732
 31
0.0
  0
ARC
  5
3299
330
18
100
AcDbEntity
  8
0
100
AcDbCircle
 10
-891.4154179999997
 20
1724.476732
 30
0.0
 40
3.0
100
AcDbArc
 50
115.54292
 51
176.99999
  0
ARC
  5
329A
330
18
100
AcDbEntity
  8
0
100
AcDbCircle
 10
-894.0025679999999
 20
1729.890332
 30
0.0
 40
3.0
100
AcDbArc
 50
295.542925
 51
356.9999989999998
  0
LINE
  5
329B
330
18
100
AcDbEntity
  8
0
100
AcDbLine
 10
-734.8978080000001
 20
1671.890532
 30
0.0
 11
-709.8978080000001
 21
1671.890532
 31
0.0
  0
LINE
  5
329C
330
18
100
AcDbEntity
  8
0
100
AcDbLine
 10
-740.789108
 20
1729.733332
 30
0.0
 11
-741.8586079999998
 21
1750.140532
 31
0.0
  0
LWPOLYLINE
  5
329D
330
18
100
AcDbEntity
  8
0
100
AcDbPolyline
 90
       17
 70
     0
 43
0.0
 10
-742.6485079999999
 20
1750.890432
 42
-0.024731
 10
-742.573608
 20
1750.886732
 42
-0.024361
 10
-742.499508
 20
1750.875632
 42
-0.024023
 10
-742.426808
 20
1750.857532
 42
-0.023727
 10
-742.356208
 20
1750.832432
 42
-0.023481
 10
-742.288308
 20
1750.800932
 42
-0.02329
 10
-742.223508
 20
1750.763132
 42
-0.023643
 10
-742.161408
 20
1750.718532
 42
-0.023133
 10
-742.104708
 20
1750.669231999999
 42
-0.023022
 10
-742.0531079999998
 20
1750.615332
 42
-0.022874
 10
-742.007108
 20
1750.557332
 42
-0.023169
 10
-741.966308
 20
1750.494932
 42
-0.023879
 10
-741.9308079999998
 20
1750.427532
 42
-0.023718
 10
-741.902308
 20
1750.358231999999
 42
-0.024015
 10
-741.880608
 20
1750.286532
 42
-0.024356
 10
-741.865908
 20
1750.213032
 42
-0.024729
 10
-741.858408
 20
1750.138532
  0
LINE
  5
329E
330
18
100
AcDbEntity
  8
0
100
AcDbLine
 10
-736.035208
 20
1698.890331999999
 30
0.0
 11
-737.384408
 21
1724.633732
 31
0.0
  0
ARC
  5
329F
330
18
100
AcDbEntity
  8
0
100
AcDbCircle
 10
-737.7931079999998
 20
1729.890332
 30
0.0
 40
3.0
100
AcDbArc
 50
183.00001
 51
244.45708
  0
ARC
  5
32A0
330
18
100
AcDbEntity
  8
0
100
AcDbCircle
 10
-740.380308
 20
1724.476732
 30
0.0
 40
3.0
100
AcDbArc
 50
2.999999
 51
64.45708
  0
ARC
  5
32A1
330
18
100
AcDbEntity
  8
0
100
AcDbCircle
 10
-692.897808
 20
1681.890532
 30
0.0
 40
1.0
100
AcDbArc
 50
270.0
 51
0.000003
  0
LINE
  5
32A2
330
18
100
AcDbEntity
  8
0
100
AcDbLine
 10
-692.397808
 20
1694.890532
 30
0.0
 11
-692.397808
 21
1690.890532
 31
0.0
  0
LINE
  5
32A3
330
18
100
AcDbEntity
  8
0
100
AcDbLine
 10
-692.397808
 20
1694.890532
 30
0.0
 11
-688.397908
 21
1698.890532
 31
0.0
  0
LINE
  5
32A4
330
18
100
AcDbEntity
  8
0
100
AcDbLine
 10
-691.897908
 20
1681.890532
 30
0.0
 11
-691.897908
 21
1690.890532
 31
0.0
  0
ARC
  5
32A5
330
18
100
AcDbEntity
  8
0
100
AcDbCircle
 10
-709.8978080000001
 20
1669.890532
 30
0.0
 40
2.0
100
AcDbArc
 50
0.000003
 51
90.00001000000002
  0
LWPOLYLINE
  5
32A6
330
18
100
AcDbEntity
  8
0
100
AcDbPolyline
 90
        4
 70
     0
 43
0.0
 10
-795.897778
 20
1657.890532
 42
-0.054829
 10
-788.1031379999998
 20
1654.516931999999
 42
-0.061753
 10
-781.2946379999998
 20
1649.446932
 42
-0.057229
 10
-775.897838
 20
1642.890532
  0
LINE
  5
32A7
330
18
100
AcDbEntity
  8
0
100
AcDbLine
 10
-895.397838
 20
1553.890532
 30
0.0
 11
-736.3977079999998
 21
1553.890532
 31
0.0
  0
LINE
  5
32A8
330
18
100
AcDbEntity
  8
0
100
AcDbLine
 10
-895.397838
 20
1603.890532
 30
0.0
 11
-736.3977079999998
 21
1603.890532
 31
0.0
  0
LINE
  5
32A9
330
18
100
AcDbEntity
  8
0
100
AcDbLine
 10
-815.897838
 20
1658.890532
 30
0.0
 11
-736.8977079999998
 21
1658.890532
 31
0.0
  0
LINE
  5
32AA
330
18
100
AcDbEntity
  8
0
100
AcDbLine
 10
-937.8977180000001
 20
1626.890532
 30
0.0
 11
-655.897708
 21
1626.890532
 31
0.0
  0
LINE
  5
32AC
330
18
100
AcDbEntity
  8
0
100
AcDbLine
 10
-894.8979579999999
 20
1658.890532
 30
0.0
 11
-795.897778
 21
1658.890532
 31
0.0
  0
LINE
  5
32AD
330
18
100
AcDbEntity
  8
0
100
AcDbLine
 10
-939.897778
 20
1658.890532
 30
0.0
 11
-795.897778
 21
1658.890532
 31
0.0
  0
LINE
  5
32AE
330
18
100
AcDbEntity
  8
0
100
AcDbLine
 10
-895.397838
 20
1553.890532
 30
0.0
 11
-895.397838
 21
1603.890532
 31
0.0
  0
ARC
  5
32AF
330
18
100
AcDbEntity
  8
0
100
AcDbCircle
 10
-937.8977180000001
 20
1642.890332
 30
0.0
 40
16.0
100
AcDbArc
 50
90.00001000000002
 51
270.000001
  0
LINE
  5
32B0
330
18
100
AcDbEntity
  8
0
100
AcDbLine
 10
-893.897778
 20
1603.890532
 30
0.0
 11
-893.897778
 21
1626.890532
 31
0.0
  0
LINE
  5
32B1
330
18
100
AcDbEntity
  8
0
100
AcDbLine
 10
-811.1479580000001
 20
1597.632931999999
 30
0.0
 11
-815.897898
 21
1600.375432
 31
0.0
  0
CIRCLE
  5
32B2
330
18
100
AcDbEntity
  8
0
100
AcDbCircle
 10
-815.897838
 20
1594.890532
 30
0.0
 40
6.5
  0
LINE
  5
32B3
330
18
100
AcDbEntity
  8
0
100
AcDbLine
 10
-815.8977179999999
 20
1600.375432
 30
0.0
 11
-820.6475280000002
 21
1597.632931999999
 31
0.0
  0
LINE
  5
32B4
330
18
100
AcDbEntity
  8
0
100
AcDbLine
 10
-874.5779479999999
 20
1603.890532
 30
0.0
 11
-874.5779479999999
 21
1626.890532
 31
0.0
  0
LINE
  5
32B5
330
18
100
AcDbEntity
  8
0
100
AcDbLine
 10
-872.4566779999999
 20
1603.890532
 30
0.0
 11
-872.4566779999999
 21
1626.890532
 31
0.0
  0
LINE
  5
32B6
330
18
100
AcDbEntity
  8
0
100
AcDbLine
 10
-869.9813279999997
 20
1603.890532
 30
0.0
 11
-869.9813279999997
 21
1626.890532
 31
0.0
  0
LINE
  5
32B7
330
18
100
AcDbEntity
  8
0
100
AcDbLine
 10
-805.8978379999999
 20
1603.890532
 30
0.0
 11
-805.270578
 21
1626.890532
 31
0.0
  0
LINE
  5
32B8
330
18
100
AcDbEntity
  8
0
100
AcDbLine
 10
-825.8977179999996
 20
1603.890331999999
 30
0.0
 11
-826.5250379999999
 21
1626.890532
 31
0.0
  0
LINE
  5
32BA
330
18
100
AcDbEntity
  8
0
100
AcDbLine
 10
-815.897468
 20
1589.405632
 30
0.0
 11
-811.147648
 21
1592.148132
 31
0.0
  0
LINE
  5
32BB
330
18
100
AcDbEntity
  8
0
100
AcDbLine
 10
-811.1478379999999
 20
1592.148132
 30
0.0
 11
-811.1478379999999
 21
1597.632931999999
 31
0.0
  0
LINE
  5
32BC
330
18
100
AcDbEntity
  8
0
100
AcDbLine
 10
-820.647778
 20
1592.148132
 30
0.0
 11
-820.647778
 21
1597.632931999999
 31
0.0
  0
LINE
  5
32BD
330
18
100
AcDbEntity
  8
0
100
AcDbLine
 10
-815.897838
 20
1589.405932
 30
0.0
 11
-820.647778
 21
1592.148332
 31
0.0
  0
LWPOLYLINE
  5
32BE
330
18
100
AcDbEntity
  8
0
100
AcDbPolyline
 90
        4
 70
     0
 43
0.0
 10
-707.897808
 20
1664.890532
 42
-0.061698
 10
-716.791408
 20
1662.506731999999
 42
-0.06897
 10
-725.993408
 20
1662.533232
 42
-0.059729
 10
-734.8978080000001
 20
1664.890532
  0
LINE
  5
32BF
330
18
100
AcDbEntity
  8
0
100
AcDbLine
 10
-775.897838
 20
1643.890532
 30
0.0
 11
-689.897808
 21
1643.890532
 31
0.0
  0
LINE
  5
32C0
330
18
100
AcDbEntity
  8
0
100
AcDbLine
 10
-736.3977079999998
 20
1553.890532
 30
0.0
 11
-736.3977079999998
 21
1603.890532
 31
0.0
  0
LWPOLYLINE
  5
32C1
330
18
100
AcDbEntity
  8
0
100
AcDbPolyline
 90
        4
 70
     0
 43
0.0
 10
-734.8978080000001
 20
1663.890532
 42
0.043828
 10
-747.331008
 20
1659.671032
 42
0.047104
 10
-758.798208
 20
1653.279132
 42
0.044569
 10
-768.8977179999998
 20
1644.890332
  0
LINE
  5
32C2
330
18
100
AcDbEntity
  8
0
100
AcDbLine
 10
-757.217708
 20
1603.890532
 30
0.0
 11
-757.217708
 21
1626.890532
 31
0.0
  0
LINE
  5
32C3
330
18
100
AcDbEntity
  8
0
100
AcDbLine
 10
-759.3391079999999
 20
1603.890532
 30
0.0
 11
-759.3391079999999
 21
1626.890532
 31
0.0
  0
LINE
  5
32C4
330
18
100
AcDbEntity
  8
0
100
AcDbLine
 10
-761.814308
 20
1603.890532
 30
0.0
 11
-761.814308
 21
1626.890532
 31
0.0
  0
LINE
  5
32C5
330
18
100
AcDbEntity
  8
0
100
AcDbLine
 10
-736.8977079999998
 20
1643.890532
 30
0.0
 11
-733.8977079999998
 21
1643.890532
 31
0.0
  0
ARC
  5
32C6
330
18
100
AcDbEntity
  8
0
100
AcDbCircle
 10
-715.7686079999998
 20
1623.112932
 30
0.0
 40
3.322595999999998
100
AcDbArc
 50
235.61609
 51
295.6167939999999
  0
ARC
  5
32C7
330
18
100
AcDbEntity
  8
0
100
AcDbCircle
 10
-721.397808
 20
1632.210131999999
 30
0.0
 40
12.419868
100
AcDbArc
 50
252.4126399999999
 51
287.5873459999999
  0
LINE
  5
32C8
330
18
100
AcDbEntity
  8
0
100
AcDbLine
 10
-713.8923079999998
 20
1620.371031999999
 30
0.0
 11
-713.8923079999998
 21
1625.290431999999
 31
0.0
  0
LINE
  5
32C9
330
18
100
AcDbEntity
  8
0
100
AcDbLine
 10
-717.6450079999998
 20
1620.371031999999
 30
0.0
 11
-717.6450079999998
 21
1625.290431999999
 31
0.0
  0
LINE
  5
32CA
330
18
100
AcDbEntity
  8
0
100
AcDbLine
 10
-725.1505080000002
 20
1620.371031999999
 30
0.0
 11
-725.1505080000002
 21
1625.290431999999
 31
0.0
  0
LINE
  5
32CB
330
18
100
AcDbEntity
  8
0
100
AcDbLine
 10
-716.7478079999998
 20
1626.890532
 30
0.0
 11
-716.7478079999998
 21
1625.290431999999
 31
0.0
  0
LINE
  5
32CC
330
18
100
AcDbEntity
  8
0
100
AcDbLine
 10
-726.0480079999998
 20
1626.890532
 30
0.0
 11
-726.0480079999998
 21
1625.290431999999
 31
0.0
  0
LINE
  5
32CD
330
18
100
AcDbEntity
  8
0
100
AcDbLine
 10
-712.397808
 20
1626.890532
 30
0.0
 11
-712.397808
 21
1625.290431999999
 31
0.0
  0
LINE
  5
32CE
330
18
100
AcDbEntity
  8
0
100
AcDbLine
 10
-737.897808
 20
1603.890532
 30
0.0
 11
-737.897808
 21
1626.890532
 31
0.0
  0
LINE
  5
32CF
330
18
100
AcDbEntity
  8
0
100
AcDbLine
 10
-728.903308
 20
1620.371031999999
 30
0.0
 11
-728.903308
 21
1625.290431999999
 31
0.0
  0
LINE
  5
32D0
330
18
100
AcDbEntity
  8
0
100
AcDbLine
 10
-730.397808
 20
1626.890532
 30
0.0
 11
-730.397808
 21
1625.290431999999
 31
0.0
  0
ARC
  5
32D1
330
18
100
AcDbEntity
  8
0
100
AcDbCircle
 10
-727.027008
 20
1623.113232
 30
0.0
 40
3.322668
100
AcDbArc
 50
244.38553
 51
304.383145
  0
LINE
  5
32D2
330
18
100
AcDbEntity
  8
0
100
AcDbLine
 10
-727.897908
 20
1619.790232
 30
0.0
 11
-714.897808
 21
1619.790232
 31
0.0
  0
LINE
  5
32D3
330
18
100
AcDbEntity
  8
0
100
AcDbLine
 10
-712.397808
 20
1625.290431999999
 30
0.0
 11
-730.397808
 21
1625.290431999999
 31
0.0
  0
LINE
  5
32D4
330
18
100
AcDbEntity
  8
0
100
AcDbLine
 10
-689.897808
 20
1658.890532
 30
0.0
 11
-655.897708
 21
1658.890532
 31
0.0
  0
ARC
  5
32D5
330
18
100
AcDbEntity
  8
0
100
AcDbCircle
 10
-705.897908
 20
1666.890532
 30
0.0
 40
2.0
100
AcDbArc
 50
179.9999899999999
 51
270.000001
  0
LINE
  5
32D6
330
18
100
AcDbEntity
  8
0
100
AcDbLine
 10
-705.897908
 20
1664.890532
 30
0.0
 11
-689.897808
 21
1664.890532
 31
0.0
  0
LINE
  5
32D8
330
18
100
AcDbEntity
  8
0
100
AcDbLine
 10
-513.897808
 20
2031.890532
 30
0.0
 11
-513.897808
 21
1768.890332
 31
0.0
  0
LINE
  5
32DA
330
18
100
AcDbEntity
  8
0
100
AcDbLine
 10
-545.897908
 20
2031.890532
 30
0.0
 11
-545.897908
 21
1768.890332
 31
0.0
  0
LINE
  5
32DB
330
18
100
AcDbEntity
  8
0
100
AcDbLine
 10
-545.897908
 20
2026.890532
 30
0.0
 11
-513.897808
 21
2026.890532
 31
0.0
  0
LINE
  5
32DD
330
18
100
AcDbEntity
  8
0
100
AcDbLine
 10
-545.897908
 20
2031.890532
 30
0.0
 11
-513.897808
 21
2031.890532
 31
0.0
  0
LINE
  5
32F6
330
18
100
AcDbEntity
  8
0
100
AcDbLine
 10
-621.415508
 20
1127.807932
 30
0.0
 11
-725.8003079999999
 21
1100.146732
 31
0.0
  0
LINE
  5
32F7
330
18
100
AcDbEntity
  8
0
100
AcDbLine
 10
-619.412808
 20
1111.795332
 30
0.0
 11
-724.3425079999998
 21
1086.279332
 31
0.0
  0
LINE
  5
32F8
330
18
100
AcDbEntity
  8
0
100
AcDbLine
 10
-618.116208
 20
1106.462932
 30
0.0
 11
-723.0459080000001
 21
1080.947032
 31
0.0
  0
LINE
  5
32F9
330
18
100
AcDbEntity
  8
0
100
AcDbLine
 10
-616.4421079999998
 20
1090.412531999999
 30
0.0
 11
-721.8727079999998
 21
1067.052632
 31
0.0
  0
LINE
  5
32FA
330
18
100
AcDbEntity
  8
0
100
AcDbLine
 10
-615.255008
 20
1085.054732
 30
0.0
 11
-720.685508
 21
1061.694832
 31
0.0
  0
LINE
  5
32FB
330
18
100
AcDbEntity
  8
0
100
AcDbLine
 10
-613.910208
 20
1068.973532
 30
0.0
 11
-719.7975079999999
 21
1047.779332
 31
0.0
  0
LINE
  5
32FC
330
18
100
AcDbEntity
  8
0
100
AcDbLine
 10
-612.833108
 20
1063.592532
 30
0.0
 11
-718.720508
 21
1042.398332
 31
0.0
  0
LINE
  5
32FD
330
18
100
AcDbEntity
  8
0
100
AcDbLine
 10
-611.818208
 20
1047.487132
 30
0.0
 11
-718.1178079999998
 21
1028.467532
 31
0.0
  0
LINE
  5
32FE
330
18
100
AcDbEntity
  8
0
100
AcDbLine
 10
-610.851708
 20
1042.085232
 30
0.0
 11
-717.151208
 21
1023.065732
 31
0.0
  0
LINE
  5
32FF
330
18
100
AcDbEntity
  8
0
100
AcDbLine
 10
-610.167108
 20
1025.962232
 30
0.0
 11
-716.834008
 21
1009.125432
 31
0.0
  0
LINE
  5
3300
330
18
100
AcDbEntity
  8
0
100
AcDbLine
 10
-609.311508
 20
1020.541632
 30
0.0
 11
-715.978408
 21
1003.704832
 31
0.0
  0
LINE
  5
3301
330
18
100
AcDbEntity
  8
0
100
AcDbLine
 10
-608.957308
 20
1004.408032
 30
0.0
 11
-715.947008
 21
989.760932
 31
0.0
  0
LINE
  5
3302
330
18
100
AcDbEntity
  8
0
100
AcDbLine
 10
-608.213008
 20
998.9711319999999
 30
0.0
 11
-715.202608
 21
984.3240319999999
 31
0.0
  0
LINE
  5
3303
330
18
100
AcDbEntity
  8
0
100
AcDbLine
 10
-608.189808
 20
982.833632
 30
0.0
 11
-715.457008
 21
970.382432
 31
0.0
  0
LINE
  5
3304
330
18
100
AcDbEntity
  8
0
100
AcDbLine
 10
-607.557008
 20
977.3826319999999
 30
0.0
 11
-714.824208
 21
964.931432
 31
0.0
  0
LINE
  5
3305
330
18
100
AcDbEntity
  8
0
100
AcDbLine
 10
-607.864508
 20
961.2480319999999
 30
0.0
 11
-715.3646079999998
 21
950.998032
 31
0.0
  0
ARC
  5
330A
330
18
100
AcDbEntity
  8
0
100
AcDbCircle
 10
-1661.093798
 20
956.1729319999999
 30
0.0
 40
1051.0
100
AcDbArc
 50
9.660225999999999
 51
10.53416
  0
ARC
  5
330B
330
18
100
AcDbEntity
  8
0
100
AcDbCircle
 10
-629.882908
 20
1172.965231999999
 30
0.0
 40
2.75
100
AcDbArc
 50
281.743997
 51
107.1906199999999
  0
ARC
  5
330C
330
18
100
AcDbEntity
  8
0
100
AcDbCircle
 10
-625.6563079999998
 20
1151.784331999998
 30
0.0
 40
2.75
100
AcDbArc
 50
280.569597
 51
106.01622
  0
LINE
  5
330D
330
18
100
AcDbEntity
  8
0
100
AcDbLine
 10
-626.665808
 20
1154.355532
 30
0.0
 11
-730.461708
 21
1124.560832
 31
0.0
  0
LINE
  5
330E
330
18
100
AcDbEntity
  8
0
100
AcDbLine
 10
-625.151708
 20
1149.080832
 30
0.0
 11
-728.947608
 21
1119.286132
 31
0.0
  0
LINE
  5
330F
330
18
100
AcDbEntity
  8
0
100
AcDbLine
 10
-622.821308
 20
1133.112432
 30
0.0
 11
-727.205908
 21
1105.451332
 31
0.0
  0
LINE
  5
3311
330
18
100
AcDbEntity
  8
0
100
AcDbLine
 10
-990.9959179999999
 20
1217.549332
 30
0.0
 11
-889.2272380000001
 21
1181.432332
 31
0.0
  0
LINE
  5
3312
330
18
100
AcDbEntity
  8
0
100
AcDbLine
 10
-992.831308
 20
1212.377732
 30
0.0
 11
-891.0626279999997
 21
1176.260631999998
 31
0.0
  0
ARC
  5
3313
330
18
100
AcDbEntity
  8
0
100
AcDbCircle
 10
-959.970468
 20
1335.561832
 30
0.0
 40
2.743743999999998
100
AcDbArc
 50
69.55338000000001
 51
255.00001
  0
LINE
  5
3314
330
18
100
AcDbEntity
  8
0
100
AcDbLine
 10
-958.092418
 20
1331.933432
 30
0.0
 11
-961.971508
 21
1317.456532
 31
0.0
  0
LINE
  5
3315
330
18
100
AcDbEntity
  8
0
100
AcDbLine
 10
-987.365488
 20
1233.273232
 30
0.0
 11
-886.358408
 21
1195.077932
 31
0.0
  0
LINE
  5
3316
330
18
100
AcDbEntity
  8
0
100
AcDbLine
 10
-985.424508
 20
1238.406132
 30
0.0
 11
-884.417428
 21
1200.210832
 31
0.0
  0
LINE
  5
3317
330
18
100
AcDbEntity
  8
0
100
AcDbLine
 10
-981.921758
 20
1253.626732
 30
0.0
 11
-880.737678
 21
1215.903031999999
 31
0.0
  0
LINE
  5
3318
330
18
100
AcDbEntity
  8
0
100
AcDbLine
 10
-980.004768
 20
1258.768732
 30
0.0
 11
-878.8206279999997
 21
1221.044932
 31
0.0
  0
LINE
  5
3319
330
18
100
AcDbEntity
  8
0
100
AcDbLine
 10
-976.5984580000001
 20
1273.493832
 30
0.0
 11
-875.4143179999998
 21
1235.769932
 31
0.0
  0
LINE
  5
331A
330
18
100
AcDbEntity
  8
0
100
AcDbLine
 10
-974.681348
 20
1278.635732
 30
0.0
 11
-873.497258
 21
1240.912031999999
 31
0.0
  0
LINE
  5
331B
330
18
100
AcDbEntity
  8
0
100
AcDbLine
 10
-971.292488
 20
1293.295432
 30
0.0
 11
-870.1084080000001
 21
1255.571732
 31
0.0
  0
LINE
  5
331C
330
18
100
AcDbEntity
  8
0
100
AcDbLine
 10
-969.3754979999999
 20
1298.437331999998
 30
0.0
 11
-868.1914179999999
 21
1260.713532
 31
0.0
  0
LINE
  5
331D
330
18
100
AcDbEntity
  8
0
100
AcDbLine
 10
-960.9289680000001
 20
1332.991032
 30
0.0
 11
-859.4967779999999
 21
1295.174731999999
 31
0.0
  0
LINE
  5
331E
330
18
100
AcDbEntity
  8
0
100
AcDbLine
 10
-965.9867679999999
 20
1313.096932
 30
0.0
 11
-864.802558
 21
1275.373231999999
 31
0.0
  0
LINE
  5
331F
330
18
100
AcDbEntity
  8
0
100
AcDbLine
 10
-964.069768
 20
1318.238832
 30
0.0
 11
-862.8855679999999
 21
1280.515032
 31
0.0
  0
LWPOLYLINE
  5
3321
330
18
100
AcDbEntity
  8
0
100
AcDbPolyline
 90
        6
 70
     0
 43
0.0
 10
-914.9500579999999
 20
861.2997320000001
 42
0.049176
 10
-935.4085280000001
 20
864.332132
 42
0.060713
 10
-955.989448
 20
862.472632
 42
0.004857
 10
-976.198218
 20
857.9239320000001
 42
-0.052697
 10
-996.7064179999999
 20
855.291732
 42
-0.067138
 10
-1017.137817999999
 20
858.302632
  0
LINE
  5
3322
330
18
100
AcDbEntity
  8
0
100
AcDbLine
 10
-996.1386779999999
 20
1196.582832
 30
0.0
 11
-893.6511279999999
 21
1162.559132
 31
0.0
  0
LINE
  5
3323
330
18
100
AcDbEntity
  8
0
100
AcDbLine
 10
-997.867688
 20
1191.374531999999
 30
0.0
 11
-895.3801380000001
 21
1157.351032
 31
0.0
  0
LINE
  5
3324
330
18
100
AcDbEntity
  8
0
100
AcDbLine
 10
-1000.850658
 20
1175.515332
 30
0.0
 11
-897.6872679999999
 21
1143.599432
 31
0.0
  0
LINE
  5
3325
330
18
100
AcDbEntity
  8
0
100
AcDbLine
 10
-1002.472538
 20
1170.272732
 30
0.0
 11
-899.309148
 21
1138.356832
 31
0.0
  0
LINE
  5
3326
330
18
100
AcDbEntity
  8
0
100
AcDbLine
 10
-1005.129828
 20
1154.355632
 30
0.0
 11
-901.3339279999996
 21
1124.560832
 31
0.0
  0
LINE
  5
3327
330
18
100
AcDbEntity
  8
0
100
AcDbLine
 10
-1006.643927999999
 20
1149.080932
 30
0.0
 11
-902.8480279999996
 21
1119.286132
 31
0.0
  0
LINE
  5
3328
330
18
100
AcDbEntity
  8
0
100
AcDbLine
 10
-1008.974438
 20
1133.112632
 30
0.0
 11
-904.589728
 21
1105.451432
 31
0.0
  0
LINE
  5
3329
330
18
100
AcDbEntity
  8
0
100
AcDbLine
 10
-1010.380077999998
 20
1127.808032
 30
0.0
 11
-905.9953679999999
 21
1100.146932
 31
0.0
  0
LINE
  5
332A
330
18
100
AcDbEntity
  8
0
100
AcDbLine
 10
-1012.382818
 20
1111.795332
 30
0.0
 11
-907.4531379999999
 21
1086.279432
 31
0.0
  0
LINE
  5
332B
330
18
100
AcDbEntity
  8
0
100
AcDbLine
 10
-1013.679518
 20
1106.463032
 30
0.0
 11
-908.749828
 21
1080.947132
 31
0.0
  0
LINE
  5
332C
330
18
100
AcDbEntity
  8
0
100
AcDbLine
 10
-1015.353648
 20
1090.412632
 30
0.0
 11
-909.9229779999999
 21
1067.052632
 31
0.0
  0
LINE
  5
332D
330
18
100
AcDbEntity
  8
0
100
AcDbLine
 10
-1016.540718
 20
1085.054831999998
 30
0.0
 11
-911.110058
 21
1061.694932
 31
0.0
  0
LINE
  5
332E
330
18
100
AcDbEntity
  8
0
100
AcDbLine
 10
-1017.885507999998
 20
1068.973431999998
 30
0.0
 11
-911.9982379999999
 21
1047.779232
 31
0.0
  0
LINE
  5
332F
330
18
100
AcDbEntity
  8
0
100
AcDbLine
 10
-1018.962598
 20
1063.592431999998
 30
0.0
 11
-913.0752679999996
 21
1042.398332
 31
0.0
  0
LINE
  5
3330
330
18
100
AcDbEntity
  8
0
100
AcDbLine
 10
-1019.977488
 20
1047.487132
 30
0.0
 11
-913.678108
 21
1028.467532
 31
0.0
  0
LINE
  5
3331
330
18
100
AcDbEntity
  8
0
100
AcDbLine
 10
-1020.944038
 20
1042.085232
 30
0.0
 11
-914.6445979999999
 21
1023.065732
 31
0.0
  0
LINE
  5
3332
330
18
100
AcDbEntity
  8
0
100
AcDbLine
 10
-1021.628667999998
 20
1025.962232
 30
0.0
 11
-914.961738
 21
1009.125432
 31
0.0
  0
LINE
  5
3333
330
18
100
AcDbEntity
  8
0
100
AcDbLine
 10
-1022.484257999999
 20
1020.541531999999
 30
0.0
 11
-915.8173880000001
 21
1003.704732
 31
0.0
  0
LINE
  5
3334
330
18
100
AcDbEntity
  8
0
100
AcDbLine
 10
-1022.838267999998
 20
1004.408132
 30
0.0
 11
-915.8486380000001
 21
989.761032
 31
0.0
  0
LINE
  5
3335
330
18
100
AcDbEntity
  8
0
100
AcDbLine
 10
-1023.582588
 20
998.9711319999999
 30
0.0
 11
-916.5929680000001
 21
984.324132
 31
0.0
  0
LINE
  5
3336
330
18
100
AcDbEntity
  8
0
100
AcDbLine
 10
-1023.605908
 20
982.833632
 30
0.0
 11
-916.3385080000001
 21
970.382432
 31
0.0
  0
LINE
  5
3337
330
18
100
AcDbEntity
  8
0
100
AcDbLine
 10
-1024.238658
 20
977.3826319999999
 30
0.0
 11
-916.971258
 21
964.931432
 31
0.0
  0
LINE
  5
3338
330
18
100
AcDbEntity
  8
0
100
AcDbLine
 10
-1023.931158
 20
961.247932
 30
0.0
 11
-916.4311579999999
 21
950.9979319999999
 31
0.0
  0
LINE
  5
3339
330
18
100
AcDbEntity
  8
0
100
AcDbLine
 10
-1024.452038
 20
955.785032
 30
0.0
 11
-916.9520379999999
 21
945.535032
 31
0.0
  0
LINE
  5
333A
330
18
100
AcDbEntity
  8
0
100
AcDbLine
 10
-1023.813977999998
 20
939.6602319999999
 30
0.0
 11
-916.1264779999999
 21
931.6156320000001
 31
0.0
  0
LINE
  5
333B
330
18
100
AcDbEntity
  8
0
100
AcDbLine
 10
-1024.222728
 20
934.187732
 30
0.0
 11
-916.535288
 21
926.143232
 31
0.0
  0
LINE
  5
333C
330
18
100
AcDbEntity
  8
0
100
AcDbLine
 10
-1020.808788
 20
874.974732
 30
0.0
 11
-912.830458
 21
873.563032
 31
0.0
  0
LINE
  5
333D
330
18
100
AcDbEntity
  8
0
100
AcDbLine
 10
-1020.880557999998
 20
869.487632
 30
0.0
 11
-912.902228
 21
868.075832
 31
0.0
  0
LINE
  5
333E
330
18
100
AcDbEntity
  8
0
100
AcDbLine
 10
-1022.252448
 20
896.5147319999998
 30
0.0
 11
-914.325688
 21
892.8901319999999
 31
0.0
  0
LINE
  5
333F
330
18
100
AcDbEntity
  8
0
100
AcDbLine
 10
-1022.436657999999
 20
891.0300320000001
 30
0.0
 11
-914.509898
 21
887.4056320000002
 31
0.0
  0
LINE
  5
3340
330
18
100
AcDbEntity
  8
0
100
AcDbLine
 10
-1023.254278
 20
918.0793320000001
 30
0.0
 11
-915.424628
 21
912.2435319999999
 31
0.0
  0
LINE
  5
3341
330
18
100
AcDbEntity
  8
0
100
AcDbLine
 10
-1023.550848
 20
912.599632
 30
0.0
 11
-915.7211379999999
 21
906.7639319999999
 31
0.0
  0
ARC
  5
3342
330
18
100
AcDbEntity
  8
0
100
AcDbCircle
 10
29.29819199999998
 20
956.1729319999999
 30
0.0
 40
1051.0
100
AcDbArc
 50
170.64023
 51
171.51417
  0
ARC
  5
3343
330
18
100
AcDbEntity
  8
0
100
AcDbCircle
 10
-981.2099080000001
 20
1256.283232
 30
0.0
 40
2.75
100
AcDbArc
 50
69.55338000000001
 51
255.00001
  0
LINE
  5
3344
330
18
100
AcDbEntity
  8
0
100
AcDbLine
 10
-968.703988
 20
1292.330431999999
 30
0.0
 11
-972.583078
 21
1277.853532
 31
0.0
  0
ARC
  5
3345
330
18
100
AcDbEntity
  8
0
100
AcDbCircle
 10
-970.580758
 20
1295.951832
 30
0.0
 40
2.75
100
AcDbArc
 50
69.55338000000001
 51
255.00001
  0
ARC
  5
3346
330
18
100
AcDbEntity
  8
0
100
AcDbCircle
 10
-965.2749679999999
 20
1315.753332
 30
0.0
 40
2.75
100
AcDbArc
 50
69.55338000000001
 51
255.00001
  0
LINE
  5
3347
330
18
100
AcDbEntity
  8
0
100
AcDbLine
 10
-963.3981979999999
 20
1312.131832
 30
0.0
 11
-967.277288
 21
1297.655032
 31
0.0
  0
ARC
  5
3348
330
18
100
AcDbEntity
  8
0
100
AcDbCircle
 10
-975.886548
 20
1276.150332
 30
0.0
 40
2.75
100
AcDbArc
 50
69.55338000000001
 51
255.00001
  0
LINE
  5
3349
330
18
100
AcDbEntity
  8
0
100
AcDbLine
 10
-974.0097779999999
 20
1272.529132
 30
0.0
 11
-977.8888679999999
 21
1258.052032
 31
0.0
  0
ARC
  5
334A
330
18
100
AcDbEntity
  8
0
100
AcDbCircle
 10
29.29819199999998
 20
956.1729319999999
 30
0.0
 40
1051.0
100
AcDbArc
 50
167.11704
 51
167.99097
  0
ARC
  5
334B
330
18
100
AcDbEntity
  8
0
100
AcDbCircle
 10
29.29819199999998
 20
956.1729319999999
 30
0.0
 40
1051.0
100
AcDbArc
 50
164.7682399999998
 51
165.64217
  0
ARC
  5
334C
330
18
100
AcDbEntity
  8
0
100
AcDbCircle
 10
-986.6412480000001
 20
1235.926132
 30
0.0
 40
2.75
100
AcDbArc
 50
69.28619000000001
 51
254.73282
  0
ARC
  5
334D
330
18
100
AcDbEntity
  8
0
100
AcDbCircle
 10
36.023092
 20
981.270632
 30
0.0
 40
1051.0
100
AcDbArc
 50
165.0354399999999
 51
165.9093699999999
  0
ARC
  5
334E
330
18
100
AcDbEntity
  8
0
100
AcDbCircle
 10
-992.161568
 20
1215.045032
 30
0.0
 40
2.75
100
AcDbArc
 50
70.46058000000002
 51
255.9072
  0
ARC
  5
334F
330
18
100
AcDbEntity
  8
0
100
AcDbCircle
 10
29.29819199999998
 20
956.1729319999999
 30
0.0
 40
1051.0
100
AcDbArc
 50
165.9426299999998
 51
166.8165699999998
  0
ARC
  5
3350
330
18
100
AcDbEntity
  8
0
100
AcDbCircle
 10
-997.2528180000001
 20
1194.055131999998
 30
0.0
 40
2.75
100
AcDbArc
 50
71.63498
 51
257.08161
  0
ARC
  5
3351
330
18
100
AcDbEntity
  8
0
100
AcDbCircle
 10
-1001.912727999998
 20
1172.965231999999
 30
0.0
 40
2.75
100
AcDbArc
 50
72.80938
 51
258.25599
  0
ARC
  5
3352
330
18
100
AcDbEntity
  8
0
100
AcDbCircle
 10
29.29819199999998
 20
956.1729319999999
 30
0.0
 40
1051.0
100
AcDbArc
 50
168.29143
 51
169.1653699999999
  0
ARC
  5
3353
330
18
100
AcDbEntity
  8
0
100
AcDbCircle
 10
-1006.139418
 20
1151.784331999998
 30
0.0
 40
2.75
100
AcDbArc
 50
73.98379
 51
259.4304
  0
ARC
  5
3354
330
18
100
AcDbEntity
  8
0
100
AcDbCircle
 10
29.29819199999998
 20
956.1729319999999
 30
0.0
 40
1051.0
100
AcDbArc
 50
169.4658399999999
 51
170.33977
  0
ARC
  5
3355
330
18
100
AcDbEntity
  8
0
100
AcDbCircle
 10
-1009.931098
 20
1130.521132
 30
0.0
 40
2.75
100
AcDbArc
 50
75.15818
 51
260.6048099999999
  0
ARC
  5
3356
330
18
100
AcDbEntity
  8
0
100
AcDbCircle
 10
-1024.182138
 20
980.1321319999999
 30
0.0
 40
2.75
100
AcDbArc
 50
83.37898
 51
268.8255999999999
  0
ARC
  5
3357
330
18
100
AcDbEntity
  8
0
100
AcDbCircle
 10
29.29819199999998
 20
956.1729319999999
 30
0.0
 40
1051.0
100
AcDbArc
 50
174.16344
 51
175.0373699999999
  0
ARC
  5
3358
330
18
100
AcDbEntity
  8
0
100
AcDbCircle
 10
29.29819199999998
 20
956.1729319999999
 30
0.0
 40
1051.0
100
AcDbArc
 50
172.98903
 51
173.8629699999999
  0
ARC
  5
3359
330
18
100
AcDbEntity
  8
0
100
AcDbCircle
 10
-1016.203318
 20
1087.784231999998
 30
0.0
 40
2.75
100
AcDbArc
 50
77.50696999999998
 51
262.9535999999999
  0
ARC
  5
335A
330
18
100
AcDbEntity
  8
0
100
AcDbCircle
 10
-1013.286198
 20
1109.184832
 30
0.0
 40
2.75
100
AcDbArc
 50
76.33258000000002
 51
261.7791899999999
  0
ARC
  5
335B
330
18
100
AcDbEntity
  8
0
100
AcDbCircle
 10
29.29819199999998
 20
956.1729319999999
 30
0.0
 40
1051.0
100
AcDbArc
 50
171.81464
 51
172.6885699999999
  0
ARC
  5
335C
330
18
100
AcDbEntity
  8
0
100
AcDbCircle
 10
-1018.681217999999
 20
1066.328232
 30
0.0
 40
2.75
100
AcDbArc
 50
78.68138
 51
264.12801
  0
ARC
  5
335D
330
18
100
AcDbEntity
  8
0
100
AcDbCircle
 10
29.29819199999998
 20
956.1729319999999
 30
0.0
 40
1051.0
100
AcDbArc
 50
176.5122399999999
 51
177.3861699999999
  0
ARC
  5
335E
330
18
100
AcDbEntity
  8
0
100
AcDbCircle
 10
29.29819199999998
 20
956.1729319999999
 30
0.0
 40
1051.0
100
AcDbArc
 50
175.33783
 51
176.21177
  0
ARC
  5
335F
330
18
100
AcDbEntity
  8
0
100
AcDbCircle
 10
-1020.718698
 20
1044.825931999999
 30
0.0
 40
2.75
100
AcDbArc
 50
79.85578000000002
 51
265.3023999999999
  0
ARC
  5
3360
330
18
100
AcDbEntity
  8
0
100
AcDbCircle
 10
-1022.315138
 20
1023.286531999999
 30
0.0
 40
2.75
100
AcDbArc
 50
81.03018
 51
266.4768099999999
  0
ARC
  5
3361
330
18
100
AcDbEntity
  8
0
100
AcDbCircle
 10
29.29819199999998
 20
956.1729319999999
 30
0.0
 40
1051.0
100
AcDbArc
 50
177.68663
 51
178.5605699999999
  0
ARC
  5
3362
330
18
100
AcDbEntity
  8
0
100
AcDbCircle
 10
-1023.469858
 20
1001.719032
 30
0.0
 40
2.75
100
AcDbArc
 50
82.20456999999997
 51
267.6511899999999
  0
ARC
  5
3363
330
18
100
AcDbEntity
  8
0
100
AcDbCircle
 10
29.29819199999998
 20
956.1729319999999
 30
0.0
 40
1051.0
100
AcDbArc
 50
182.38423
 51
183.25817
  0
ARC
  5
3364
330
18
100
AcDbEntity
  8
0
100
AcDbCircle
 10
29.29819199999998
 20
956.1729319999999
 30
0.0
 40
1051.0
100
AcDbArc
 50
180.03543
 51
180.90937
  0
ARC
  5
3365
330
18
100
AcDbEntity
  8
0
100
AcDbCircle
 10
-1024.451918
 20
958.5353320000001
 30
0.0
 40
2.75
100
AcDbArc
 50
84.55338000000002
 51
270.00001
  0
ARC
  5
3366
330
18
100
AcDbEntity
  8
0
100
AcDbCircle
 10
29.29819199999998
 20
956.1729319999999
 30
0.0
 40
1051.0
100
AcDbArc
 50
178.86104
 51
179.73497
  0
ARC
  5
3367
330
18
100
AcDbEntity
  8
0
100
AcDbCircle
 10
29.29819199999998
 20
956.1729319999999
 30
0.0
 40
1051.0
100
AcDbArc
 50
181.2098399999999
 51
182.08377
  0
ARC
  5
3368
330
18
100
AcDbEntity
  8
0
100
AcDbCircle
 10
-1024.279058
 20
936.937432
 30
0.0
 40
2.75
100
AcDbArc
 50
85.72778000000003
 51
271.174393
  0
ARC
  5
3369
330
18
100
AcDbEntity
  8
0
100
AcDbCircle
 10
-1023.663517999999
 20
915.347732
 30
0.0
 40
2.75
100
AcDbArc
 50
86.90219
 51
272.3488029999999
  0
ARC
  5
336A
330
18
100
AcDbEntity
  8
0
100
AcDbCircle
 10
29.29819199999998
 20
956.1729319999999
 30
0.0
 40
1051.0
100
AcDbArc
 50
183.55864
 51
184.43257
  0
ARC
  5
336B
330
18
100
AcDbEntity
  8
0
100
AcDbCircle
 10
-1022.605538
 20
893.775132
 30
0.0
 40
2.75
100
AcDbArc
 50
88.07658000000001
 51
273.5232129999999
  0
ARC
  5
336C
330
18
100
AcDbEntity
  8
0
100
AcDbCircle
 10
-1021.105718
 20
872.228632
 30
0.0
 40
2.75
100
AcDbArc
 50
89.25098
 51
274.6975959999999
  0
ARC
  5
336D
330
18
100
AcDbEntity
  8
0
100
AcDbCircle
 10
29.29819199999998
 20
956.1729319999999
 30
0.0
 40
1051.0
100
AcDbArc
 50
184.73303
 51
185.34322
  0
ARC
  5
336E
330
18
100
AcDbEntity
  8
0
100
AcDbCircle
 10
-1661.093798
 20
956.1729319999999
 30
0.0
 40
949.0
100
AcDbArc
 50
9.101523
 51
9.942838999999999
  0
ARC
  5
336F
330
18
100
AcDbEntity
  8
0
100
AcDbCircle
 10
29.29819199999998
 20
956.1729319999999
 30
0.0
 40
949.0
100
AcDbArc
 50
170.05716
 51
170.89848
  0
ARC
  5
3370
330
18
100
AcDbEntity
  8
0
100
AcDbCircle
 10
-869.396558
 20
1258.227932
 30
0.0
 40
2.75
100
AcDbArc
 50
244.1067499999999
 51
69.55338000000001
  0
LINE
  5
3371
330
18
100
AcDbEntity
  8
0
100
AcDbLine
 10
-872.6967279999996
 20
1256.536632
 30
0.0
 11
-876.5757579999997
 21
1242.059932
 31
0.0
  0
LINE
  5
3372
330
18
100
AcDbEntity
  8
0
100
AcDbLine
 10
-959.012098
 20
1338.132632
 30
0.0
 11
-857.5798380000001
 21
1300.316332
 31
0.0
  0
LINE
  5
3373
330
18
100
AcDbEntity
  8
0
100
AcDbLine
 10
-877.8024380000001
 20
1338.960131999999
 30
0.0
 11
-876.930918
 21
1343.903032
 31
0.0
  0
LINE
  5
3374
330
18
100
AcDbEntity
  8
0
100
AcDbLine
 10
-876.930858
 20
1343.903032
 30
0.0
 11
-877.900458
 21
1344.162732
 31
0.0
  0
LINE
  5
3375
330
18
100
AcDbEntity
  8
0
100
AcDbLine
 10
-849.2670380000001
 20
1340.113932
 30
0.0
 11
-889.8359479999998
 21
1350.984332
 31
0.0
  0
LINE
  5
3376
330
18
100
AcDbEntity
  8
0
100
AcDbLine
 10
-845.0611679999997
 20
1355.810232
 30
0.0
 11
-945.517408
 21
1382.727331999999
 31
0.0
  0
LINE
  5
3377
330
18
100
AcDbEntity
  8
0
100
AcDbLine
 10
-852.3728679999997
 20
1328.522832
 30
0.0
 11
-892.9417779999999
 21
1339.393232
 31
0.0
  0
LINE
  5
3379
330
18
100
AcDbEntity
  8
0
100
AcDbLine
 10
-856.5786179999999
 20
1312.826432
 30
0.0
 11
-957.0348579999999
 21
1339.743732
 31
0.0
  0
LINE
  5
337A
330
18
100
AcDbEntity
  8
0
100
AcDbLine
 10
-915.5369379999999
 20
1351.659232
 30
0.0
 11
-920.366648
 21
1352.953432
 31
0.0
  0
LINE
  5
337B
330
18
100
AcDbEntity
  8
0
100
AcDbLine
 10
-916.4428179999999
 20
1348.278432
 30
0.0
 11
-921.2725279999999
 21
1349.572532
 31
0.0
  0
LINE
  5
337C
330
18
100
AcDbEntity
  8
0
100
AcDbLine
 10
-914.631108
 20
1355.039932
 30
0.0
 11
-919.4607679999997
 21
1356.334131999999
 31
0.0
  0
LINE
  5
337D
330
18
100
AcDbEntity
  8
0
100
AcDbLine
 10
-912.260198
 20
1344.569632
 30
0.0
 11
-952.829168
 21
1355.439932
 31
0.0
  0
LINE
  5
337E
330
18
100
AcDbEntity
  8
0
100
AcDbLine
 10
-909.1543679999999
 20
1356.160632
 30
0.0
 11
-949.723338
 21
1367.031132
 31
0.0
  0
LINE
  5
337F
330
18
100
AcDbEntity
  8
0
100
AcDbLine
 10
-949.519908
 20
1375.517632
 30
0.0
 11
-956.8961880000001
 21
1347.988932
 31
0.0
  0
LINE
  5
3380
330
18
100
AcDbEntity
  8
0
100
AcDbLine
 10
-949.723338
 20
1367.031132
 30
0.0
 11
-952.829168
 21
1355.439932
 31
0.0
  0
LINE
  5
3381
330
18
100
AcDbEntity
  8
0
100
AcDbLine
 10
-945.517408
 20
1382.727331999999
 30
0.0
 11
-957.0348579999999
 21
1339.743732
 31
0.0
  0
LINE
  5
3382
330
18
100
AcDbEntity
  8
0
100
AcDbLine
 10
-945.517528
 20
1382.727331999999
 30
0.0
 11
-949.519908
 21
1375.517732
 31
0.0
  0
LINE
  5
3383
330
18
100
AcDbEntity
  8
0
100
AcDbLine
 10
-943.5855779999997
 20
1382.209732
 30
0.0
 11
-947.791388
 21
1366.513432
 31
0.0
  0
LINE
  5
3384
330
18
100
AcDbEntity
  8
0
100
AcDbLine
 10
-919.4607679999997
 20
1356.334131999999
 30
0.0
 11
-921.272588
 21
1349.572431999999
 31
0.0
  0
LINE
  5
3385
330
18
100
AcDbEntity
  8
0
100
AcDbLine
 10
-950.897228
 20
1354.922432
 30
0.0
 11
-955.103038
 21
1339.226032
 31
0.0
  0
LINE
  5
3386
330
18
100
AcDbEntity
  8
0
100
AcDbLine
 10
-957.0349179999999
 20
1339.743531999999
 30
0.0
 11
-956.8962479999999
 21
1347.988632
 31
0.0
  0
LINE
  5
3387
330
18
100
AcDbEntity
  8
0
100
AcDbLine
 10
-954.1325779999999
 20
1342.848331999999
 30
0.0
 11
-950.8973479999999
 21
1354.922432
 31
0.0
  0
LINE
  5
3388
330
18
100
AcDbEntity
  8
0
100
AcDbLine
 10
-956.0689779999997
 20
1339.484932
 30
0.0
 11
-956.6657179999999
 21
1337.257931999999
 31
0.0
  0
LINE
  5
3389
330
18
100
AcDbEntity
  8
0
100
AcDbLine
 10
-908.3778780000001
 20
1359.058532
 30
0.0
 11
-913.036628
 21
1341.671832
 31
0.0
  0
LINE
  5
338A
330
18
100
AcDbEntity
  8
0
100
AcDbLine
 10
-889.059518
 20
1353.882132
 30
0.0
 11
-908.3778780000001
 21
1359.058532
 31
0.0
  0
LINE
  5
338B
330
18
100
AcDbEntity
  8
0
100
AcDbLine
 10
-877.8023779999998
 20
1338.960131999999
 30
0.0
 11
-878.7719779999999
 21
1339.219932
 31
0.0
  0
LINE
  5
338C
330
18
100
AcDbEntity
  8
0
100
AcDbLine
 10
-878.7719779999999
 20
1339.219932
 30
0.0
 11
-877.900398
 21
1344.162632
 31
0.0
  0
LINE
  5
338D
330
18
100
AcDbEntity
  8
0
100
AcDbLine
 10
-880.700208
 20
1339.736632
 30
0.0
 11
-881.669808
 21
1339.996332
 31
0.0
  0
LINE
  5
338E
330
18
100
AcDbEntity
  8
0
100
AcDbLine
 10
-880.700268
 20
1339.736332
 30
0.0
 11
-879.828688
 21
1344.679432
 31
0.0
  0
LINE
  5
338F
330
18
100
AcDbEntity
  8
0
100
AcDbLine
 10
-881.669808
 20
1339.996332
 30
0.0
 11
-880.798288
 21
1344.939132
 31
0.0
  0
LINE
  5
3390
330
18
100
AcDbEntity
  8
0
100
AcDbLine
 10
-879.8286179999999
 20
1344.679332
 30
0.0
 11
-880.7981679999997
 21
1344.939231999999
 31
0.0
  0
LINE
  5
3391
330
18
100
AcDbEntity
  8
0
100
AcDbLine
 10
-883.5979679999997
 20
1340.512932
 30
0.0
 11
-884.5675179999997
 21
1340.772832
 31
0.0
  0
LINE
  5
3392
330
18
100
AcDbEntity
  8
0
100
AcDbLine
 10
-883.5979679999997
 20
1340.512832
 30
0.0
 11
-882.726328
 21
1345.455832
 31
0.0
  0
LINE
  5
3393
330
18
100
AcDbEntity
  8
0
100
AcDbLine
 10
-884.567698
 20
1340.772832
 30
0.0
 11
-883.6961779999997
 21
1345.715632
 31
0.0
  0
LINE
  5
3394
330
18
100
AcDbEntity
  8
0
100
AcDbLine
 10
-882.726388
 20
1345.455832
 30
0.0
 11
-883.695988
 21
1345.715632
 31
0.0
  0
LINE
  5
3395
330
18
100
AcDbEntity
  8
0
100
AcDbLine
 10
-886.4957380000001
 20
1341.289432
 30
0.0
 11
-887.4653380000001
 21
1341.549232
 31
0.0
  0
LINE
  5
3396
330
18
100
AcDbEntity
  8
0
100
AcDbLine
 10
-886.4957979999998
 20
1341.289632
 30
0.0
 11
-885.6242779999996
 21
1346.232332
 31
0.0
  0
LINE
  5
3397
330
18
100
AcDbEntity
  8
0
100
AcDbLine
 10
-887.4652779999999
 20
1341.549232
 30
0.0
 11
-886.593758
 21
1346.492132
 31
0.0
  0
LINE
  5
3398
330
18
100
AcDbEntity
  8
0
100
AcDbLine
 10
-885.6242179999997
 20
1346.232332
 30
0.0
 11
-886.593758
 21
1346.492132
 31
0.0
  0
LINE
  5
3399
330
18
100
AcDbEntity
  8
0
100
AcDbLine
 10
-889.393568
 20
1342.065932
 30
0.0
 11
-890.363108
 21
1342.325732
 31
0.0
  0
LINE
  5
339A
330
18
100
AcDbEntity
  8
0
100
AcDbLine
 10
-889.393628
 20
1342.065832
 30
0.0
 11
-888.5220380000001
 21
1347.008532
 31
0.0
  0
LINE
  5
339B
330
18
100
AcDbEntity
  8
0
100
AcDbLine
 10
-890.363168
 20
1342.325732
 30
0.0
 11
-889.491588
 21
1347.268632
 31
0.0
  0
LINE
  5
339C
330
18
100
AcDbEntity
  8
0
100
AcDbLine
 10
-888.5219179999998
 20
1347.008832
 30
0.0
 11
-889.4915279999999
 21
1347.268632
 31
0.0
  0
LWPOLYLINE
  5
339D
330
18
100
AcDbEntity
  8
0
100
AcDbPolyline
 90
        4
 70
     0
 43
0.0
 10
-912.4404379999999
 20
1355.488032
 42
-0.044901
 10
-911.455808
 20
1355.076932
 42
-0.04832
 10
-910.5637080000001
 20
1354.491232
 42
-0.04683
 10
-909.8013979999999
 20
1353.745932
  0
LWPOLYLINE
  5
339E
330
18
100
AcDbEntity
  8
0
100
AcDbPolyline
 90
        4
 70
     0
 43
0.0
 10
-914.769788
 20
1346.794732
 42
0.044933
 10
-913.711488
 20
1346.658532
 42
0.048281
 10
-912.646018
 20
1346.719832
 42
0.046826
 10
-911.613168
 20
1346.984132
  0
LINE
  5
339F
330
18
100
AcDbEntity
  8
0
100
AcDbLine
 10
-914.769728
 20
1346.794932
 30
0.0
 11
-916.7016680000001
 21
1347.312532
 31
0.0
  0
LINE
  5
33A0
330
18
100
AcDbEntity
  8
0
100
AcDbLine
 10
-912.4403179999999
 20
1355.488432
 30
0.0
 11
-914.372198
 21
1356.006132
 31
0.0
  0
LINE
  5
33A1
330
18
100
AcDbEntity
  8
0
100
AcDbLine
 10
-912.4403179999999
 20
1355.488432
 30
0.0
 11
-914.769728
 21
1346.794932
 31
0.0
  0
LINE
  5
33A2
330
18
100
AcDbEntity
  8
0
100
AcDbLine
 10
-914.372198
 20
1356.006132
 30
0.0
 11
-916.7016680000001
 21
1347.312532
 31
0.0
  0
LINE
  5
33A3
330
18
100
AcDbEntity
  8
0
100
AcDbLine
 10
-890.7531179999999
 20
1350.712432
 30
0.0
 11
-908.2818079999999
 21
1355.409232
 31
0.0
  0
LINE
  5
33A4
330
18
100
AcDbEntity
  8
0
100
AcDbLine
 10
-893.301948
 20
1340.007332
 30
0.0
 11
-911.128858
 21
1344.784132
 31
0.0
  0
LINE
  5
33A5
330
18
100
AcDbEntity
  8
0
100
AcDbLine
 10
-889.059518
 20
1353.882132
 30
0.0
 11
-893.7182079999999
 21
1336.495431999999
 31
0.0
  0
LINE
  5
33A6
330
18
100
AcDbEntity
  8
0
100
AcDbLine
 10
-893.7182079999999
 20
1336.495431999999
 30
0.0
 11
-913.036628
 21
1341.671832
 31
0.0
  0
LINE
  5
33A7
330
18
100
AcDbEntity
  8
0
100
AcDbLine
 10
-858.510448
 20
1313.344132
 30
0.0
 11
-854.3046380000001
 21
1329.040432
 31
0.0
  0
LINE
  5
33A8
330
18
100
AcDbEntity
  8
0
100
AcDbLine
 10
-845.199958
 20
1347.565232
 30
0.0
 11
-852.5762380000001
 21
1320.036532
 31
0.0
  0
LINE
  5
33A9
330
18
100
AcDbEntity
  8
0
100
AcDbLine
 10
-845.0611679999997
 20
1355.810232
 30
0.0
 11
-856.5786179999999
 21
1312.826432
 31
0.0
  0
LINE
  5
33AA
330
18
100
AcDbEntity
  8
0
100
AcDbLine
 10
-848.037058
 20
1360.588432
 30
0.0
 11
-849.032298
 21
1356.874332
 31
0.0
  0
LINE
  5
33AB
330
18
100
AcDbEntity
  8
0
100
AcDbLine
 10
-851.7224179999997
 20
1331.971932
 30
0.0
 11
-852.6920279999997
 21
1332.231831999999
 31
0.0
  0
LINE
  5
33AC
330
18
100
AcDbEntity
  8
0
100
AcDbLine
 10
-852.691968
 20
1332.231732
 30
0.0
 11
-851.8204480000001
 21
1337.174432
 31
0.0
  0
LINE
  5
33AD
330
18
100
AcDbEntity
  8
0
100
AcDbLine
 10
-850.850838
 20
1336.914831999999
 30
0.0
 11
-851.8204480000001
 21
1337.174631999999
 31
0.0
  0
LINE
  5
33AE
330
18
100
AcDbEntity
  8
0
100
AcDbLine
 10
-854.6201880000001
 20
1332.748432
 30
0.0
 11
-855.5897279999998
 21
1333.008232
 31
0.0
  0
LINE
  5
33AF
330
18
100
AcDbEntity
  8
0
100
AcDbLine
 10
-853.7486679999997
 20
1337.691332
 30
0.0
 11
-854.718208
 21
1337.951132
 31
0.0
  0
LINE
  5
33B0
330
18
100
AcDbEntity
  8
0
100
AcDbLine
 10
-854.6202480000001
 20
1332.748232
 30
0.0
 11
-853.7486679999997
 21
1337.691232
 31
0.0
  0
LINE
  5
33B1
330
18
100
AcDbEntity
  8
0
100
AcDbLine
 10
-855.5897880000001
 20
1333.008232
 30
0.0
 11
-854.718268
 21
1337.950932
 31
0.0
  0
LINE
  5
33B2
330
18
100
AcDbEntity
  8
0
100
AcDbLine
 10
-857.517958
 20
1333.524932
 30
0.0
 11
-858.487558
 21
1333.784732
 31
0.0
  0
LINE
  5
33B3
330
18
100
AcDbEntity
  8
0
100
AcDbLine
 10
-860.4157779999997
 20
1334.301332
 30
0.0
 11
-861.3853279999997
 21
1334.561232
 31
0.0
  0
LINE
  5
33B4
330
18
100
AcDbEntity
  8
0
100
AcDbLine
 10
-863.3134880000001
 20
1335.077832
 30
0.0
 11
-864.2830880000001
 21
1335.337532
 31
0.0
  0
LINE
  5
33B5
330
18
100
AcDbEntity
  8
0
100
AcDbLine
 10
-866.2113080000001
 20
1335.854232
 30
0.0
 11
-867.180918
 21
1336.114032
 31
0.0
  0
LINE
  5
33B6
330
18
100
AcDbEntity
  8
0
100
AcDbLine
 10
-869.1090779999997
 20
1336.630732
 30
0.0
 11
-870.0786179999999
 21
1336.890532
 31
0.0
  0
LINE
  5
33B7
330
18
100
AcDbEntity
  8
0
100
AcDbLine
 10
-872.006848
 20
1337.407132
 30
0.0
 11
-872.976448
 21
1337.667032
 31
0.0
  0
LINE
  5
33B8
330
18
100
AcDbEntity
  8
0
100
AcDbLine
 10
-851.7224779999997
 20
1331.971732
 30
0.0
 11
-850.850898
 21
1336.914831999999
 31
0.0
  0
LINE
  5
33B9
330
18
100
AcDbEntity
  8
0
100
AcDbLine
 10
-845.199958
 20
1347.565232
 30
0.0
 11
-845.0612880000001
 21
1355.810232
 31
0.0
  0
LINE
  5
33BA
330
18
100
AcDbEntity
  8
0
100
AcDbLine
 10
-856.6464279999999
 20
1338.467832
 30
0.0
 11
-857.6159779999997
 21
1338.727532
 31
0.0
  0
LINE
  5
33BB
330
18
100
AcDbEntity
  8
0
100
AcDbLine
 10
-859.544138
 20
1339.244132
 30
0.0
 11
-860.513798
 21
1339.504032
 31
0.0
  0
LINE
  5
33BC
330
18
100
AcDbEntity
  8
0
100
AcDbLine
 10
-862.441968
 20
1340.020632
 30
0.0
 11
-863.411568
 21
1340.280432
 31
0.0
  0
LINE
  5
33BD
330
18
100
AcDbEntity
  8
0
100
AcDbLine
 10
-865.339728
 20
1340.797132
 30
0.0
 11
-866.3092779999997
 21
1341.056932
 31
0.0
  0
LINE
  5
33BE
330
18
100
AcDbEntity
  8
0
100
AcDbLine
 10
-868.237558
 20
1341.573532
 30
0.0
 11
-869.207098
 21
1341.833432
 31
0.0
  0
LINE
  5
33BF
330
18
100
AcDbEntity
  8
0
100
AcDbLine
 10
-871.1353279999999
 20
1342.350032
 30
0.0
 11
-872.104868
 21
1342.609932
 31
0.0
  0
LINE
  5
33C0
330
18
100
AcDbEntity
  8
0
100
AcDbLine
 10
-875.874398
 20
1338.443432
 30
0.0
 11
-875.0028179999999
 21
1343.386232
 31
0.0
  0
LINE
  5
33C1
330
18
100
AcDbEntity
  8
0
100
AcDbLine
 10
-874.033028
 20
1343.126532
 30
0.0
 11
-875.0026979999999
 21
1343.386232
 31
0.0
  0
LINE
  5
33C2
330
18
100
AcDbEntity
  8
0
100
AcDbLine
 10
-851.198798
 20
1340.631532
 30
0.0
 11
-846.992988
 21
1356.327832
 31
0.0
  0
LINE
  5
33C3
330
18
100
AcDbEntity
  8
0
100
AcDbLine
 10
-849.2670380000001
 20
1340.113932
 30
0.0
 11
-852.3728679999997
 21
1328.522832
 31
0.0
  0
LINE
  5
33C4
330
18
100
AcDbEntity
  8
0
100
AcDbLine
 10
-857.5178880000002
 20
1333.524932
 30
0.0
 11
-856.646368
 21
1338.467732
 31
0.0
  0
LINE
  5
33C5
330
18
100
AcDbEntity
  8
0
100
AcDbLine
 10
-858.487678
 20
1333.784732
 30
0.0
 11
-857.616158
 21
1338.727432
 31
0.0
  0
LINE
  5
33C6
330
18
100
AcDbEntity
  8
0
100
AcDbLine
 10
-860.4158380000001
 20
1334.301132
 30
0.0
 11
-859.544258
 21
1339.243932
 31
0.0
  0
LINE
  5
33C7
330
18
100
AcDbEntity
  8
0
100
AcDbLine
 10
-861.3853279999997
 20
1334.561032
 30
0.0
 11
-860.513738
 21
1339.503832
 31
0.0
  0
LINE
  5
33C8
330
18
100
AcDbEntity
  8
0
100
AcDbLine
 10
-863.3135480000001
 20
1335.077832
 30
0.0
 11
-862.4420279999997
 21
1340.020632
 31
0.0
  0
LINE
  5
33C9
330
18
100
AcDbEntity
  8
0
100
AcDbLine
 10
-864.2831480000001
 20
1335.337532
 30
0.0
 11
-863.411568
 21
1340.280332
 31
0.0
  0
LINE
  5
33CA
330
18
100
AcDbEntity
  8
0
100
AcDbLine
 10
-866.2112480000002
 20
1335.854032
 30
0.0
 11
-865.339668
 21
1340.797032
 31
0.0
  0
LINE
  5
33CB
330
18
100
AcDbEntity
  8
0
100
AcDbLine
 10
-867.181038
 20
1336.114032
 30
0.0
 11
-866.309518
 21
1341.056832
 31
0.0
  0
LINE
  5
33CC
330
18
100
AcDbEntity
  8
0
100
AcDbLine
 10
-869.1091380000001
 20
1336.630532
 30
0.0
 11
-868.237558
 21
1341.573532
 31
0.0
  0
LINE
  5
33CD
330
18
100
AcDbEntity
  8
0
100
AcDbLine
 10
-870.0786179999999
 20
1336.890431999999
 30
0.0
 11
-869.207098
 21
1341.833332
 31
0.0
  0
LINE
  5
33CE
330
18
100
AcDbEntity
  8
0
100
AcDbLine
 10
-872.006908
 20
1337.407232
 30
0.0
 11
-871.135388
 21
1342.350032
 31
0.0
  0
LINE
  5
33CF
330
18
100
AcDbEntity
  8
0
100
AcDbLine
 10
-872.976448
 20
1337.666932
 30
0.0
 11
-872.104928
 21
1342.609732
 31
0.0
  0
LINE
  5
33D0
330
18
100
AcDbEntity
  8
0
100
AcDbLine
 10
-874.9046680000001
 20
1338.183632
 30
0.0
 11
-875.8742179999996
 21
1338.443432
 31
0.0
  0
LINE
  5
33D1
330
18
100
AcDbEntity
  8
0
100
AcDbLine
 10
-874.9046080000001
 20
1338.183432
 30
0.0
 11
-874.033028
 21
1343.126232
 31
0.0
  0
LINE
  5
33D2
330
18
100
AcDbEntity
  8
0
100
AcDbLine
 10
-862.085148
 20
1296.139732
 30
0.0
 11
-865.9642380000001
 21
1281.662732
 31
0.0
  0
ARC
  5
33D3
330
18
100
AcDbEntity
  8
0
100
AcDbCircle
 10
-858.7849779999997
 20
1297.830932
 30
0.0
 40
2.75
100
AcDbArc
 50
244.1067499999999
 51
69.55338000000001
  0
LINE
  5
33D4
330
18
100
AcDbEntity
  8
0
100
AcDbLine
 10
-852.5762380000001
 20
1320.036532
 30
0.0
 11
-856.5788679999997
 21
1312.826432
 31
0.0
  0
LINE
  5
33D5
330
18
100
AcDbEntity
  8
0
100
AcDbLine
 10
-857.5445679999997
 20
1313.085332
 30
0.0
 11
-860.6584579999999
 21
1301.464232
 31
0.0
  0
ARC
  5
33D6
330
18
100
AcDbEntity
  8
0
100
AcDbCircle
 10
-864.0908279999999
 20
1278.029432
 30
0.0
 40
2.75
100
AcDbArc
 50
244.1067499999999
 51
69.55338000000001
  0
LINE
  5
33D7
330
18
100
AcDbEntity
  8
0
100
AcDbLine
 10
-867.3909380000001
 20
1276.338132
 30
0.0
 11
-871.2700279999998
 21
1261.861332
 31
0.0
  0
ARC
  5
33D8
330
18
100
AcDbEntity
  8
0
100
AcDbCircle
 10
-874.7023979999999
 20
1238.426332
 30
0.0
 40
2.75
100
AcDbArc
 50
244.1067499999999
 51
69.55338000000001
  0
ARC
  5
33D9
330
18
100
AcDbEntity
  8
0
100
AcDbCircle
 10
29.29819199999998
 20
956.1729319999999
 30
0.0
 40
949.0
100
AcDbArc
 50
165.35956
 51
166.20088
  0
LINE
  5
33DA
330
18
100
AcDbEntity
  8
0
100
AcDbLine
 10
-878.0025079999997
 20
1236.735232
 30
0.0
 11
-881.881598
 21
1222.258232
 31
0.0
  0
ARC
  5
33DB
330
18
100
AcDbEntity
  8
0
100
AcDbCircle
 10
-885.6341679999998
 20
1197.730832
 30
0.0
 40
2.75
100
AcDbArc
 50
243.8395499999999
 51
69.28617
  0
ARC
  5
33DC
330
18
100
AcDbEntity
  8
0
100
AcDbCircle
 10
-880.0258279999997
 20
1218.559132
 30
0.0
 40
2.75
100
AcDbArc
 50
244.1067499999999
 51
69.55338000000001
  0
ARC
  5
33DD
330
18
100
AcDbEntity
  8
0
100
AcDbCircle
 10
36.023092
 20
981.270632
 30
0.0
 40
949.0
100
AcDbArc
 50
165.6267699999999
 51
166.46808
  0
ARC
  5
33DE
330
18
100
AcDbEntity
  8
0
100
AcDbCircle
 10
29.29819199999998
 20
956.1729319999999
 30
0.0
 40
949.0
100
AcDbArc
 50
167.70836
 51
168.5496799999999
  0
ARC
  5
33DF
330
18
100
AcDbEntity
  8
0
100
AcDbCircle
 10
29.29819199999998
 20
956.1729319999999
 30
0.0
 40
949.0
100
AcDbArc
 50
166.53396
 51
167.37527
  0
ARC
  5
33E0
330
18
100
AcDbEntity
  8
0
100
AcDbCircle
 10
-894.7652080000001
 20
1160.031432
 30
0.0
 40
2.75
100
AcDbArc
 50
246.1883499999999
 51
71.63498
  0
ARC
  5
33E1
330
18
100
AcDbEntity
  8
0
100
AcDbCircle
 10
-890.3929579999998
 20
1178.927932
 30
0.0
 40
2.75
100
AcDbArc
 50
245.01395
 51
70.46058000000002
  0
ARC
  5
33E2
330
18
100
AcDbEntity
  8
0
100
AcDbCircle
 10
-902.3435179999999
 20
1121.989432
 30
0.0
 40
2.75
100
AcDbArc
 50
248.5371499999999
 51
73.98377
  0
ARC
  5
33E3
330
18
100
AcDbEntity
  8
0
100
AcDbCircle
 10
-898.7493380000001
 20
1141.049132
 30
0.0
 40
2.75
100
AcDbArc
 50
247.36275
 51
72.80938
  0
ARC
  5
33E4
330
18
100
AcDbEntity
  8
0
100
AcDbCircle
 10
29.29819199999998
 20
956.1729319999999
 30
0.0
 40
949.0
100
AcDbArc
 50
168.88276
 51
169.7240699999999
  0
ARC
  5
33E5
330
18
100
AcDbEntity
  8
0
100
AcDbCircle
 10
-650.585808
 20
1256.283232
 30
0.0
 40
2.75
100
AcDbArc
 50
284.999997
 51
110.44661
  0
LINE
  5
33E6
330
18
100
AcDbEntity
  8
0
100
AcDbLine
 10
-651.790908
 20
1258.768632
 30
0.0
 11
-752.9751079999998
 21
1221.044832
 31
0.0
  0
ARC
  5
33E7
330
18
100
AcDbEntity
  8
0
100
AcDbCircle
 10
-762.3990079999998
 20
1258.227932
 30
0.0
 40
2.75
100
AcDbArc
 50
110.44662
 51
295.8932509999998
  0
LINE
  5
33E8
330
18
100
AcDbEntity
  8
0
100
AcDbLine
 10
-655.197308
 20
1273.493832
 30
0.0
 11
-756.381408
 21
1235.770032
 31
0.0
  0
LINE
  5
33E9
330
18
100
AcDbEntity
  8
0
100
AcDbLine
 10
-657.114408
 20
1278.635732
 30
0.0
 11
-758.298508
 21
1240.911932
 31
0.0
  0
LINE
  5
33EA
330
18
100
AcDbEntity
  8
0
100
AcDbLine
 10
-660.5032079999999
 20
1293.295432
 30
0.0
 11
-761.687308
 21
1255.571532
 31
0.0
  0
LINE
  5
33EB
330
18
100
AcDbEntity
  8
0
100
AcDbLine
 10
-759.098908
 20
1256.536632
 30
0.0
 11
-755.2198080000001
 21
1242.059832
 31
0.0
  0
LINE
  5
33EC
330
18
100
AcDbEntity
  8
0
100
AcDbLine
 10
-715.352808
 20
1348.278332
 30
0.0
 11
-710.5232079999998
 21
1349.572532
 31
0.0
  0
LINE
  5
33ED
330
18
100
AcDbEntity
  8
0
100
AcDbLine
 10
-712.335008
 20
1356.334032
 30
0.0
 11
-710.5232079999998
 21
1349.572431999999
 31
0.0
  0
LINE
  5
33EE
330
18
100
AcDbEntity
  8
0
100
AcDbLine
 10
-719.535508
 20
1344.569632
 30
0.0
 11
-678.9666079999998
 21
1355.439932
 31
0.0
  0
LINE
  5
33EF
330
18
100
AcDbEntity
  8
0
100
AcDbLine
 10
-722.6414079999998
 20
1356.160632
 30
0.0
 11
-682.0724079999998
 21
1367.031132
 31
0.0
  0
LINE
  5
33F0
330
18
100
AcDbEntity
  8
0
100
AcDbLine
 10
-662.4202079999998
 20
1298.437331999998
 30
0.0
 11
-763.6043179999997
 21
1260.713532
 31
0.0
  0
LINE
  5
33F2
330
18
100
AcDbEntity
  8
0
100
AcDbLine
 10
-786.7345679999998
 20
1355.810132
 30
0.0
 11
-686.278308
 21
1382.727232
 31
0.0
  0
LINE
  5
33F3
330
18
100
AcDbEntity
  8
0
100
AcDbLine
 10
-670.866608
 20
1332.990732
 30
0.0
 11
-772.298898
 21
1295.174432
 31
0.0
  0
LINE
  5
33F4
330
18
100
AcDbEntity
  8
0
100
AcDbLine
 10
-672.7836079999998
 20
1338.132632
 30
0.0
 11
-774.2158879999998
 21
1300.316332
 31
0.0
  0
LINE
  5
33F5
330
18
100
AcDbEntity
  8
0
100
AcDbLine
 10
-665.8088079999998
 20
1313.096932
 30
0.0
 11
-766.993108
 21
1275.373032
 31
0.0
  0
LINE
  5
33F6
330
18
100
AcDbEntity
  8
0
100
AcDbLine
 10
-667.7260079999999
 20
1318.238932
 30
0.0
 11
-768.910168
 21
1280.515032
 31
0.0
  0
LINE
  5
33F7
330
18
100
AcDbEntity
  8
0
100
AcDbLine
 10
-775.217108
 20
1312.826332
 30
0.0
 11
-674.760908
 21
1339.743531999999
 31
0.0
  0
LINE
  5
33F8
330
18
100
AcDbEntity
  8
0
100
AcDbLine
 10
-773.285288
 20
1313.344032
 30
0.0
 11
-777.4910980000002
 21
1329.040432
 31
0.0
  0
LINE
  5
33F9
330
18
100
AcDbEntity
  8
0
100
AcDbLine
 10
-786.5956480000001
 20
1347.565232
 30
0.0
 11
-779.2193679999997
 21
1320.036432
 31
0.0
  0
LINE
  5
33FA
330
18
100
AcDbEntity
  8
0
100
AcDbLine
 10
-786.7345679999998
 20
1355.810132
 30
0.0
 11
-775.217108
 21
1312.826332
 31
0.0
  0
LINE
  5
33FB
330
18
100
AcDbEntity
  8
0
100
AcDbLine
 10
-782.528578
 20
1340.113932
 30
0.0
 11
-741.959808
 21
1350.984332
 31
0.0
  0
LINE
  5
33FC
330
18
100
AcDbEntity
  8
0
100
AcDbLine
 10
-779.4227379999998
 20
1328.522832
 30
0.0
 11
-738.8539080000001
 21
1339.393232
 31
0.0
  0
LINE
  5
33FD
330
18
100
AcDbEntity
  8
0
100
AcDbLine
 10
-783.758308
 20
1360.588432
 30
0.0
 11
-782.7630679999998
 21
1356.874131999999
 31
0.0
  0
LINE
  5
33FE
330
18
100
AcDbEntity
  8
0
100
AcDbLine
 10
-753.9932079999998
 20
1338.960131999999
 30
0.0
 11
-753.023708
 21
1339.219932
 31
0.0
  0
LINE
  5
33FF
330
18
100
AcDbEntity
  8
0
100
AcDbLine
 10
-753.9932079999998
 20
1338.960032
 30
0.0
 11
-754.864808
 21
1343.903032
 31
0.0
  0
LINE
  5
3400
330
18
100
AcDbEntity
  8
0
100
AcDbLine
 10
-753.023708
 20
1339.219932
 30
0.0
 11
-753.8953079999998
 21
1344.162732
 31
0.0
  0
LINE
  5
3401
330
18
100
AcDbEntity
  8
0
100
AcDbLine
 10
-754.864808
 20
1343.903032
 30
0.0
 11
-753.895208
 21
1344.162732
 31
0.0
  0
LINE
  5
3402
330
18
100
AcDbEntity
  8
0
100
AcDbLine
 10
-780.0731879999998
 20
1331.971832
 30
0.0
 11
-780.9447079999999
 21
1336.914732
 31
0.0
  0
LINE
  5
3403
330
18
100
AcDbEntity
  8
0
100
AcDbLine
 10
-780.0731879999998
 20
1331.972032
 30
0.0
 11
-779.1037079999998
 21
1332.231831999999
 31
0.0
  0
LINE
  5
3404
330
18
100
AcDbEntity
  8
0
100
AcDbLine
 10
-779.1037079999998
 20
1332.231732
 30
0.0
 11
-779.975228
 21
1337.174432
 31
0.0
  0
LINE
  5
3405
330
18
100
AcDbEntity
  8
0
100
AcDbLine
 10
-780.944958
 20
1336.914831999999
 30
0.0
 11
-779.975228
 21
1337.174732
 31
0.0
  0
LINE
  5
3406
330
18
100
AcDbEntity
  8
0
100
AcDbLine
 10
-777.175548
 20
1332.748432
 30
0.0
 11
-776.205818
 21
1333.008332
 31
0.0
  0
LINE
  5
3407
330
18
100
AcDbEntity
  8
0
100
AcDbLine
 10
-778.0470679999998
 20
1337.691332
 30
0.0
 11
-777.077458
 21
1337.951132
 31
0.0
  0
LINE
  5
3408
330
18
100
AcDbEntity
  8
0
100
AcDbLine
 10
-777.175428
 20
1332.748332
 30
0.0
 11
-778.047008
 21
1337.691032
 31
0.0
  0
LINE
  5
3409
330
18
100
AcDbEntity
  8
0
100
AcDbLine
 10
-776.205998
 20
1333.008232
 30
0.0
 11
-777.077528
 21
1337.951132
 31
0.0
  0
LINE
  5
340A
330
18
100
AcDbEntity
  8
0
100
AcDbLine
 10
-774.2777779999999
 20
1333.524932
 30
0.0
 11
-773.308058
 21
1333.784732
 31
0.0
  0
LINE
  5
340B
330
18
100
AcDbEntity
  8
0
100
AcDbLine
 10
-771.379948
 20
1334.301432
 30
0.0
 11
-770.4104079999998
 21
1334.561232
 31
0.0
  0
LINE
  5
340C
330
18
100
AcDbEntity
  8
0
100
AcDbLine
 10
-768.482068
 20
1335.077931999999
 30
0.0
 11
-767.512648
 21
1335.337632
 31
0.0
  0
LINE
  5
340D
330
18
100
AcDbEntity
  8
0
100
AcDbLine
 10
-765.584298
 20
1335.854232
 30
0.0
 11
-764.6148179999999
 21
1336.114032
 31
0.0
  0
LINE
  5
340E
330
18
100
AcDbEntity
  8
0
100
AcDbLine
 10
-762.686608
 20
1336.630732
 30
0.0
 11
-761.716908
 21
1336.890532
 31
0.0
  0
LINE
  5
340F
330
18
100
AcDbEntity
  8
0
100
AcDbLine
 10
-759.7889079999998
 20
1337.407132
 30
0.0
 11
-758.8192079999998
 21
1337.667032
 31
0.0
  0
LINE
  5
3410
330
18
100
AcDbEntity
  8
0
100
AcDbLine
 10
-775.149238
 20
1338.467832
 30
0.0
 11
-774.1798179999998
 21
1338.727532
 31
0.0
  0
LINE
  5
3411
330
18
100
AcDbEntity
  8
0
100
AcDbLine
 10
-772.251478
 20
1339.244132
 30
0.0
 11
-771.2819279999998
 21
1339.504032
 31
0.0
  0
LINE
  5
3412
330
18
100
AcDbEntity
  8
0
100
AcDbLine
 10
-769.3537079999998
 20
1340.020632
 30
0.0
 11
-768.3841079999998
 21
1340.280432
 31
0.0
  0
LINE
  5
3413
330
18
100
AcDbEntity
  8
0
100
AcDbLine
 10
-766.456068
 20
1340.797132
 30
0.0
 11
-765.4863379999998
 21
1341.056932
 31
0.0
  0
LINE
  5
3414
330
18
100
AcDbEntity
  8
0
100
AcDbLine
 10
-763.5581779999998
 20
1341.573632
 30
0.0
 11
-762.588608
 21
1341.833432
 31
0.0
  0
LINE
  5
3415
330
18
100
AcDbEntity
  8
0
100
AcDbLine
 10
-760.660308
 20
1342.350032
 30
0.0
 11
-759.690908
 21
1342.609732
 31
0.0
  0
LINE
  5
3416
330
18
100
AcDbEntity
  8
0
100
AcDbLine
 10
-757.7626079999999
 20
1343.126532
 30
0.0
 11
-756.793008
 21
1343.386232
 31
0.0
  0
LINE
  5
3417
330
18
100
AcDbEntity
  8
0
100
AcDbLine
 10
-780.596928
 20
1340.631532
 30
0.0
 11
-784.802748
 21
1356.327632
 31
0.0
  0
LINE
  5
3418
330
18
100
AcDbEntity
  8
0
100
AcDbLine
 10
-786.5956480000001
 20
1347.565232
 30
0.0
 11
-786.7343879999999
 21
1355.810332
 31
0.0
  0
LINE
  5
3419
330
18
100
AcDbEntity
  8
0
100
AcDbLine
 10
-782.528578
 20
1340.113932
 30
0.0
 11
-779.4227379999998
 21
1328.522832
 31
0.0
  0
LINE
  5
341A
330
18
100
AcDbEntity
  8
0
100
AcDbLine
 10
-774.2778379999998
 20
1333.524832
 30
0.0
 11
-775.1494179999999
 21
1338.467732
 31
0.0
  0
LINE
  5
341B
330
18
100
AcDbEntity
  8
0
100
AcDbLine
 10
-773.307988
 20
1333.784532
 30
0.0
 11
-774.179578
 21
1338.727432
 31
0.0
  0
LINE
  5
341C
330
18
100
AcDbEntity
  8
0
100
AcDbLine
 10
-771.3798879999998
 20
1334.301132
 30
0.0
 11
-772.2514079999998
 21
1339.244032
 31
0.0
  0
LINE
  5
341D
330
18
100
AcDbEntity
  8
0
100
AcDbLine
 10
-770.4104079999998
 20
1334.561032
 30
0.0
 11
-771.2819879999998
 21
1339.503932
 31
0.0
  0
LINE
  5
341E
330
18
100
AcDbEntity
  8
0
100
AcDbLine
 10
-768.482068
 20
1335.077631999999
 30
0.0
 11
-769.353648
 21
1340.020632
 31
0.0
  0
LINE
  5
341F
330
18
100
AcDbEntity
  8
0
100
AcDbLine
 10
-767.5125780000001
 20
1335.337532
 30
0.0
 11
-768.3841079999998
 21
1340.280432
 31
0.0
  0
LINE
  5
3420
330
18
100
AcDbEntity
  8
0
100
AcDbLine
 10
-765.5844779999998
 20
1335.854132
 30
0.0
 11
-766.4559979999998
 21
1340.797032
 31
0.0
  0
LINE
  5
3421
330
18
100
AcDbEntity
  8
0
100
AcDbLine
 10
-764.614628
 20
1336.114032
 30
0.0
 11
-765.486158
 21
1341.056832
 31
0.0
  0
LINE
  5
3422
330
18
100
AcDbEntity
  8
0
100
AcDbLine
 10
-762.6865079999999
 20
1336.630632
 30
0.0
 11
-763.558058
 21
1341.573432
 31
0.0
  0
LINE
  5
3423
330
18
100
AcDbEntity
  8
0
100
AcDbLine
 10
-761.717008
 20
1336.890532
 30
0.0
 11
-762.588608
 21
1341.833432
 31
0.0
  0
LINE
  5
3424
330
18
100
AcDbEntity
  8
0
100
AcDbLine
 10
-759.788808
 20
1337.407232
 30
0.0
 11
-760.660308
 21
1342.350032
 31
0.0
  0
LINE
  5
3425
330
18
100
AcDbEntity
  8
0
100
AcDbLine
 10
-758.8193079999999
 20
1337.666932
 30
0.0
 11
-759.690908
 21
1342.609632
 31
0.0
  0
LINE
  5
3426
330
18
100
AcDbEntity
  8
0
100
AcDbLine
 10
-756.891208
 20
1338.183532
 30
0.0
 11
-757.762708
 21
1343.126332
 31
0.0
  0
LINE
  5
3427
330
18
100
AcDbEntity
  8
0
100
AcDbLine
 10
-756.891108
 20
1338.183632
 30
0.0
 11
-755.921508
 21
1338.443432
 31
0.0
  0
LINE
  5
3428
330
18
100
AcDbEntity
  8
0
100
AcDbLine
 10
-755.9213079999998
 20
1338.443432
 30
0.0
 11
-756.7929079999998
 21
1343.386431999999
 31
0.0
  0
LINE
  5
3429
330
18
100
AcDbEntity
  8
0
100
AcDbLine
 10
-723.417808
 20
1359.058532
 30
0.0
 11
-718.7590079999998
 21
1341.671832
 31
0.0
  0
LINE
  5
342A
330
18
100
AcDbEntity
  8
0
100
AcDbLine
 10
-742.736208
 20
1353.882132
 30
0.0
 11
-723.417808
 21
1359.058532
 31
0.0
  0
LWPOLYLINE
  5
342B
330
18
100
AcDbEntity
  8
0
100
AcDbPolyline
 90
        4
 70
     0
 43
0.0
 10
-717.025908
 20
1346.794732
 42
-0.044932
 10
-718.0842079999998
 20
1346.658532
 42
-0.04828
 10
-719.149708
 20
1346.719832
 42
-0.046828
 10
-720.1825079999998
 20
1346.984132
  0
LWPOLYLINE
  5
342C
330
18
100
AcDbEntity
  8
0
100
AcDbPolyline
 90
        4
 70
     0
 43
0.0
 10
-719.355208
 20
1355.488032
 42
0.044894
 10
-720.339908
 20
1355.076932
 42
0.048327
 10
-721.2320079999998
 20
1354.491232
 42
0.046828
 10
-721.994308
 20
1353.745932
  0
LINE
  5
342D
330
18
100
AcDbEntity
  8
0
100
AcDbLine
 10
-716.2587079999998
 20
1351.659232
 30
0.0
 11
-711.429108
 21
1352.953432
 31
0.0
  0
LINE
  5
342E
330
18
100
AcDbEntity
  8
0
100
AcDbLine
 10
-717.164608
 20
1355.039832
 30
0.0
 11
-712.335008
 21
1356.334032
 31
0.0
  0
LINE
  5
342F
330
18
100
AcDbEntity
  8
0
100
AcDbLine
 10
-717.026008
 20
1346.794932
 30
0.0
 11
-715.094008
 21
1347.312532
 31
0.0
  0
LINE
  5
3430
330
18
100
AcDbEntity
  8
0
100
AcDbLine
 10
-719.355308
 20
1355.488332
 30
0.0
 11
-717.4235079999998
 21
1356.006032
 31
0.0
  0
LINE
  5
3431
330
18
100
AcDbEntity
  8
0
100
AcDbLine
 10
-719.355308
 20
1355.488332
 30
0.0
 11
-717.026008
 21
1346.794932
 31
0.0
  0
LINE
  5
3432
330
18
100
AcDbEntity
  8
0
100
AcDbLine
 10
-717.4235079999998
 20
1356.006032
 30
0.0
 11
-715.094008
 21
1347.312532
 31
0.0
  0
LINE
  5
3433
330
18
100
AcDbEntity
  8
0
100
AcDbLine
 10
-751.095408
 20
1339.736632
 30
0.0
 11
-750.1260079999998
 21
1339.996332
 31
0.0
  0
LINE
  5
3434
330
18
100
AcDbEntity
  8
0
100
AcDbLine
 10
-751.095408
 20
1339.736532
 30
0.0
 11
-751.9669079999999
 21
1344.679332
 31
0.0
  0
LINE
  5
3435
330
18
100
AcDbEntity
  8
0
100
AcDbLine
 10
-750.1259079999998
 20
1339.996332
 30
0.0
 11
-750.997408
 21
1344.939132
 31
0.0
  0
LINE
  5
3436
330
18
100
AcDbEntity
  8
0
100
AcDbLine
 10
-751.967208
 20
1344.679332
 30
0.0
 11
-750.997408
 21
1344.939231999999
 31
0.0
  0
LINE
  5
3437
330
18
100
AcDbEntity
  8
0
100
AcDbLine
 10
-748.197808
 20
1340.512932
 30
0.0
 11
-747.228008
 21
1340.772832
 31
0.0
  0
LINE
  5
3438
330
18
100
AcDbEntity
  8
0
100
AcDbLine
 10
-748.197808
 20
1340.512932
 30
0.0
 11
-749.0693079999998
 21
1345.455732
 31
0.0
  0
LINE
  5
3439
330
18
100
AcDbEntity
  8
0
100
AcDbLine
 10
-747.228008
 20
1340.773032
 30
0.0
 11
-748.099508
 21
1345.715732
 31
0.0
  0
LINE
  5
343A
330
18
100
AcDbEntity
  8
0
100
AcDbLine
 10
-749.0693079999998
 20
1345.455832
 30
0.0
 11
-748.0997079999998
 21
1345.715732
 31
0.0
  0
LINE
  5
343B
330
18
100
AcDbEntity
  8
0
100
AcDbLine
 10
-745.300008
 20
1341.289432
 30
0.0
 11
-744.330308
 21
1341.549332
 31
0.0
  0
LINE
  5
343C
330
18
100
AcDbEntity
  8
0
100
AcDbLine
 10
-745.2999079999998
 20
1341.289632
 30
0.0
 11
-746.171408
 21
1346.232332
 31
0.0
  0
LINE
  5
343D
330
18
100
AcDbEntity
  8
0
100
AcDbLine
 10
-744.330308
 20
1341.549232
 30
0.0
 11
-745.201908
 21
1346.492132
 31
0.0
  0
LINE
  5
343E
330
18
100
AcDbEntity
  8
0
100
AcDbLine
 10
-746.171408
 20
1346.232332
 30
0.0
 11
-745.2020079999998
 21
1346.492132
 31
0.0
  0
LINE
  5
343F
330
18
100
AcDbEntity
  8
0
100
AcDbLine
 10
-742.402208
 20
1342.065932
 30
0.0
 11
-741.4326079999998
 21
1342.325732
 31
0.0
  0
LINE
  5
3440
330
18
100
AcDbEntity
  8
0
100
AcDbLine
 10
-742.402108
 20
1342.065832
 30
0.0
 11
-743.2736079999998
 21
1347.008732
 31
0.0
  0
LINE
  5
3441
330
18
100
AcDbEntity
  8
0
100
AcDbLine
 10
-741.4326079999998
 20
1342.325732
 30
0.0
 11
-742.304208
 21
1347.268632
 31
0.0
  0
LINE
  5
3442
330
18
100
AcDbEntity
  8
0
100
AcDbLine
 10
-743.273708
 20
1347.008832
 30
0.0
 11
-742.304108
 21
1347.268632
 31
0.0
  0
LINE
  5
3443
330
18
100
AcDbEntity
  8
0
100
AcDbLine
 10
-741.042508
 20
1350.712432
 30
0.0
 11
-723.513908
 21
1355.409232
 31
0.0
  0
LINE
  5
3444
330
18
100
AcDbEntity
  8
0
100
AcDbLine
 10
-738.493708
 20
1340.007232
 30
0.0
 11
-720.666908
 21
1344.783932
 31
0.0
  0
LINE
  5
3445
330
18
100
AcDbEntity
  8
0
100
AcDbLine
 10
-742.736208
 20
1353.882132
 30
0.0
 11
-738.0775079999998
 21
1336.495431999999
 31
0.0
  0
LINE
  5
3446
330
18
100
AcDbEntity
  8
0
100
AcDbLine
 10
-738.0775079999998
 20
1336.495431999999
 30
0.0
 11
-718.7590079999998
 21
1341.671832
 31
0.0
  0
LINE
  5
3447
330
18
100
AcDbEntity
  8
0
100
AcDbLine
 10
-769.710518
 20
1296.139531999999
 30
0.0
 11
-765.831428
 21
1281.662632
 31
0.0
  0
ARC
  5
3448
330
18
100
AcDbEntity
  8
0
100
AcDbCircle
 10
-773.010628
 20
1297.830932
 30
0.0
 40
2.75
100
AcDbArc
 50
110.44662
 51
295.8932509999998
  0
LINE
  5
3449
330
18
100
AcDbEntity
  8
0
100
AcDbLine
 10
-779.2193079999998
 20
1320.036332
 30
0.0
 11
-775.2168679999998
 21
1312.826432
 31
0.0
  0
LINE
  5
344A
330
18
100
AcDbEntity
  8
0
100
AcDbLine
 10
-774.251048
 20
1313.085232
 30
0.0
 11
-771.137278
 21
1301.464232
 31
0.0
  0
ARC
  5
344B
330
18
100
AcDbEntity
  8
0
100
AcDbCircle
 10
-767.704968
 20
1278.029432
 30
0.0
 40
2.75
100
AcDbArc
 50
110.44662
 51
295.8932509999998
  0
LINE
  5
344C
330
18
100
AcDbEntity
  8
0
100
AcDbLine
 10
-764.4047279999998
 20
1276.338132
 30
0.0
 11
-760.525608
 21
1261.861232
 31
0.0
  0
LINE
  5
344D
330
18
100
AcDbEntity
  8
0
100
AcDbLine
 10
-673.703208
 20
1331.933232
 30
0.0
 11
-669.8242079999999
 21
1317.456532
 31
0.0
  0
ARC
  5
344E
330
18
100
AcDbEntity
  8
0
100
AcDbCircle
 10
-671.825208
 20
1335.561832
 30
0.0
 40
2.743743999999998
100
AcDbArc
 50
285.0
 51
110.44661
  0
LINE
  5
344F
330
18
100
AcDbEntity
  8
0
100
AcDbLine
 10
-682.2758079999998
 20
1375.517632
 30
0.0
 11
-674.899408
 21
1347.988932
 31
0.0
  0
LINE
  5
3450
330
18
100
AcDbEntity
  8
0
100
AcDbLine
 10
-682.0724079999998
 20
1367.031132
 30
0.0
 11
-678.9666079999998
 21
1355.439932
 31
0.0
  0
LINE
  5
3451
330
18
100
AcDbEntity
  8
0
100
AcDbLine
 10
-686.278308
 20
1382.727232
 30
0.0
 11
-674.760908
 21
1339.743531999999
 31
0.0
  0
LINE
  5
3452
330
18
100
AcDbEntity
  8
0
100
AcDbLine
 10
-686.278208
 20
1382.727232
 30
0.0
 11
-682.2758079999998
 21
1375.517532
 31
0.0
  0
LINE
  5
3453
330
18
100
AcDbEntity
  8
0
100
AcDbLine
 10
-688.2101079999999
 20
1382.209632
 30
0.0
 11
-684.004408
 21
1366.513432
 31
0.0
  0
LINE
  5
3454
330
18
100
AcDbEntity
  8
0
100
AcDbLine
 10
-680.8986079999998
 20
1354.922232
 30
0.0
 11
-676.6926080000001
 21
1339.225832
 31
0.0
  0
LINE
  5
3455
330
18
100
AcDbEntity
  8
0
100
AcDbLine
 10
-674.760708
 20
1339.743531999999
 30
0.0
 11
-674.899408
 21
1347.988832
 31
0.0
  0
LINE
  5
3456
330
18
100
AcDbEntity
  8
0
100
AcDbLine
 10
-677.6631079999998
 20
1342.848132
 30
0.0
 11
-680.898408
 21
1354.922432
 31
0.0
  0
LINE
  5
3457
330
18
100
AcDbEntity
  8
0
100
AcDbLine
 10
-675.726708
 20
1339.484732
 30
0.0
 11
-675.130008
 21
1337.257832
 31
0.0
  0
LINE
  5
3458
330
18
100
AcDbEntity
  8
0
100
AcDbLine
 10
-663.091708
 20
1292.330332
 30
0.0
 11
-659.2125079999998
 21
1277.853432
 31
0.0
  0
ARC
  5
3459
330
18
100
AcDbEntity
  8
0
100
AcDbCircle
 10
-661.215008
 20
1295.951832
 30
0.0
 40
2.75
100
AcDbArc
 50
284.999997
 51
110.44661
  0
ARC
  5
345A
330
18
100
AcDbEntity
  8
0
100
AcDbCircle
 10
-666.520808
 20
1315.753332
 30
0.0
 40
2.75
100
AcDbArc
 50
284.999997
 51
110.44661
  0
LINE
  5
345B
330
18
100
AcDbEntity
  8
0
100
AcDbLine
 10
-668.397508
 20
1312.131832
 30
0.0
 11
-664.5184079999998
 21
1297.655032
 31
0.0
  0
ARC
  5
345C
330
18
100
AcDbEntity
  8
0
100
AcDbCircle
 10
-655.909208
 20
1276.150332
 30
0.0
 40
2.75
100
AcDbArc
 50
284.999997
 51
110.44661
  0
LINE
  5
345D
330
18
100
AcDbEntity
  8
0
100
AcDbLine
 10
-657.785908
 20
1272.528932
 30
0.0
 11
-653.9067079999998
 21
1258.052032
 31
0.0
  0
LINE
  5
345E
330
18
100
AcDbEntity
  8
0
100
AcDbLine
 10
-640.799708
 20
1217.549232
 30
0.0
 11
-742.5684079999999
 21
1181.432332
 31
0.0
  0
LINE
  5
345F
330
18
100
AcDbEntity
  8
0
100
AcDbLine
 10
-638.964408
 20
1212.377631999999
 30
0.0
 11
-740.733008
 21
1176.260631999998
 31
0.0
  0
LINE
  5
3460
330
18
100
AcDbEntity
  8
0
100
AcDbLine
 10
-644.4302079999999
 20
1233.273232
 30
0.0
 11
-745.437308
 21
1195.077932
 31
0.0
  0
LINE
  5
3461
330
18
100
AcDbEntity
  8
0
100
AcDbLine
 10
-646.371208
 20
1238.406132
 30
0.0
 11
-747.3782079999998
 21
1200.210832
 31
0.0
  0
LINE
  5
3462
330
18
100
AcDbEntity
  8
0
100
AcDbLine
 10
-649.873908
 20
1253.626632
 30
0.0
 11
-751.0580079999998
 21
1215.902832
 31
0.0
  0
LINE
  5
3463
330
18
100
AcDbEntity
  8
0
100
AcDbLine
 10
-635.657008
 20
1196.582832
 30
0.0
 11
-738.144408
 21
1162.559232
 31
0.0
  0
LINE
  5
3464
330
18
100
AcDbEntity
  8
0
100
AcDbLine
 10
-633.9280079999999
 20
1191.374632
 30
0.0
 11
-736.415508
 21
1157.351132
 31
0.0
  0
LINE
  5
3465
330
18
100
AcDbEntity
  8
0
100
AcDbLine
 10
-630.945108
 20
1175.515131999999
 30
0.0
 11
-734.1083079999998
 21
1143.599432
 31
0.0
  0
LINE
  5
3466
330
18
100
AcDbEntity
  8
0
100
AcDbLine
 10
-629.323108
 20
1170.272732
 30
0.0
 11
-732.4865079999998
 21
1138.356832
 31
0.0
  0
ARC
  5
3467
330
18
100
AcDbEntity
  8
0
100
AcDbCircle
 10
-1661.093798
 20
956.1729319999999
 30
0.0
 40
949.0
100
AcDbArc
 50
13.79912
 51
14.64043999999999
  0
ARC
  5
3468
330
18
100
AcDbEntity
  8
0
100
AcDbCircle
 10
-751.7699079999998
 20
1218.559132
 30
0.0
 40
2.75
100
AcDbArc
 50
110.44662
 51
295.8932509999998
  0
LINE
  5
3469
330
18
100
AcDbEntity
  8
0
100
AcDbLine
 10
-753.7931079999999
 20
1236.735132
 30
0.0
 11
-749.9141080000002
 21
1222.258232
 31
0.0
  0
ARC
  5
346A
330
18
100
AcDbEntity
  8
0
100
AcDbCircle
 10
-757.0933079999998
 20
1238.426332
 30
0.0
 40
2.75
100
AcDbArc
 50
110.44662
 51
295.8932509999998
  0
ARC
  5
346B
330
18
100
AcDbEntity
  8
0
100
AcDbCircle
 10
-746.161508
 20
1197.730832
 30
0.0
 40
2.75
100
AcDbArc
 50
110.71383
 51
296.1604509999999
  0
ARC
  5
346C
330
18
100
AcDbEntity
  8
0
100
AcDbCircle
 10
-1667.818727
 20
981.270632
 30
0.0
 40
949.0
100
AcDbArc
 50
13.53192
 51
14.37322999999999
  0
ARC
  5
346D
330
18
100
AcDbEntity
  8
0
100
AcDbCircle
 10
-1661.093798
 20
956.1729319999999
 30
0.0
 40
949.0
100
AcDbArc
 50
11.45032
 51
12.29163999999999
  0
ARC
  5
346E
330
18
100
AcDbEntity
  8
0
100
AcDbCircle
 10
-1661.093798
 20
956.1729319999999
 30
0.0
 40
949.0
100
AcDbArc
 50
12.62472999999999
 51
13.46604
  0
ARC
  5
346F
330
18
100
AcDbEntity
  8
0
100
AcDbCircle
 10
-737.0304079999998
 20
1160.031432
 30
0.0
 40
2.75
100
AcDbArc
 50
108.36502
 51
293.811651
  0
ARC
  5
3470
330
18
100
AcDbEntity
  8
0
100
AcDbCircle
 10
-741.402808
 20
1178.927932
 30
0.0
 40
2.75
100
AcDbArc
 50
109.5394199999999
 51
294.986051
  0
ARC
  5
3471
330
18
100
AcDbEntity
  8
0
100
AcDbCircle
 10
-729.4521079999998
 20
1121.989432
 30
0.0
 40
2.75
100
AcDbArc
 50
106.01623
 51
291.4628519999999
  0
ARC
  5
3472
330
18
100
AcDbEntity
  8
0
100
AcDbCircle
 10
-733.046408
 20
1141.049132
 30
0.0
 40
2.75
100
AcDbArc
 50
107.1906199999999
 51
292.637252
  0
ARC
  5
3473
330
18
100
AcDbEntity
  8
0
100
AcDbCircle
 10
-1661.093798
 20
956.1729319999999
 30
0.0
 40
949.0
100
AcDbArc
 50
10.27593
 51
11.11723999999999
  0
ARC
  5
3474
330
18
100
AcDbEntity
  8
0
100
AcDbCircle
 10
-1661.093798
 20
956.1729319999999
 30
0.0
 40
1051.0
100
AcDbArc
 50
12.00903
 51
12.88296
  0
ARC
  5
3475
330
18
100
AcDbEntity
  8
0
100
AcDbCircle
 10
-1661.093798
 20
956.1729319999999
 30
0.0
 40
1051.0
100
AcDbArc
 50
14.35782999999999
 51
15.23176
  0
ARC
  5
3476
330
18
100
AcDbEntity
  8
0
100
AcDbCircle
 10
-645.1544079999998
 20
1235.926132
 30
0.0
 40
2.75
100
AcDbArc
 50
285.267197
 51
110.71382
  0
ARC
  5
3477
330
18
100
AcDbEntity
  8
0
100
AcDbCircle
 10
-1667.818727
 20
981.270632
 30
0.0
 40
1051.0
100
AcDbArc
 50
14.09062999999999
 51
14.96456
  0
ARC
  5
3478
330
18
100
AcDbEntity
  8
0
100
AcDbCircle
 10
-639.6342080000001
 20
1215.045032
 30
0.0
 40
2.75
100
AcDbArc
 50
284.092798
 51
109.53941
  0
ARC
  5
3479
330
18
100
AcDbEntity
  8
0
100
AcDbCircle
 10
-1661.093798
 20
956.1729319999999
 30
0.0
 40
1051.0
100
AcDbArc
 50
13.18343
 51
14.05737
  0
ARC
  5
347A
330
18
100
AcDbEntity
  8
0
100
AcDbCircle
 10
-634.5430079999998
 20
1194.055131999998
 30
0.0
 40
2.75
100
AcDbArc
 50
282.918398
 51
108.36502
  0
ARC
  5
347B
330
18
100
AcDbEntity
  8
0
100
AcDbCircle
 10
-1661.093798
 20
956.1729319999999
 30
0.0
 40
1051.0
100
AcDbArc
 50
10.83463
 51
11.70857
  0
ARC
  5
347C
330
18
100
AcDbEntity
  8
0
100
AcDbCircle
 10
29.29819199999998
 20
956.1729319999999
 30
0.0
 40
949.0
100
AcDbArc
 50
178.27796
 51
179.11927
  0
ARC
  5
347D
330
18
100
AcDbEntity
  8
0
100
AcDbCircle
 10
29.29819199999998
 20
956.1729319999999
 30
0.0
 40
949.0
100
AcDbArc
 50
173.58036
 51
174.42167
  0
ARC
  5
347E
330
18
100
AcDbEntity
  8
0
100
AcDbCircle
 10
-908.356518
 20
1083.668732
 30
0.0
 40
2.75
100
AcDbArc
 50
250.88595
 51
76.33258000000002
  0
ARC
  5
347F
330
18
100
AcDbEntity
  8
0
100
AcDbCircle
 10
29.29819199999998
 20
956.1729319999999
 30
0.0
 40
949.0
100
AcDbArc
 50
171.23156
 51
172.0728699999999
  0
ARC
  5
3480
330
18
100
AcDbEntity
  8
0
100
AcDbCircle
 10
-905.546338
 20
1102.859932
 30
0.0
 40
2.75
100
AcDbArc
 50
249.71155
 51
75.15818
  0
ARC
  5
3481
330
18
100
AcDbEntity
  8
0
100
AcDbCircle
 10
-910.772648
 20
1064.424132
 30
0.0
 40
2.75
100
AcDbArc
 50
252.0603499999999
 51
77.50696999999998
  0
ARC
  5
3482
330
18
100
AcDbEntity
  8
0
100
AcDbCircle
 10
29.29819199999998
 20
956.1729319999999
 30
0.0
 40
949.0
100
AcDbArc
 50
172.40596
 51
173.24728
  0
ARC
  5
3483
330
18
100
AcDbEntity
  8
0
100
AcDbCircle
 10
-916.480168
 20
987.071732
 30
0.0
 40
2.75
100
AcDbArc
 50
256.7579499999999
 51
82.20456999999997
  0
ARC
  5
3484
330
18
100
AcDbEntity
  8
0
100
AcDbCircle
 10
29.29819199999998
 20
956.1729319999999
 30
0.0
 40
949.0
100
AcDbArc
 50
177.10356
 51
177.94488
  0
ARC
  5
3485
330
18
100
AcDbEntity
  8
0
100
AcDbCircle
 10
29.29819199999998
 20
956.1729319999999
 30
0.0
 40
949.0
100
AcDbArc
 50
175.92916
 51
176.7704699999999
  0
ARC
  5
3486
330
18
100
AcDbEntity
  8
0
100
AcDbCircle
 10
29.29819199999998
 20
956.1729319999999
 30
0.0
 40
949.0
100
AcDbArc
 50
174.75476
 51
175.5960799999999
  0
ARC
  5
3487
330
18
100
AcDbEntity
  8
0
100
AcDbCircle
 10
-912.793828
 20
1045.133932
 30
0.0
 40
2.75
100
AcDbArc
 50
253.2347499999999
 51
78.68137
  0
ARC
  5
3488
330
18
100
AcDbEntity
  8
0
100
AcDbCircle
 10
-914.419258
 20
1025.806432
 30
0.0
 40
2.75
100
AcDbArc
 50
254.4091499999999
 51
79.85578000000002
  0
ARC
  5
3489
330
18
100
AcDbEntity
  8
0
100
AcDbCircle
 10
-915.648198
 20
1006.449532
 30
0.0
 40
2.75
100
AcDbArc
 50
255.58355
 51
81.03018
  0
ARC
  5
348A
330
18
100
AcDbEntity
  8
0
100
AcDbCircle
 10
-915.833688
 20
909.511632
 30
0.0
 40
2.75
100
AcDbArc
 50
261.45555
 51
86.90219
  0
ARC
  5
348B
330
18
100
AcDbEntity
  8
0
100
AcDbCircle
 10
-916.591498
 20
928.8926319999999
 30
0.0
 40
2.75
100
AcDbArc
 50
260.28115
 51
85.72778000000003
  0
ARC
  5
348C
330
18
100
AcDbEntity
  8
0
100
AcDbCircle
 10
-916.9519179999999
 20
948.2852319999999
 30
0.0
 40
2.75
100
AcDbArc
 50
259.1067499999999
 51
84.55338000000002
  0
ARC
  5
348D
330
18
100
AcDbEntity
  8
0
100
AcDbCircle
 10
-916.9148679999999
 20
967.6808320000001
 30
0.0
 40
2.75
100
AcDbArc
 50
257.93235
 51
83.37897000000003
  0
ARC
  5
348E
330
18
100
AcDbEntity
  8
0
100
AcDbCircle
 10
29.29819199999998
 20
956.1729319999999
 30
0.0
 40
949.0
100
AcDbArc
 50
181.80116
 51
182.64247
  0
ARC
  5
348F
330
18
100
AcDbEntity
  8
0
100
AcDbCircle
 10
29.29819199999998
 20
956.1729319999999
 30
0.0
 40
949.0
100
AcDbArc
 50
179.4523599999999
 51
180.2936799999999
  0
ARC
  5
3490
330
18
100
AcDbEntity
  8
0
100
AcDbCircle
 10
29.29819199999998
 20
956.1729319999999
 30
0.0
 40
949.0
100
AcDbArc
 50
180.62676
 51
181.4680699999999
  0
ARC
  5
3491
330
18
100
AcDbEntity
  8
0
100
AcDbCircle
 10
29.29819199999998
 20
956.1729319999999
 30
0.0
 40
949.0
100
AcDbArc
 50
184.1499699999999
 51
184.9912699999999
  0
ARC
  5
3492
330
18
100
AcDbEntity
  8
0
100
AcDbCircle
 10
29.29819199999998
 20
956.1729319999999
 30
0.0
 40
949.0
100
AcDbArc
 50
182.97556
 51
183.81688
  0
ARC
  5
3493
330
18
100
AcDbEntity
  8
0
100
AcDbCircle
 10
-914.678718
 20
890.1503320000001
 30
0.0
 40
2.75
100
AcDbArc
 50
262.62995
 51
88.07658000000001
  0
ARC
  5
3494
330
18
100
AcDbEntity
  8
0
100
AcDbCircle
 10
-913.127328
 20
870.816832
 30
0.0
 40
2.75
100
AcDbArc
 50
263.80435
 51
89.25098
  0
ARC
  5
3495
330
18
100
AcDbEntity
  8
0
100
AcDbCircle
 10
29.29819199999998
 20
956.1729319999999
 30
0.0
 40
949.0
100
AcDbArc
 50
185.32436
 51
185.73757
  0
ARC
  5
3496
330
18
100
AcDbEntity
  8
0
100
AcDbCircle
 10
-1661.093798
 20
956.1729319999999
 30
0.0
 40
949.0
100
AcDbArc
 50
0.880728
 51
1.722043
  0
ARC
  5
3497
330
18
100
AcDbEntity
  8
0
100
AcDbCircle
 10
-1661.093798
 20
956.1729319999999
 30
0.0
 40
949.0
100
AcDbArc
 50
5.578326999999998
 51
6.419642999999998
  0
ARC
  5
3498
330
18
100
AcDbEntity
  8
0
100
AcDbCircle
 10
-723.439308
 20
1083.668732
 30
0.0
 40
2.75
100
AcDbArc
 50
103.6674199999999
 51
289.11405
  0
ARC
  5
3499
330
18
100
AcDbEntity
  8
0
100
AcDbCircle
 10
-1661.093798
 20
956.1729319999999
 30
0.0
 40
949.0
100
AcDbArc
 50
7.927127
 51
8.768442
  0
ARC
  5
349A
330
18
100
AcDbEntity
  8
0
100
AcDbCircle
 10
-726.249308
 20
1102.859932
 30
0.0
 40
2.75
100
AcDbArc
 50
104.8418199999999
 51
290.288452
  0
ARC
  5
349B
330
18
100
AcDbEntity
  8
0
100
AcDbCircle
 10
-721.0231079999998
 20
1064.424132
 30
0.0
 40
2.75
100
AcDbArc
 50
102.49303
 51
287.9396509999999
  0
ARC
  5
349C
330
18
100
AcDbEntity
  8
0
100
AcDbCircle
 10
-1661.093798
 20
956.1729319999999
 30
0.0
 40
949.0
100
AcDbArc
 50
6.752724
 51
7.594038999999999
  0
ARC
  5
349D
330
18
100
AcDbEntity
  8
0
100
AcDbCircle
 10
-1661.093798
 20
956.1729319999999
 30
0.0
 40
949.0
100
AcDbArc
 50
3.229527999999998
 51
4.070842999999999
  0
ARC
  5
349E
330
18
100
AcDbEntity
  8
0
100
AcDbCircle
 10
-1661.093798
 20
956.1729319999999
 30
0.0
 40
949.0
100
AcDbArc
 50
4.403923999999999
 51
5.245238999999999
  0
ARC
  5
349F
330
18
100
AcDbEntity
  8
0
100
AcDbCircle
 10
-719.0018079999998
 20
1045.133932
 30
0.0
 40
2.75
100
AcDbArc
 50
101.31863
 51
286.7652509999998
  0
ARC
  5
34A0
330
18
100
AcDbEntity
  8
0
100
AcDbCircle
 10
-717.376508
 20
1025.806432
 30
0.0
 40
2.75
100
AcDbArc
 50
100.1442199999999
 51
285.5908509999998
  0
ARC
  5
34A1
330
18
100
AcDbEntity
  8
0
100
AcDbCircle
 10
-715.315608
 20
987.071732
 30
0.0
 40
2.75
100
AcDbArc
 50
97.79543000000003
 51
283.242051
  0
ARC
  5
34A2
330
18
100
AcDbEntity
  8
0
100
AcDbCircle
 10
-716.147508
 20
1006.449532
 30
0.0
 40
2.75
100
AcDbArc
 50
98.96982000000001
 51
284.416451
  0
ARC
  5
34A3
330
18
100
AcDbEntity
  8
0
100
AcDbCircle
 10
-1661.093798
 20
956.1729319999999
 30
0.0
 40
949.0
100
AcDbArc
 50
2.055124
 51
2.89644
  0
ARC
  5
34A6
330
18
100
AcDbEntity
  8
0
100
AcDbCircle
 10
-1661.093798
 20
956.1729319999999
 30
0.0
 40
949.0
100
AcDbArc
 50
359.706325
 51
0.54764
  0
ARC
  5
34A7
330
18
100
AcDbEntity
  8
0
100
AcDbCircle
 10
-714.8810079999998
 20
967.6808320000001
 30
0.0
 40
2.75
100
AcDbArc
 50
96.62103000000001
 51
282.0676509999998
  0
ARC
  5
354E
330
18
100
AcDbEntity
  8
0
100
AcDbCircle
 10
-1661.093798
 20
956.1729319999999
 30
0.0
 40
1051.0
100
AcDbArc
 50
8.485829999999998
 51
9.359766
  0
ARC
  5
354F
330
18
100
AcDbEntity
  8
0
100
AcDbCircle
 10
-621.8645079999999
 20
1130.521132
 30
0.0
 40
2.75
100
AcDbArc
 50
279.395198
 51
104.8418099999999
  0
ARC
  5
3550
330
18
100
AcDbEntity
  8
0
100
AcDbCircle
 10
-607.613508
 20
980.1321319999999
 30
0.0
 40
2.75
100
AcDbArc
 50
271.174398
 51
96.62103000000001
  0
ARC
  5
3551
330
18
100
AcDbEntity
  8
0
100
AcDbCircle
 10
-1661.093798
 20
956.1729319999999
 30
0.0
 40
1051.0
100
AcDbArc
 50
4.962626999999998
 51
5.836562999999999
  0
ARC
  5
3552
330
18
100
AcDbEntity
  8
0
100
AcDbCircle
 10
-1661.093798
 20
956.1729319999999
 30
0.0
 40
1051.0
100
AcDbArc
 50
6.13703
 51
7.010966
  0
ARC
  5
3553
330
18
100
AcDbEntity
  8
0
100
AcDbCircle
 10
-615.592408
 20
1087.784231999998
 30
0.0
 40
2.75
100
AcDbArc
 50
277.046397
 51
102.49302
  0
ARC
  5
3554
330
18
100
AcDbEntity
  8
0
100
AcDbCircle
 10
-618.5095079999999
 20
1109.184832
 30
0.0
 40
2.75
100
AcDbArc
 50
278.2207979999999
 51
103.6674199999999
  0
ARC
  5
3555
330
18
100
AcDbEntity
  8
0
100
AcDbCircle
 10
-1661.093798
 20
956.1729319999999
 30
0.0
 40
1051.0
100
AcDbArc
 50
7.311425999999999
 51
8.185363
  0
ARC
  5
3556
330
18
100
AcDbEntity
  8
0
100
AcDbCircle
 10
-613.1146079999998
 20
1066.328232
 30
0.0
 40
2.75
100
AcDbArc
 50
275.871998
 51
101.31863
  0
ARC
  5
3557
330
18
100
AcDbEntity
  8
0
100
AcDbCircle
 10
-1661.093798
 20
956.1729319999999
 30
0.0
 40
1051.0
100
AcDbArc
 50
2.613827
 51
3.487762999999998
  0
ARC
  5
3558
330
18
100
AcDbEntity
  8
0
100
AcDbCircle
 10
-1661.093798
 20
956.1729319999999
 30
0.0
 40
1051.0
100
AcDbArc
 50
3.78823
 51
4.662167
  0
ARC
  5
3559
330
18
100
AcDbEntity
  8
0
100
AcDbCircle
 10
-611.0770079999999
 20
1044.825931999999
 30
0.0
 40
2.75
100
AcDbArc
 50
274.6975979999999
 51
100.1442199999999
  0
ARC
  5
355A
330
18
100
AcDbEntity
  8
0
100
AcDbCircle
 10
-609.4806079999998
 20
1023.286531999999
 30
0.0
 40
2.75
100
AcDbArc
 50
273.523198
 51
98.96982000000001
  0
ARC
  5
355B
330
18
100
AcDbEntity
  8
0
100
AcDbCircle
 10
-1661.093798
 20
956.1729319999999
 30
0.0
 40
1051.0
100
AcDbArc
 50
1.439430999999999
 51
2.313366999999999
  0
ARC
  5
355C
330
18
100
AcDbEntity
  8
0
100
AcDbCircle
 10
-608.325908
 20
1001.719032
 30
0.0
 40
2.75
100
AcDbArc
 50
272.348797
 51
97.79541999999999
  0
ARC
  5
3560
330
18
100
AcDbEntity
  8
0
100
AcDbCircle
 10
-1661.093798
 20
956.1729319999999
 30
0.0
 40
1051.0
100
AcDbArc
 50
0.265028
 51
1.138963999999998
  0
SPLINE
  5
38CC
330
18
100
AcDbEntity
  8
0
100
AcDbSpline
210
0.0
220
0.0
230
1.0
 70
     8
 71
     3
 72
    10
 73
     6
 74
     0
 42
0.0000000001
 43
0.0000000001
 40
47.66774626203778
 40
47.66774626203778
 40
47.66774626203778
 40
47.66774626203778
 40
107.6731549085339
 40
178.4829385728543
 40
250.3308528602623
 40
250.3308528602623
 40
250.3308528602623
 40
250.3308528602623
 10
760.5876041122684
 20
1504.372928111008
 30
0.0
 10
740.7054260449975
 20
1510.47997541932
 30
0.0
 10
698.5040856556333
 20
1515.684038454385
 30
0.0
 10
641.8438506318816
 20
1461.877919811915
 30
0.0
 10
597.923562313364
 20
1466.841846171828
 30
0.0
 10
575.2370209552871
 20
1475.35537892998
 30
0.0
  0
LINE
  5
38CE
330
18
100
AcDbEntity
  8
0
100
AcDbLine
 10
784.8979759999998
 20
2031.890532
 30
0.0
 11
784.8979759999998
 21
1642.890532
 31
0.0
  0
LINE
  5
38CF
330
18
100
AcDbEntity
  8
0
100
AcDbLine
 10
752.898036
 20
2031.890532
 30
0.0
 11
752.898036
 21
1642.890532
 31
0.0
  0
LINE
  5
38D1
330
18
100
AcDbEntity
  8
0
100
AcDbLine
 10
556.898086
 20
2031.890532
 30
0.0
 11
556.898086
 21
1642.890532
 31
0.0
  0
LINE
  5
38D2
330
18
100
AcDbEntity
  8
0
100
AcDbLine
 10
588.897886
 20
2031.890532
 30
0.0
 11
588.897886
 21
1642.890532
 31
0.0
  0
LINE
  5
38D3
330
18
100
AcDbEntity
  8
0
100
AcDbLine
 10
547.398086
 20
1694.890532
 30
0.0
 11
547.398086
 21
1690.890532
 31
0.0
  0
LINE
  5
38D4
330
18
100
AcDbEntity
  8
0
100
AcDbLine
 10
794.398036
 20
1694.890532
 30
0.0
 11
794.398036
 21
1690.890532
 31
0.0
  0
LINE
  5
38D6
330
18
100
AcDbEntity
  8
0
100
AcDbLine
 10
588.897886
 20
1698.890431999998
 30
0.0
 11
752.898036
 21
1698.890431999998
 31
0.0
  0
LINE
  5
38D7
330
18
100
AcDbEntity
  8
0
100
AcDbLine
 10
588.897886
 20
1694.890532
 30
0.0
 11
752.898036
 21
1694.890532
 31
0.0
  0
LINE
  5
38D8
330
18
100
AcDbEntity
  8
0
100
AcDbLine
 10
597.648986
 20
1750.890432
 30
0.0
 11
744.146886
 21
1750.890432
 31
0.0
  0
LINE
  5
38D9
330
18
100
AcDbEntity
  8
0
100
AcDbLine
 10
601.535786
 20
1728.890331999999
 30
0.0
 11
740.560286
 21
1728.890331999999
 31
0.0
  0
LINE
  5
38DA
330
18
100
AcDbEntity
  8
0
100
AcDbLine
 10
598.2515860000002
 20
1724.890332
 30
0.0
 11
744.042986
 21
1724.890332
 31
0.0
  0
LINE
  5
38DF
330
18
100
AcDbEntity
  8
0
100
AcDbLine
 10
556.898086
 20
2026.890532
 30
0.0
 11
588.897886
 21
2026.890532
 31
0.0
  0
LINE
  5
38E0
330
18
100
AcDbEntity
  8
0
100
AcDbLine
 10
556.898086
 20
2031.890532
 30
0.0
 11
588.897886
 21
2031.890532
 31
0.0
  0
CIRCLE
  5
38E1
330
18
100
AcDbEntity
  8
0
100
AcDbCircle
 10
572.897986
 20
2001.890432
 30
0.0
 40
4.75
  0
CIRCLE
  5
38E3
330
18
100
AcDbEntity
  8
0
100
AcDbCircle
 10
572.897986
 20
1751.890432
 30
0.0
 40
4.75
  0
LINE
  5
38E4
330
18
100
AcDbEntity
  8
0
100
AcDbLine
 10
543.397986
 20
1698.890431999998
 30
0.0
 11
556.898086
 21
1698.890431999998
 31
0.0
  0
LINE
  5
38E5
330
18
100
AcDbEntity
  8
0
100
AcDbLine
 10
547.397886
 20
1694.890532
 30
0.0
 11
556.898086
 21
1694.890532
 31
0.0
  0
LINE
  5
38E6
330
18
100
AcDbEntity
  8
0
100
AcDbLine
 10
543.398086
 20
1698.890331999999
 30
0.0
 11
547.398086
 21
1694.890331999999
 31
0.0
  0
LINE
  5
38E7
330
18
100
AcDbEntity
  8
0
100
AcDbLine
 10
595.789286
 20
1729.733332
 30
0.0
 11
596.858786
 21
1750.140432
 31
0.0
  0
LWPOLYLINE
  5
38E8
330
18
100
AcDbEntity
  8
0
100
AcDbPolyline
 90
       17
 70
     0
 43
0.0
 10
597.648486
 20
1750.890331999999
 42
0.024717
 10
597.573686
 20
1750.886632
 42
0.024349
 10
597.4995859999998
 20
1750.875532
 42
0.024014
 10
597.4268860000002
 20
1750.857331999999
 42
0.023721
 10
597.356186
 20
1750.832331999999
 42
0.023479
 10
597.288186
 20
1750.800832
 42
0.023292
 10
597.2234859999998
 20
1750.763032
 42
0.023651
 10
597.161286
 20
1750.718432
 42
0.023147
 10
597.104686
 20
1750.669231999999
 42
0.023037
 10
597.053086
 20
1750.615232
 42
0.022889
 10
597.0069859999998
 20
1750.557232
 42
0.023183
 10
596.966286
 20
1750.494832
 42
0.023892
 10
596.930686
 20
1750.427432
 42
0.023732
 10
596.9022859999999
 20
1750.358132
 42
0.024026
 10
596.8805859999998
 20
1750.286432
 42
0.024364
 10
596.865886
 20
1750.212932
 42
0.024734
 10
596.858486
 20
1750.138331999999
  0
LINE
  5
38E9
330
18
100
AcDbEntity
  8
0
100
AcDbLine
 10
591.0353859999998
 20
1698.890532
 30
0.0
 11
592.384686
 21
1724.633732
 31
0.0
  0
ARC
  5
38EA
330
18
100
AcDbEntity
  8
0
100
AcDbCircle
 10
595.380286
 20
1724.476732
 30
0.0
 40
3.0
100
AcDbArc
 50
115.54292
 51
176.99999
  0
ARC
  5
38EB
330
18
100
AcDbEntity
  8
0
100
AcDbCircle
 10
592.793186
 20
1729.890332
 30
0.0
 40
3.0
100
AcDbArc
 50
295.54292
 51
357.0
  0
LINE
  5
38ED
330
18
100
AcDbEntity
  8
0
100
AcDbLine
 10
752.898036
 20
2026.890532
 30
0.0
 11
784.8979759999998
 21
2026.890532
 31
0.0
  0
LINE
  5
38EE
330
18
100
AcDbEntity
  8
0
100
AcDbLine
 10
752.898036
 20
2031.890532
 30
0.0
 11
784.8979759999998
 21
2031.890532
 31
0.0
  0
CIRCLE
  5
38EF
330
18
100
AcDbEntity
  8
0
100
AcDbCircle
 10
768.898096
 20
2001.890432
 30
0.0
 40
4.75
  0
LINE
  5
38F1
330
18
100
AcDbEntity
  8
0
100
AcDbLine
 10
746.0067959999999
 20
1729.733332
 30
0.0
 11
744.9372860000002
 21
1750.140332
 31
0.0
  0
LWPOLYLINE
  5
38F3
330
18
100
AcDbEntity
  8
0
100
AcDbPolyline
 90
       17
 70
     0
 43
0.0
 10
744.147386
 20
1750.890331999999
 42
-0.024731
 10
744.222186
 20
1750.886632
 42
-0.024361
 10
744.296286
 20
1750.875532
 42
-0.024024
 10
744.368986
 20
1750.857331999999
 42
-0.023728
 10
744.4395860000001
 20
1750.832331999999
 42
-0.023481
 10
744.5075860000001
 20
1750.800732
 42
-0.02329
 10
744.572286
 20
1750.763032
 42
-0.023643
 10
744.634486
 20
1750.718432
 42
-0.023133
 10
744.691086
 20
1750.669132
 42
-0.023019
 10
744.742686
 20
1750.615132
 42
-0.022871
 10
744.7886859999998
 20
1750.557232
 42
-0.023166
 10
744.829486
 20
1750.494832
 42
-0.023876
 10
744.865086
 20
1750.427332
 42
-0.023715
 10
744.893486
 20
1750.358032
 42
-0.024013
 10
744.915286
 20
1750.286332
 42
-0.024354
 10
744.9299859999999
 20
1750.212932
 42
-0.024728
 10
744.937386
 20
1750.138331999999
  0
CIRCLE
  5
38F4
330
18
100
AcDbEntity
  8
0
100
AcDbCircle
 10
768.898096
 20
1751.890432
 30
0.0
 40
4.75
  0
LINE
  5
38F5
330
18
100
AcDbEntity
  8
0
100
AcDbLine
 10
750.7607059999997
 20
1698.890132
 30
0.0
 11
749.411526
 21
1724.633832
 31
0.0
  0
ARC
  5
38F6
330
18
100
AcDbEntity
  8
0
100
AcDbCircle
 10
746.4154859999998
 20
1724.476732
 30
0.0
 40
3.0
100
AcDbArc
 50
3.0
 51
64.457076
  0
ARC
  5
38F7
330
18
100
AcDbEntity
  8
0
100
AcDbCircle
 10
749.002766
 20
1729.890332
 30
0.0
 40
3.0
100
AcDbArc
 50
183.00001
 51
244.45708
  0
LINE
  5
38F8
330
18
100
AcDbEntity
  8
0
100
AcDbLine
 10
794.3979759999998
 20
1694.890432
 30
0.0
 11
798.3979059999998
 21
1698.890431999998
 31
0.0
  0
LINE
  5
38F9
330
18
100
AcDbEntity
  8
0
100
AcDbLine
 10
784.8979759999998
 20
1698.890431999998
 30
0.0
 11
798.3979759999998
 21
1698.890431999998
 31
0.0
  0
LINE
  5
38FA
330
18
100
AcDbEntity
  8
0
100
AcDbLine
 10
784.8979759999998
 20
1694.890532
 30
0.0
 11
794.398036
 21
1694.890532
 31
0.0
  0
LINE
  5
38FB
330
18
100
AcDbEntity
  8
0
100
AcDbLine
 10
670.897986
 20
1681.745432
 30
0.0
 11
591.8978860000001
 21
1660.261232
 31
0.0
  0
LINE
  5
38FC
330
18
100
AcDbEntity
  8
0
100
AcDbLine
 10
670.8978860000001
 20
1685.890532
 30
0.0
 11
588.897886
 21
1663.590432
 31
0.0
  0
LINE
  5
38FD
330
18
100
AcDbEntity
  8
0
100
AcDbLine
 10
588.897886
 20
1690.890532
 30
0.0
 11
752.898036
 21
1690.890532
 31
0.0
  0
LINE
  5
38FE
330
18
100
AcDbEntity
  8
0
100
AcDbLine
 10
591.8978860000001
 20
1658.890532
 30
0.0
 11
749.8979059999998
 21
1658.890532
 31
0.0
  0
LINE
  5
38FF
330
18
100
AcDbEntity
  8
0
100
AcDbLine
 10
589.397886
 20
1603.890532
 30
0.0
 11
752.3979759999998
 21
1603.890532
 31
0.0
  0
LINE
  5
3900
330
18
100
AcDbEntity
  8
0
100
AcDbLine
 10
591.397986
 20
1553.890532
 30
0.0
 11
750.3980959999998
 21
1553.890532
 31
0.0
  0
LINE
  5
3901
330
18
100
AcDbEntity
  8
0
100
AcDbLine
 10
591.3976659999998
 20
1553.890532
 30
0.0
 11
575.237021
 21
1475.355378999999
 31
0.0
  0
LINE
  5
3902
330
18
100
AcDbEntity
  8
0
100
AcDbLine
 10
591.397986
 20
1553.890532
 30
0.0
 11
591.397986
 21
1603.890532
 31
0.0
  0
ARC
  5
3903
330
18
100
AcDbEntity
  8
0
100
AcDbCircle
 10
572.897986
 20
1642.890532
 30
0.0
 40
16.0
100
AcDbArc
 50
179.9999899999999
 51
0.00001
  0
LINE
  5
3904
330
18
100
AcDbEntity
  8
0
100
AcDbLine
 10
550.8979860000001
 20
1643.890532
 30
0.0
 11
550.8979860000001
 21
1680.890532
 31
0.0
  0
LINE
  5
3905
330
18
100
AcDbEntity
  8
0
100
AcDbLine
 10
546.8979860000001
 20
1690.890532
 30
0.0
 11
556.898086
 21
1690.890532
 31
0.0
  0
LINE
  5
3906
330
18
100
AcDbEntity
  8
0
100
AcDbLine
 10
546.8979860000001
 20
1680.890532
 30
0.0
 11
556.898086
 21
1680.890532
 31
0.0
  0
LINE
  5
3907
330
18
100
AcDbEntity
  8
0
100
AcDbLine
 10
546.8979860000001
 20
1680.890532
 30
0.0
 11
546.8979860000001
 21
1690.890532
 31
0.0
  0
LINE
  5
3908
330
18
100
AcDbEntity
  8
0
100
AcDbLine
 10
556.898086
 20
1643.890532
 30
0.0
 11
550.8979860000001
 21
1643.890532
 31
0.0
  0
LINE
  5
3909
330
18
100
AcDbEntity
  8
0
100
AcDbLine
 10
616.8144859999999
 20
1603.890532
 30
0.0
 11
616.8144859999999
 21
1656.890431999999
 31
0.0
  0
LINE
  5
390A
330
18
100
AcDbEntity
  8
0
100
AcDbLine
 10
592.897986
 20
1603.890532
 30
0.0
 11
592.897986
 21
1658.890532
 31
0.0
  0
LINE
  5
390B
330
18
100
AcDbEntity
  8
0
100
AcDbLine
 10
591.8978860000001
 20
1643.890532
 30
0.0
 11
591.8978860000001
 21
1660.261132
 31
0.0
  0
LINE
  5
390C
330
18
100
AcDbEntity
  8
0
100
AcDbLine
 10
614.338986
 20
1603.890532
 30
0.0
 11
614.338986
 21
1648.890532
 31
0.0
  0
LINE
  5
390D
330
18
100
AcDbEntity
  8
0
100
AcDbLine
 10
612.217686
 20
1603.890532
 30
0.0
 11
612.217686
 21
1648.890532
 31
0.0
  0
LWPOLYLINE
  5
390E
330
18
100
AcDbEntity
  8
0
100
AcDbPolyline
 90
        4
 70
     0
 43
0.0
 10
612.217686
 20
1648.890532
 42
0.085693
 10
611.483686
 20
1653.233632
 42
0.132649
 10
609.047486
 20
1656.867832
 42
0.102457
 10
605.145686
 20
1658.890532
  0
LWPOLYLINE
  5
390F
330
18
100
AcDbEntity
  8
0
100
AcDbPolyline
 90
        4
 70
     0
 43
0.0
 10
614.338986
 20
1648.890532
 42
0.085688
 10
613.605086
 20
1653.233632
 42
0.13266
 10
611.1688860000001
 20
1656.867832
 42
0.10245
 10
607.2669860000002
 20
1658.890532
  0
ARC
  5
3910
330
18
100
AcDbEntity
  8
0
100
AcDbCircle
 10
614.814386
 20
1656.890431999999
 30
0.0
 40
2.0
100
AcDbArc
 50
0.0
 51
90.00000300000001
  0
LINE
  5
3911
330
18
100
AcDbEntity
  8
0
100
AcDbLine
 10
589.397886
 20
1603.890532
 30
0.0
 11
589.397886
 21
1643.890532
 31
0.0
  0
LINE
  5
3912
330
18
100
AcDbEntity
  8
0
100
AcDbLine
 10
589.397886
 20
1643.890532
 30
0.0
 11
588.897886
 21
1643.890532
 31
0.0
  0
LINE
  5
3913
330
18
100
AcDbEntity
  8
0
100
AcDbLine
 10
591.8978860000001
 20
1643.890532
 30
0.0
 11
588.897886
 21
1643.890532
 31
0.0
  0
LINE
  5
3914
330
18
100
AcDbEntity
  8
0
100
AcDbLine
 10
750.3980959999998
 20
1553.890532
 30
0.0
 11
760.587604
 21
1504.372928
 31
0.0
  0
LWPOLYLINE
  5
3915
330
18
100
AcDbEntity
  8
0
100
AcDbPolyline
 90
        4
 70
     0
 43
0.0
 10
729.5780859999998
 20
1648.890532
 42
-0.085695
 10
730.3120859999998
 20
1653.233632
 42
-0.132646
 10
732.7482859999999
 20
1656.867832
 42
-0.102457
 10
736.650186
 20
1658.890532
  0
LWPOLYLINE
  5
3916
330
18
100
AcDbEntity
  8
0
100
AcDbPolyline
 90
        4
 70
     0
 43
0.0
 10
727.456686
 20
1648.890532
 42
-0.085694
 10
728.190686
 20
1653.233632
 42
-0.132654
 10
730.626986
 20
1656.867832
 42
-0.102447
 10
734.5288860000001
 20
1658.890532
  0
LINE
  5
3917
330
18
100
AcDbEntity
  8
0
100
AcDbLine
 10
670.898086
 20
1685.890532
 30
0.0
 11
752.898156
 21
1663.590432
 31
0.0
  0
LINE
  5
3918
330
18
100
AcDbEntity
  8
0
100
AcDbLine
 10
670.897986
 20
1681.745432
 30
0.0
 11
749.897976
 21
1660.261232
 31
0.0
  0
LINE
  5
3919
330
18
100
AcDbEntity
  8
0
100
AcDbLine
 10
670.897986
 20
1658.890432
 30
0.0
 11
749.8979059999998
 21
1658.890432
 31
0.0
  0
CIRCLE
  5
391A
330
18
100
AcDbEntity
  8
0
100
AcDbCircle
 10
670.897986
 20
1594.890532
 30
0.0
 40
6.5
  0
ARC
  5
391B
330
18
100
AcDbEntity
  8
0
100
AcDbCircle
 10
684.344186
 20
1656.890632
 30
0.0
 40
2.0
100
AcDbArc
 50
90.00000300000001
 51
178.43778
  0
LINE
  5
391C
330
18
100
AcDbEntity
  8
0
100
AcDbLine
 10
680.897886
 20
1603.890532
 30
0.0
 11
682.344886
 21
1656.945132
 31
0.0
  0
LINE
  5
391D
330
18
100
AcDbEntity
  8
0
100
AcDbLine
 10
660.897986
 20
1603.890532
 30
0.0
 11
659.397886
 21
1658.890632
 31
0.0
  0
ARC
  5
391E
330
18
100
AcDbEntity
  8
0
100
AcDbCircle
 10
657.4517860000002
 20
1656.890632
 30
0.0
 40
2.0
100
AcDbArc
 50
1.562224
 51
90.00000300000001
  0
LINE
  5
391F
330
18
100
AcDbEntity
  8
0
100
AcDbLine
 10
727.456686
 20
1603.890532
 30
0.0
 11
727.456686
 21
1648.890532
 31
0.0
  0
LINE
  5
3920
330
18
100
AcDbEntity
  8
0
100
AcDbLine
 10
729.5780859999998
 20
1603.890532
 30
0.0
 11
729.5780859999998
 21
1648.890532
 31
0.0
  0
LINE
  5
3921
330
18
100
AcDbEntity
  8
0
100
AcDbLine
 10
724.981386
 20
1603.890532
 30
0.0
 11
724.981386
 21
1656.890431999999
 31
0.0
  0
ARC
  5
3922
330
18
100
AcDbEntity
  8
0
100
AcDbCircle
 10
726.981486
 20
1656.890431999999
 30
0.0
 40
2.0
100
AcDbArc
 50
90.00000300000001
 51
180.00001
  0
LINE
  5
3924
330
18
100
AcDbEntity
  8
0
100
AcDbLine
 10
675.6478860000002
 20
1592.148232
 30
0.0
 11
675.6478860000002
 21
1597.632931999999
 31
0.0
  0
LINE
  5
3925
330
18
100
AcDbEntity
  8
0
100
AcDbLine
 10
675.6478860000002
 20
1597.633032
 30
0.0
 11
670.897986
 21
1600.375432
 31
0.0
  0
LINE
  5
3926
330
18
100
AcDbEntity
  8
0
100
AcDbLine
 10
670.898386
 20
1589.405632
 30
0.0
 11
675.648186
 21
1592.148132
 31
0.0
  0
LINE
  5
3927
330
18
100
AcDbEntity
  8
0
100
AcDbLine
 10
666.147986
 20
1592.148232
 30
0.0
 11
666.147986
 21
1597.632931999999
 31
0.0
  0
LINE
  5
3928
330
18
100
AcDbEntity
  8
0
100
AcDbLine
 10
670.898186
 20
1600.375232
 30
0.0
 11
666.148386
 21
1597.632931999999
 31
0.0
  0
LINE
  5
3929
330
18
100
AcDbEntity
  8
0
100
AcDbLine
 10
670.897986
 20
1589.405932
 30
0.0
 11
666.147986
 21
1592.148332
 31
0.0
  0
LINE
  5
392A
330
18
100
AcDbEntity
  8
0
100
AcDbLine
 10
750.3980959999998
 20
1553.890532
 30
0.0
 11
750.3980959999998
 21
1603.890532
 31
0.0
  0
ARC
  5
392B
330
18
100
AcDbEntity
  8
0
100
AcDbCircle
 10
768.898036
 20
1642.890532
 30
0.0
 40
16.0
100
AcDbArc
 50
179.9999899999999
 51
0.00001
  0
LINE
  5
392C
330
18
100
AcDbEntity
  8
0
100
AcDbLine
 10
748.8979059999998
 20
1603.890532
 30
0.0
 11
748.8979059999998
 21
1658.890532
 31
0.0
  0
LINE
  5
392D
330
18
100
AcDbEntity
  8
0
100
AcDbLine
 10
749.8979059999998
 20
1643.890532
 30
0.0
 11
749.8979059999998
 21
1660.261132
 31
0.0
  0
LINE
  5
392E
330
18
100
AcDbEntity
  8
0
100
AcDbLine
 10
752.3979759999998
 20
1603.890532
 30
0.0
 11
752.3979759999998
 21
1643.890532
 31
0.0
  0
LINE
  5
392F
330
18
100
AcDbEntity
  8
0
100
AcDbLine
 10
749.8979059999998
 20
1643.890532
 30
0.0
 11
752.898036
 21
1643.890532
 31
0.0
  0
LINE
  5
3930
330
18
100
AcDbEntity
  8
0
100
AcDbLine
 10
791.373496
 20
1680.890532
 30
0.0
 11
791.373496
 21
1643.890532
 31
0.0
  0
LINE
  5
3931
330
18
100
AcDbEntity
  8
0
100
AcDbLine
 10
790.8979059999998
 20
1643.890532
 30
0.0
 11
790.8979059999998
 21
1680.890532
 31
0.0
  0
ARC
  5
3932
330
18
100
AcDbEntity
  8
0
100
AcDbCircle
 10
770.897976
 20
1642.890532
 30
0.0
 40
20.5
100
AcDbArc
 50
2.796367
 51
46.92710499999999
  0
LINE
  5
3933
330
18
100
AcDbEntity
  8
0
100
AcDbLine
 10
794.897846
 20
1681.890631999999
 30
0.0
 11
794.897846
 21
1690.890532
 31
0.0
  0
ARC
  5
3934
330
18
100
AcDbEntity
  8
0
100
AcDbCircle
 10
793.8979059999998
 20
1681.890631999999
 30
0.0
 40
1.0
100
AcDbArc
 50
270.0
 51
0.0
  0
LINE
  5
3935
330
18
100
AcDbEntity
  8
0
100
AcDbLine
 10
784.8979759999998
 20
1690.890532
 30
0.0
 11
794.8979059999998
 21
1690.890532
 31
0.0
  0
LINE
  5
3936
330
18
100
AcDbEntity
  8
0
100
AcDbLine
 10
784.8979759999998
 20
1680.890532
 30
0.0
 11
793.8979059999998
 21
1680.890532
 31
0.0
  0
LINE
  5
3937
330
18
100
AcDbEntity
  8
0
100
AcDbLine
 10
784.8979759999998
 20
1643.890532
 30
0.0
 11
790.8979059999998
 21
1643.890532
 31
0.0
  0
LINE
  5
3938
330
18
100
AcDbEntity
  8
0
100
AcDbLine
 10
786.8666559999998
 20
1643.890532
 30
0.0
 11
791.373496
 21
1643.890532
 31
0.0
  0
LINE
  5
3DDA
330
18
100
AcDbEntity
  8
0
100
AcDbLine
 10
-607.8644979999998
 20
961.248269
 30
0.0
 11
-715.364498
 21
950.9982989999999
 31
0.0
  0
LINE
  5
3DDB
330
18
100
AcDbEntity
  8
0
100
AcDbLine
 10
-607.343698
 20
955.7853790000001
 30
0.0
 11
-714.843698
 21
945.535379
 31
0.0
  0
LINE
  5
3DDD
330
18
100
AcDbEntity
  8
0
100
AcDbLine
 10
-607.343698
 20
914.7855289999997
 30
0.0
 11
-714.8437979999998
 21
904.5354989999999
 31
0.0
  0
LINE
  5
3DDE
330
18
100
AcDbEntity
  8
0
100
AcDbLine
 10
-607.8644979999998
 20
920.248239
 30
0.0
 11
-715.3646980000002
 21
909.998239
 31
0.0
  0
LINE
  5
3DDF
330
18
100
AcDbEntity
  8
0
100
AcDbLine
 10
-607.8644979999998
 20
940.748269
 30
0.0
 11
-715.3646980000002
 21
930.4982390000001
 31
0.0
  0
LINE
  5
3DE0
330
18
100
AcDbEntity
  8
0
100
AcDbLine
 10
-607.343698
 20
935.2853790000001
 30
0.0
 11
-714.8437979999998
 21
925.035349
 31
0.0
  0
LINE
  5
3DE3
330
18
100
AcDbEntity
  8
0
100
AcDbLine
 10
-607.8646980000002
 20
899.748209
 30
0.0
 11
-715.3646980000002
 21
889.4982089999999
 31
0.0
  0
LINE
  5
3DE4
330
18
100
AcDbEntity
  8
0
100
AcDbLine
 10
-607.343798
 20
894.285499
 30
0.0
 11
-714.8437979999998
 21
884.0354990000001
 31
0.0
  0
ARC
  5
3DEC
330
18
100
AcDbEntity
  8
0
100
AcDbCircle
 10
-714.8437979999998
 20
948.2855589999999
 30
0.0
 40
2.75
100
AcDbArc
 50
95.44662
 51
280.89325
  0
ARC
  5
3DEE
330
18
100
AcDbEntity
  8
0
100
AcDbCircle
 10
-714.8437979999998
 20
927.7856490000001
 30
0.0
 40
2.75
100
AcDbArc
 50
95.44662
 51
280.89325
  0
ARC
  5
3DEF
330
18
100
AcDbEntity
  8
0
100
AcDbCircle
 10
-714.8437979999998
 20
907.2854989999999
 30
0.0
 40
2.75
100
AcDbArc
 50
95.44662
 51
280.89325
  0
ARC
  5
3DF0
330
18
100
AcDbEntity
  8
0
100
AcDbCircle
 10
-714.8437979999998
 20
886.7855890000001
 30
0.0
 40
2.75
100
AcDbArc
 50
95.44662
 51
280.89325
  0
LINE
  5
3DF4
330
18
100
AcDbEntity
  8
0
100
AcDbLine
 10
-712.093898
 20
925.2977689999999
 30
0.0
 11
-712.093898
 21
910.3102189999999
 31
0.0
  0
LINE
  5
3DF5
330
18
100
AcDbEntity
  8
0
100
AcDbLine
 10
-712.093898
 20
904.7978589999999
 30
0.0
 11
-712.093898
 21
889.8102789999997
 31
0.0
  0
LINE
  5
3DF6
330
18
100
AcDbEntity
  8
0
100
AcDbLine
 10
-712.093898
 20
884.2977089999997
 30
0.0
 11
-712.093898
 21
878.8436140000001
 31
0.0
  0
LINE
  5
3DF8
330
18
100
AcDbEntity
  8
0
100
AcDbLine
 10
-712.093898
 20
945.7977389999999
 30
0.0
 11
-712.093898
 21
930.8103389999999
 31
0.0
  0
LINE
  5
3DFF
330
18
100
AcDbEntity
  8
0
100
AcDbLine
 10
-610.0938980000002
 20
935.023409
 30
0.0
 11
-610.0938980000002
 21
920.0358689999999
 31
0.0
  0
ARC
  5
3E00
330
18
100
AcDbEntity
  8
0
100
AcDbCircle
 10
-607.343798
 20
917.535559
 30
0.0
 40
2.75
100
AcDbArc
 50
269.9999899999999
 51
95.44662
  0
ARC
  5
3E02
330
18
100
AcDbEntity
  8
0
100
AcDbCircle
 10
-607.343798
 20
897.035619
 30
0.0
 40
2.75
100
AcDbArc
 50
269.9999899999999
 51
95.44662
  0
LINE
  5
3E03
330
18
100
AcDbEntity
  8
0
100
AcDbLine
 10
-610.0938980000002
 20
914.523319
 30
0.0
 11
-610.0938980000002
 21
899.535739
 31
0.0
  0
LINE
  5
3E04
330
18
100
AcDbEntity
  8
0
100
AcDbLine
 10
-610.0938980000002
 20
894.023349
 30
0.0
 11
-610.0938980000002
 21
881.887674
 31
0.0
  0
ARC
  5
3E05
330
18
100
AcDbEntity
  8
0
100
AcDbCircle
 10
-607.343798
 20
958.535619
 30
0.0
 40
2.75
100
AcDbArc
 50
269.9999899999999
 51
95.44662
  0
ARC
  5
3E06
330
18
100
AcDbEntity
  8
0
100
AcDbCircle
 10
-607.343798
 20
938.035499
 30
0.0
 40
2.75
100
AcDbArc
 50
269.9999899999999
 51
95.44662
  0
LINE
  5
3E07
330
18
100
AcDbEntity
  8
0
100
AcDbLine
 10
-610.0938980000002
 20
955.523379
 30
0.0
 11
-610.0938980000002
 21
940.535809
 31
0.0
  0
ARC
  5
3E27
330
18
100
AcDbEntity
  8
0
100
AcDbCircle
 10
456.453195
 20
552.621538
 30
0.0
 40
2.75
100
AcDbArc
 50
269.9999899999999
 51
95.44662
  0
LINE
  5
3E29
330
18
100
AcDbEntity
  8
0
100
AcDbLine
 10
351.703095
 20
560.3837480000001
 30
0.0
 11
351.703095
 21
545.396198
 31
0.0
  0
LINE
  5
3E2A
330
18
100
AcDbEntity
  8
0
100
AcDbLine
 10
455.9325949999998
 20
555.334428
 30
0.0
 11
348.432195
 21
545.084428
 31
0.0
  0
ARC
  5
3E2C
330
18
100
AcDbEntity
  8
0
100
AcDbCircle
 10
29.058195
 20
552.2039379999998
 30
0.0
 40
2.75
100
AcDbArc
 50
250.0
 51
75.44661999999998
  0
ARC
  5
3E2E
330
18
100
AcDbEntity
  8
0
100
AcDbCircle
 10
-239.153325
 20
557.157238
 30
0.0
 40
251.0
100
AcDbArc
 50
177.8264899999999
 51
182.57148
  0
LINE
  5
3E2F
330
18
100
AcDbEntity
  8
0
100
AcDbLine
 10
-491.9839549999998
 20
538.807758
 30
0.0
 11
-384.7943149999998
 21
551.9112679999998
 31
0.0
  0
LINE
  5
3E30
330
18
100
AcDbEntity
  8
0
100
AcDbLine
 10
-492.649845
 20
544.2548379999998
 30
0.0
 11
-385.460215
 21
557.3584179999998
 31
0.0
  0
LINE
  5
3E32
330
18
100
AcDbEntity
  8
0
100
AcDbLine
 10
21.106295
 20
530.355908
 30
0.0
 11
-83.41651500000002
 21
557.4912279999998
 31
0.0
  0
LINE
  5
3E33
330
18
100
AcDbEntity
  8
0
100
AcDbLine
 10
-80.742685
 20
556.797318
 30
0.0
 11
-85.868725
 21
542.7135779999998
 31
0.0
  0
LINE
  5
3E34
330
18
100
AcDbEntity
  8
0
100
AcDbLine
 10
22.485195
 20
535.667498
 30
0.0
 11
-82.037545
 21
562.8028079999998
 31
0.0
  0
LINE
  5
3E35
330
18
100
AcDbEntity
  8
0
100
AcDbLine
 10
28.117695
 20
549.619588
 30
0.0
 11
-76.405035
 21
576.7549579999998
 31
0.0
  0
ARC
  5
3E36
330
18
100
AcDbEntity
  8
0
100
AcDbCircle
 10
-239.153325
 20
557.157238
 30
0.0
 40
149.0
100
AcDbArc
 50
321.9500229999998
 51
325.828614
  0
ARC
  5
3E37
330
18
100
AcDbEntity
  8
0
100
AcDbCircle
 10
-116.802925
 20
477.0248579999998
 30
0.0
 40
2.75
100
AcDbArc
 50
62.74891999999999
 51
248.1955599999999
  0
LINE
  5
3E38
330
18
100
AcDbEntity
  8
0
100
AcDbLine
 10
-94.681525
 20
348.4594579999998
 30
0.0
 11
-162.271855
 21
432.678548
 31
0.0
  0
LINE
  5
3E39
330
18
100
AcDbEntity
  8
0
100
AcDbLine
 10
-90.401675
 20
351.8942379999998
 30
0.0
 11
-157.9920149999999
 21
436.1133579999998
 31
0.0
  0
LINE
  5
3E3A
330
18
100
AcDbEntity
  8
0
100
AcDbLine
 10
-73.65810500000002
 20
364.7041779999998
 30
0.0
 11
-149.681525
 21
441.396808
 31
0.0
  0
LINE
  5
3E3B
330
18
100
AcDbEntity
  8
0
100
AcDbLine
 10
-69.76080500000001
 20
368.5674879999998
 30
0.0
 11
-145.784185
 21
445.260088
 31
0.0
  0
LINE
  5
3E3C
330
18
100
AcDbEntity
  8
0
100
AcDbLine
 10
-54.447905
 20
383.057388
 30
0.0
 11
-138.071355
 21
451.3832579999998
 31
0.0
  0
LINE
  5
3E3D
330
18
100
AcDbEntity
  8
0
100
AcDbLine
 10
-50.97570499999999
 20
387.3069279999998
 30
0.0
 11
-134.599185
 21
455.632828
 31
0.0
  0
LINE
  5
3E3E
330
18
100
AcDbEntity
  8
0
100
AcDbLine
 10
-37.261305
 20
403.318098
 30
0.0
 11
-127.568735
 21
462.528638
 31
0.0
  0
LINE
  5
3E3F
330
18
100
AcDbEntity
  8
0
100
AcDbLine
 10
-34.25240499999999
 20
407.9073079999998
 30
0.0
 11
-124.5597649999999
 21
467.1178179999998
 31
0.0
  0
LINE
  5
3E40
330
18
100
AcDbEntity
  8
0
100
AcDbLine
 10
-22.28670499999999
 20
425.264328
 30
0.0
 11
-118.288585
 21
474.710828
 31
0.0
  0
LINE
  5
3E41
330
18
100
AcDbEntity
  8
0
100
AcDbLine
 10
-117.287845
 20
334.501298
 30
0.0
 11
-175.704655
 21
425.324148
 31
0.0
  0
LINE
  5
3E42
330
18
100
AcDbEntity
  8
0
100
AcDbLine
 10
-112.672435
 20
337.4699279999998
 30
0.0
 11
-171.089245
 21
428.292738
 31
0.0
  0
ARC
  5
3E43
330
18
100
AcDbEntity
  8
0
100
AcDbCircle
 10
-489.331485
 20
513.8061679999998
 30
0.0
 40
2.75
100
AcDbArc
 50
97.81954
 51
283.2661709999998
  0
ARC
  5
3E44
330
18
100
AcDbEntity
  8
0
100
AcDbCircle
 10
-492.5767849999998
 20
541.505878
 30
0.0
 40
2.75
100
AcDbArc
 50
91.52298999999999
 51
276.969621
  0
ARC
  5
3E45
330
18
100
AcDbEntity
  8
0
100
AcDbCircle
 10
-239.153325
 20
557.157238
 30
0.0
 40
149.0
100
AcDbArc
 50
243.95002
 51
247.82861
  0
ARC
  5
3E46
330
18
100
AcDbEntity
  8
0
100
AcDbCircle
 10
-306.057745
 20
427.100998
 30
0.0
 40
2.75
100
AcDbArc
 50
338.748921
 51
164.19554
  0
ARC
  5
3E47
330
18
100
AcDbEntity
  8
0
100
AcDbCircle
 10
-239.153325
 20
557.157238
 30
0.0
 40
251.0
100
AcDbArc
 50
251.90234
 51
256.6473299999998
  0
LINE
  5
3E48
330
18
100
AcDbEntity
  8
0
100
AcDbLine
 10
-342.540535
 20
325.703078
 30
0.0
 11
-303.399845
 21
426.347458
 31
0.0
  0
LINE
  5
3E49
330
18
100
AcDbEntity
  8
0
100
AcDbLine
 10
-323.0750149999999
 20
317.6076479999998
 30
0.0
 11
-294.6689549999998
 21
421.792128
 31
0.0
  0
LINE
  5
3E4A
330
18
100
AcDbEntity
  8
0
100
AcDbLine
 10
-317.780585
 20
316.1641379999998
 30
0.0
 11
-289.3745149999998
 21
420.3486179999998
 31
0.0
  0
LINE
  5
3E4B
330
18
100
AcDbEntity
  8
0
100
AcDbLine
 10
-347.655035
 20
327.6921279999999
 30
0.0
 11
-308.514415
 21
428.336498
 31
0.0
  0
ARC
  5
3E4C
330
18
100
AcDbEntity
  8
0
100
AcDbCircle
 10
-368.732495
 20
338.8050079999998
 30
0.0
 40
2.75
100
AcDbArc
 50
147.3022999999999
 51
332.748914
  0
LINE
  5
3E4D
330
18
100
AcDbEntity
  8
0
100
AcDbLine
 10
-366.167795
 20
337.7778779999998
 30
0.0
 11
-316.7213249999998
 21
433.779648
 31
0.0
  0
ARC
  5
3E4E
330
18
100
AcDbEntity
  8
0
100
AcDbCircle
 10
-239.153325
 20
557.157238
 30
0.0
 40
251.0
100
AcDbArc
 50
239.9023399999999
 51
244.64733
  0
ARC
  5
3E4F
330
18
100
AcDbEntity
  8
0
100
AcDbCircle
 10
-239.153325
 20
557.157238
 30
0.0
 40
251.0
100
AcDbArc
 50
245.9023399999999
 51
250.64733
  0
ARC
  5
3E50
330
18
100
AcDbEntity
  8
0
100
AcDbCircle
 10
-345.198615
 20
326.456468
 30
0.0
 40
2.75
100
AcDbArc
 50
153.3023
 51
338.748914
  0
ARC
  5
3E51
330
18
100
AcDbEntity
  8
0
100
AcDbCircle
 10
-320.5028149999999
 20
316.6356079999999
 30
0.0
 40
2.75
100
AcDbArc
 50
159.3023
 51
344.748914
  0
ARC
  5
3E52
330
18
100
AcDbEntity
  8
0
100
AcDbCircle
 10
-239.153325
 20
557.157238
 30
0.0
 40
251.0
100
AcDbArc
 50
227.9023399999999
 51
232.6473299999999
  0
LINE
  5
3E53
330
18
100
AcDbEntity
  8
0
100
AcDbLine
 10
-431.6066349999998
 20
391.662098
 30
0.0
 11
-354.914065
 21
467.6854379999999
 31
0.0
  0
LINE
  5
3E54
330
18
100
AcDbEntity
  8
0
100
AcDbLine
 10
-427.743355
 20
387.764758
 30
0.0
 11
-351.0507249999998
 21
463.788098
 31
0.0
  0
LINE
  5
3E55
330
18
100
AcDbEntity
  8
0
100
AcDbLine
 10
-445.1837849999998
 20
409.470078
 30
0.0
 11
-360.6159749999998
 21
476.6236079999997
 31
0.0
  0
LINE
  5
3E56
330
18
100
AcDbEntity
  8
0
100
AcDbLine
 10
-448.596325
 20
413.767598
 30
0.0
 11
-364.0285749999998
 21
480.921158
 31
0.0
  0
LINE
  5
3E57
330
18
100
AcDbEntity
  8
0
100
AcDbLine
 10
-460.138435
 20
432.957258
 30
0.0
 11
-368.7157649999998
 21
490.430798
 31
0.0
  0
LINE
  5
3E58
330
18
100
AcDbEntity
  8
0
100
AcDbLine
 10
-463.0590849999999
 20
437.6031679999998
 30
0.0
 11
-371.6364249999998
 21
495.076678
 31
0.0
  0
LINE
  5
3E59
330
18
100
AcDbEntity
  8
0
100
AcDbLine
 10
-472.4268849999998
 20
457.942888
 30
0.0
 11
-375.2523249999998
 21
505.042988
 31
0.0
  0
LINE
  5
3E5A
330
18
100
AcDbEntity
  8
0
100
AcDbLine
 10
-474.820385
 20
462.8811179999998
 30
0.0
 11
-377.645825
 21
509.9811579999998
 31
0.0
  0
LINE
  5
3E5B
330
18
100
AcDbEntity
  8
0
100
AcDbLine
 10
-481.9008849999998
 20
484.125628
 30
0.0
 11
-380.1469149999998
 21
520.2840079999998
 31
0.0
  0
LINE
  5
3E5C
330
18
100
AcDbEntity
  8
0
100
AcDbLine
 10
-483.738415
 20
489.296528
 30
0.0
 11
-381.984385
 21
525.454908
 31
0.0
  0
LINE
  5
3E5D
330
18
100
AcDbEntity
  8
0
100
AcDbLine
 10
-488.446295
 20
511.189348
 30
0.0
 11
-383.340405
 21
535.969808
 31
0.0
  0
LINE
  5
3E5E
330
18
100
AcDbEntity
  8
0
100
AcDbLine
 10
-489.7055749999998
 20
516.530598
 30
0.0
 11
-384.5996749999997
 21
541.3109879999998
 31
0.0
  0
LINE
  5
3E5F
330
18
100
AcDbEntity
  8
0
100
AcDbLine
 10
-413.253365
 20
372.451858
 30
0.0
 11
-344.927435
 21
456.075398
 31
0.0
  0
LINE
  5
3E60
330
18
100
AcDbEntity
  8
0
100
AcDbLine
 10
-409.003795
 20
368.9797179999998
 30
0.0
 11
-340.677925
 21
452.6032279999998
 31
0.0
  0
ARC
  5
3E61
330
18
100
AcDbEntity
  8
0
100
AcDbCircle
 10
-239.153325
 20
557.157238
 30
0.0
 40
251.0
100
AcDbArc
 50
203.0126899999999
 51
207.75768
  0
ARC
  5
3E62
330
18
100
AcDbEntity
  8
0
100
AcDbCircle
 10
-239.153325
 20
557.157238
 30
0.0
 40
251.0
100
AcDbArc
 50
209.3092399999999
 51
214.0542299999999
  0
ARC
  5
3E63
330
18
100
AcDbEntity
  8
0
100
AcDbCircle
 10
-461.8231849999999
 20
435.146618
 30
0.0
 40
2.75
100
AcDbArc
 50
116.7091899999999
 51
302.15582
  0
ARC
  5
3E64
330
18
100
AcDbEntity
  8
0
100
AcDbCircle
 10
-447.0984549999998
 20
411.461468
 30
0.0
 40
2.75
100
AcDbArc
 50
123.0057399999999
 51
308.45237
  0
ARC
  5
3E65
330
18
100
AcDbEntity
  8
0
100
AcDbCircle
 10
-429.864995
 20
389.5340779999998
 30
0.0
 40
2.75
100
AcDbArc
 50
129.3023
 51
314.7489199999998
  0
ARC
  5
3E66
330
18
100
AcDbEntity
  8
0
100
AcDbCircle
 10
-239.153325
 20
557.157238
 30
0.0
 40
251.0
100
AcDbArc
 50
221.9023399999999
 51
226.6473299999999
  0
ARC
  5
3E67
330
18
100
AcDbEntity
  8
0
100
AcDbCircle
 10
-411.298835
 20
370.5176279999998
 30
0.0
 40
2.75
100
AcDbArc
 50
135.3023
 51
320.748913
  0
ARC
  5
3E68
330
18
100
AcDbEntity
  8
0
100
AcDbCircle
 10
-239.153325
 20
557.157238
 30
0.0
 40
251.0
100
AcDbArc
 50
215.6057899999999
 51
220.35078
  0
ARC
  5
3E69
330
18
100
AcDbEntity
  8
0
100
AcDbCircle
 10
-239.153325
 20
557.157238
 30
0.0
 40
251.0
100
AcDbArc
 50
190.4195899999999
 51
195.16458
  0
ARC
  5
3E6A
330
18
100
AcDbEntity
  8
0
100
AcDbCircle
 10
-239.153325
 20
557.157238
 30
0.0
 40
251.0
100
AcDbArc
 50
196.7161399999999
 51
201.4611299999999
  0
ARC
  5
3E6B
330
18
100
AcDbEntity
  8
0
100
AcDbCircle
 10
-483.067815
 20
486.6295280000001
 30
0.0
 40
2.75
100
AcDbArc
 50
104.1161
 51
289.562722
  0
ARC
  5
3E6C
330
18
100
AcDbEntity
  8
0
100
AcDbCircle
 10
-473.8613349999998
 20
460.303848
 30
0.0
 40
2.75
100
AcDbArc
 50
110.4126399999999
 51
295.859272
  0
ARC
  5
3E6D
330
18
100
AcDbEntity
  8
0
100
AcDbCircle
 10
-239.153325
 20
557.157238
 30
0.0
 40
251.0
100
AcDbArc
 50
184.12304
 51
188.8680399999999
  0
ARC
  5
3E6E
330
18
100
AcDbEntity
  8
0
100
AcDbCircle
 10
-331.635935
 20
443.853228
 30
0.0
 40
2.75
100
AcDbArc
 50
326.7489199999999
 51
152.1955299999999
  0
ARC
  5
3E6F
330
18
100
AcDbEntity
  8
0
100
AcDbCircle
 10
-239.153325
 20
557.157238
 30
0.0
 40
149.0
100
AcDbArc
 50
225.95002
 51
229.8286099999998
  0
LINE
  5
3E70
330
18
100
AcDbEntity
  8
0
100
AcDbLine
 10
-392.992565
 20
355.2652779999998
 30
0.0
 11
-333.781985
 21
445.572708
 31
0.0
  0
LINE
  5
3E71
330
18
100
AcDbEntity
  8
0
100
AcDbLine
 10
-388.4033249999998
 20
352.2563279999998
 30
0.0
 11
-329.192755
 21
442.563798
 31
0.0
  0
LINE
  5
3E72
330
18
100
AcDbEntity
  8
0
100
AcDbLine
 10
-371.046395
 20
340.290608
 30
0.0
 11
-321.5999249999998
 21
436.2924379999998
 31
0.0
  0
ARC
  5
3E73
330
18
100
AcDbEntity
  8
0
100
AcDbCircle
 10
-239.153325
 20
557.157238
 30
0.0
 40
251.0
100
AcDbArc
 50
233.90234
 51
238.64733
  0
ARC
  5
3E74
330
18
100
AcDbEntity
  8
0
100
AcDbCircle
 10
-390.846625
 20
353.545918
 30
0.0
 40
2.75
100
AcDbArc
 50
141.3023
 51
326.748914
  0
ARC
  5
3E75
330
18
100
AcDbEntity
  8
0
100
AcDbCircle
 10
-239.153325
 20
557.157238
 30
0.0
 40
149.0
100
AcDbArc
 50
231.95002
 51
235.8286099999999
  0
ARC
  5
3E76
330
18
100
AcDbEntity
  8
0
100
AcDbCircle
 10
-239.153325
 20
557.157238
 30
0.0
 40
149.0
100
AcDbArc
 50
237.95002
 51
241.82861
  0
ARC
  5
3E77
330
18
100
AcDbEntity
  8
0
100
AcDbCircle
 10
-319.285835
 20
434.8068379999999
 30
0.0
 40
2.75
100
AcDbArc
 50
332.7489209999999
 51
158.19555
  0
ARC
  5
3E78
330
18
100
AcDbEntity
  8
0
100
AcDbCircle
 10
-353.172245
 20
465.557388
 30
0.0
 40
2.75
100
AcDbArc
 50
314.7489199999998
 51
140.19554
  0
LINE
  5
3E79
330
18
100
AcDbEntity
  8
0
100
AcDbLine
 10
-346.944165
 20
453.607128
 30
0.0
 11
-353.384285
 21
461.474748
 31
0.0
  0
LINE
  5
3E7A
330
18
100
AcDbEntity
  8
0
100
AcDbLine
 10
-374.662975
 20
494.080828
 30
0.0
 11
-378.2091149999998
 21
503.609698
 31
0.0
  0
ARC
  5
3E7B
330
18
100
AcDbEntity
  8
0
100
AcDbCircle
 10
-370.400395
 20
492.6200679999998
 30
0.0
 40
2.75
100
AcDbArc
 50
302.15582
 51
127.6024499999999
  0
LINE
  5
3E7C
330
18
100
AcDbEntity
  8
0
100
AcDbLine
 10
-366.9276149999998
 20
479.5993779999998
 30
0.0
 11
-371.497445
 21
488.681838
 31
0.0
  0
LINE
  5
3E7D
330
18
100
AcDbEntity
  8
0
100
AcDbLine
 10
-357.6507649999998
 20
466.053728
 30
0.0
 11
-363.189095
 21
474.580158
 31
0.0
  0
ARC
  5
3E7E
330
18
100
AcDbEntity
  8
0
100
AcDbCircle
 10
-362.530525
 20
478.614948
 30
0.0
 40
2.75
100
AcDbArc
 50
308.45237
 51
133.8990099999999
  0
ARC
  5
3E7F
330
18
100
AcDbEntity
  8
0
100
AcDbCircle
 10
-376.6867149999998
 20
507.403828
 30
0.0
 40
2.75
100
AcDbArc
 50
295.85927
 51
121.3059
  0
LINE
  5
3E80
330
18
100
AcDbEntity
  8
0
100
AcDbLine
 10
-380.7633749999998
 20
509.3233179999998
 30
0.0
 11
-383.243045
 21
519.183548
 31
0.0
  0
LINE
  5
3E81
330
18
100
AcDbEntity
  8
0
100
AcDbLine
 10
-387.7856549999998
 20
541.348708
 30
0.0
 11
-388.0559149999998
 21
551.512408
 31
0.0
  0
ARC
  5
3E82
330
18
100
AcDbEntity
  8
0
100
AcDbCircle
 10
-384.2256549999998
 20
538.5865679999998
 30
0.0
 40
2.75
100
AcDbArc
 50
283.2661709999998
 51
108.71281
  0
ARC
  5
3E83
330
18
100
AcDbEntity
  8
0
100
AcDbCircle
 10
-381.313725
 20
522.787798
 30
0.0
 40
2.75
100
AcDbArc
 50
289.56272
 51
115.00936
  0
LINE
  5
3E84
330
18
100
AcDbEntity
  8
0
100
AcDbLine
 10
-385.155285
 20
525.142838
 30
0.0
 11
-386.538525
 21
535.215588
 31
0.0
  0
ARC
  5
3E85
330
18
100
AcDbEntity
  8
0
100
AcDbCircle
 10
-342.9727849999999
 20
454.140948
 30
0.0
 40
2.75
100
AcDbArc
 50
320.7489199999999
 51
146.1955399999999
  0
LINE
  5
3E86
330
18
100
AcDbEntity
  8
0
100
AcDbLine
 10
-271.435925
 20
305.393968
 30
0.0
 11
-265.311775
 21
413.2077479999998
 31
0.0
  0
LINE
  5
3E87
330
18
100
AcDbEntity
  8
0
100
AcDbLine
 10
-265.957095
 20
305.0827479999998
 30
0.0
 11
-259.8329549999998
 21
412.896528
 31
0.0
  0
LINE
  5
3E88
330
18
100
AcDbEntity
  8
0
100
AcDbLine
 10
-244.942815
 20
303.398668
 30
0.0
 11
-250.121835
 21
411.261948
 31
0.0
  0
LINE
  5
3E89
330
18
100
AcDbEntity
  8
0
100
AcDbLine
 10
-239.461435
 20
303.661848
 30
0.0
 11
-244.640445
 21
411.5251279999998
 31
0.0
  0
LINE
  5
3E8A
330
18
100
AcDbEntity
  8
0
100
AcDbLine
 10
-218.3860549999999
 20
304.1837279999998
 30
0.0
 11
-234.8114649999998
 21
410.9147779999998
 31
0.0
  0
LINE
  5
3E8B
330
18
100
AcDbEntity
  8
0
100
AcDbLine
 10
-212.9622249999999
 20
305.018418
 30
0.0
 11
-229.3877049999999
 21
411.749468
 31
0.0
  0
LINE
  5
3E8C
330
18
100
AcDbEntity
  8
0
100
AcDbLine
 10
-192.056955
 20
307.7403979999999
 30
0.0
 11
-219.548775
 21
412.169818
 31
0.0
  0
LINE
  5
3E8D
330
18
100
AcDbEntity
  8
0
100
AcDbLine
 10
-186.7500649999999
 20
309.137468
 30
0.0
 11
-214.241955
 21
413.5668779999998
 31
0.0
  0
LINE
  5
3E8E
330
18
100
AcDbEntity
  8
0
100
AcDbLine
 10
-166.243655
 20
314.029588
 30
0.0
 11
-204.500735
 21
415.013258
 31
0.0
  0
LINE
  5
3E8F
330
18
100
AcDbEntity
  8
0
100
AcDbLine
 10
-297.5756249999998
 20
310.147598
 30
0.0
 11
-280.2154649999999
 21
416.730548
 31
0.0
  0
LINE
  5
3E90
330
18
100
AcDbEntity
  8
0
100
AcDbLine
 10
-292.1593749999999
 20
309.265398
 30
0.0
 11
-274.799145
 21
415.848348
 31
0.0
  0
LINE
  5
3E91
330
18
100
AcDbEntity
  8
0
100
AcDbLine
 10
-136.3288649999998
 20
325.452468
 30
0.0
 11
-184.932075
 21
421.8840179999999
 31
0.0
  0
LINE
  5
3E92
330
18
100
AcDbEntity
  8
0
100
AcDbLine
 10
-161.1118849999999
 20
315.9737379999999
 30
0.0
 11
-199.369025
 21
416.957378
 31
0.0
  0
LINE
  5
3E93
330
18
100
AcDbEntity
  8
0
100
AcDbLine
 10
-141.2292549999999
 20
322.9825879999999
 30
0.0
 11
-189.8324649999999
 21
419.4141079999998
 31
0.0
  0
ARC
  5
3E94
330
18
100
AcDbEntity
  8
0
100
AcDbCircle
 10
-239.153325
 20
557.157238
 30
0.0
 40
251.0
100
AcDbArc
 50
275.9023399999999
 51
280.647334
  0
ARC
  5
3E95
330
18
100
AcDbEntity
  8
0
100
AcDbCircle
 10
-239.153325
 20
557.157238
 30
0.0
 40
251.0
100
AcDbArc
 50
263.9023399999999
 51
268.6473299999998
  0
ARC
  5
3E96
330
18
100
AcDbEntity
  8
0
100
AcDbCircle
 10
-239.153325
 20
557.157238
 30
0.0
 40
251.0
100
AcDbArc
 50
257.90234
 51
262.6473299999998
  0
ARC
  5
3E97
330
18
100
AcDbEntity
  8
0
100
AcDbCircle
 10
-294.9157749999999
 20
309.449788
 30
0.0
 40
2.75
100
AcDbArc
 50
165.3023
 51
350.748914
  0
ARC
  5
3E98
330
18
100
AcDbEntity
  8
0
100
AcDbCircle
 10
-268.717845
 20
304.978008
 30
0.0
 40
2.75
100
AcDbArc
 50
171.3022999999999
 51
356.748914
  0
ARC
  5
3E99
330
18
100
AcDbEntity
  8
0
100
AcDbCircle
 10
-239.153325
 20
557.157238
 30
0.0
 40
251.0
100
AcDbArc
 50
269.9023399999999
 51
274.647334
  0
ARC
  5
3E9A
330
18
100
AcDbEntity
  8
0
100
AcDbCircle
 10
-242.195995
 20
303.2691779999999
 30
0.0
 40
2.75
100
AcDbArc
 50
177.3023
 51
2.748915
  0
ARC
  5
3E9B
330
18
100
AcDbEntity
  8
0
100
AcDbCircle
 10
-215.640815
 20
304.3419679999999
 30
0.0
 40
2.75
100
AcDbArc
 50
183.30231
 51
8.748915
  0
ARC
  5
3E9C
330
18
100
AcDbEntity
  8
0
100
AcDbCircle
 10
-163.5913149999999
 20
314.755018
 30
0.0
 40
2.75
100
AcDbArc
 50
195.30231
 51
20.74892
  0
ARC
  5
3E9D
330
18
100
AcDbEntity
  8
0
100
AcDbCircle
 10
-189.343265
 20
308.1846779999999
 30
0.0
 40
2.75
100
AcDbArc
 50
189.3023
 51
14.74891
  0
ARC
  5
3E9E
330
18
100
AcDbEntity
  8
0
100
AcDbCircle
 10
-239.153325
 20
557.157238
 30
0.0
 40
251.0
100
AcDbArc
 50
281.902339
 51
286.647333
  0
ARC
  5
3E9F
330
18
100
AcDbEntity
  8
0
100
AcDbCircle
 10
-138.6673649999998
 20
323.981368
 30
0.0
 40
2.75
100
AcDbArc
 50
201.30231
 51
26.74892
  0
ARC
  5
3EA0
330
18
100
AcDbEntity
  8
0
100
AcDbCircle
 10
-239.153325
 20
557.157238
 30
0.0
 40
251.0
100
AcDbArc
 50
287.902339
 51
292.6473329999998
  0
ARC
  5
3EA1
330
18
100
AcDbEntity
  8
0
100
AcDbCircle
 10
-239.153325
 20
557.157238
 30
0.0
 40
251.0
100
AcDbArc
 50
293.902339
 51
298.6473329999999
  0
ARC
  5
3EA2
330
18
100
AcDbEntity
  8
0
100
AcDbCircle
 10
-239.153325
 20
557.157238
 30
0.0
 40
149.0
100
AcDbArc
 50
279.95002
 51
283.828613
  0
ARC
  5
3EA3
330
18
100
AcDbEntity
  8
0
100
AcDbCircle
 10
-239.153325
 20
557.157238
 30
0.0
 40
149.0
100
AcDbArc
 50
261.95002
 51
265.8286100000001
  0
ARC
  5
3EA4
330
18
100
AcDbEntity
  8
0
100
AcDbCircle
 10
-239.153325
 20
557.157238
 30
0.0
 40
149.0
100
AcDbArc
 50
249.95002
 51
253.82861
  0
ARC
  5
3EA5
330
18
100
AcDbEntity
  8
0
100
AcDbCircle
 10
-292.0965649999999
 20
420.820028
 30
0.0
 40
2.75
100
AcDbArc
 50
344.748921
 51
170.1955399999999
  0
ARC
  5
3EA6
330
18
100
AcDbEntity
  8
0
100
AcDbCircle
 10
-262.593575
 20
412.791768
 30
0.0
 40
2.75
100
AcDbArc
 50
356.748921
 51
182.1955499999999
  0
ARC
  5
3EA7
330
18
100
AcDbEntity
  8
0
100
AcDbCircle
 10
-277.555425
 20
416.032848
 30
0.0
 40
2.75
100
AcDbArc
 50
350.748921
 51
176.1955299999999
  0
ARC
  5
3EA8
330
18
100
AcDbEntity
  8
0
100
AcDbCircle
 10
-239.153325
 20
557.157238
 30
0.0
 40
149.0
100
AcDbArc
 50
255.95002
 51
259.82861
  0
ARC
  5
3EA9
330
18
100
AcDbEntity
  8
0
100
AcDbCircle
 10
-232.065985
 20
411.072988
 30
0.0
 40
2.75
100
AcDbArc
 50
8.748922
 51
194.1955399999999
  0
ARC
  5
3EAA
330
18
100
AcDbEntity
  8
0
100
AcDbCircle
 10
-247.3748249999999
 20
411.1324879999998
 30
0.0
 40
2.75
100
AcDbArc
 50
2.748920999999998
 51
188.19554
  0
ARC
  5
3EAB
330
18
100
AcDbEntity
  8
0
100
AcDbCircle
 10
-239.153325
 20
557.157238
 30
0.0
 40
149.0
100
AcDbArc
 50
267.95002
 51
271.828614
  0
ARC
  5
3EAC
330
18
100
AcDbEntity
  8
0
100
AcDbCircle
 10
-216.8349649999999
 20
412.614178
 30
0.0
 40
2.75
100
AcDbArc
 50
14.74892
 51
200.19556
  0
ARC
  5
3EAD
330
18
100
AcDbEntity
  8
0
100
AcDbCircle
 10
-239.153325
 20
557.157238
 30
0.0
 40
149.0
100
AcDbArc
 50
273.95002
 51
277.8286109999999
  0
ARC
  5
3EAE
330
18
100
AcDbEntity
  8
0
100
AcDbCircle
 10
-147.553475
 20
443.138448
 30
0.0
 40
2.75
100
AcDbArc
 50
44.74891999999999
 51
230.19555
  0
ARC
  5
3EAF
330
18
100
AcDbEntity
  8
0
100
AcDbCircle
 10
-239.153325
 20
557.157238
 30
0.0
 40
149.0
100
AcDbArc
 50
309.950022
 51
313.828614
  0
ARC
  5
3EB0
330
18
100
AcDbEntity
  8
0
100
AcDbCircle
 10
-239.153325
 20
557.157238
 30
0.0
 40
149.0
100
AcDbArc
 50
297.95002
 51
301.8286129999999
  0
ARC
  5
3EB1
330
18
100
AcDbEntity
  8
0
100
AcDbCircle
 10
-187.2704549999999
 20
420.412948
 30
0.0
 40
2.75
100
AcDbArc
 50
26.74892
 51
212.1955499999998
  0
ARC
  5
3EB2
330
18
100
AcDbEntity
  8
0
100
AcDbCircle
 10
-201.8483949999999
 20
415.7388479999998
 30
0.0
 40
2.75
100
AcDbArc
 50
20.74892
 51
206.1955499999998
  0
ARC
  5
3EB3
330
18
100
AcDbEntity
  8
0
100
AcDbCircle
 10
-239.153325
 20
557.157238
 30
0.0
 40
149.0
100
AcDbArc
 50
285.950022
 51
289.8286129999998
  0
ARC
  5
3EB4
330
18
100
AcDbEntity
  8
0
100
AcDbCircle
 10
-239.153325
 20
557.157238
 30
0.0
 40
149.0
100
AcDbArc
 50
291.950022
 51
295.8286109999999
  0
ARC
  5
3EB5
330
18
100
AcDbEntity
  8
0
100
AcDbCircle
 10
-173.2610549999999
 20
426.585438
 30
0.0
 40
2.75
100
AcDbArc
 50
32.74891999999999
 51
218.19554
  0
ARC
  5
3EB6
330
18
100
AcDbEntity
  8
0
100
AcDbCircle
 10
-239.153325
 20
557.157238
 30
0.0
 40
149.0
100
AcDbArc
 50
303.950022
 51
307.8286129999999
  0
ARC
  5
3EB7
330
18
100
AcDbEntity
  8
0
100
AcDbCircle
 10
-159.9735149999998
 20
434.188278
 30
0.0
 40
2.75
100
AcDbArc
 50
38.74892
 51
224.19556
  0
ARC
  5
3EB8
330
18
100
AcDbEntity
  8
0
100
AcDbCircle
 10
-125.8493149999999
 20
464.674698
 30
0.0
 40
2.75
100
AcDbArc
 50
56.74891999999999
 51
242.19557
  0
ARC
  5
3EB9
330
18
100
AcDbEntity
  8
0
100
AcDbCircle
 10
-239.153325
 20
557.157238
 30
0.0
 40
149.0
100
AcDbArc
 50
315.9500229999999
 51
319.828614
  0
ARC
  5
3EBA
330
18
100
AcDbEntity
  8
0
100
AcDbCircle
 10
-136.1370949999999
 20
453.337848
 30
0.0
 40
2.75
100
AcDbArc
 50
50.74892
 51
236.1955499999999
  0
ARC
  5
3EBB
330
18
100
AcDbEntity
  8
0
100
AcDbCircle
 10
-114.8443649999999
 20
335.7623779999999
 30
0.0
 40
2.75
100
AcDbArc
 50
207.3023099999999
 51
32.74890999999998
  0
LINE
  5
3EBC
330
18
100
AcDbEntity
  8
0
100
AcDbLine
 10
1.839795
 20
478.530048
 30
0.0
 11
-102.3446749999999
 21
506.936108
 31
0.0
  0
LINE
  5
3EBD
330
18
100
AcDbEntity
  8
0
100
AcDbLine
 10
0.396195
 20
473.2356679999998
 30
0.0
 11
-103.788215
 21
501.641738
 31
0.0
  0
LINE
  5
3EBE
330
18
100
AcDbEntity
  8
0
100
AcDbLine
 10
-19.77400499999999
 20
430.142928
 30
0.0
 11
-115.775825
 21
479.5894279999997
 31
0.0
  0
LINE
  5
3EBF
330
18
100
AcDbEntity
  8
0
100
AcDbLine
 10
-9.688304999999999
 20
448.655658
 30
0.0
 11
-110.332705
 21
487.796278
 31
0.0
  0
LINE
  5
3EC0
330
18
100
AcDbEntity
  8
0
100
AcDbLine
 10
-7.699205
 20
453.770158
 30
0.0
 11
-108.343695
 21
492.910848
 31
0.0
  0
LINE
  5
3EC1
330
18
100
AcDbEntity
  8
0
100
AcDbLine
 10
8.462294999999999
 20
497.1399679999998
 30
0.0
 11
-96.06037499999999
 21
524.2752879999998
 31
0.0
  0
LINE
  5
3EC2
330
18
100
AcDbEntity
  8
0
100
AcDbLine
 10
7.083394999999998
 20
491.828628
 30
0.0
 11
-97.43927499999999
 21
518.9639480000002
 31
0.0
  0
LINE
  5
3EC3
330
18
100
AcDbEntity
  8
0
100
AcDbLine
 10
14.094795
 20
511.092298
 30
0.0
 11
-90.427805
 21
538.2276179999998
 31
0.0
  0
LINE
  5
3EC4
330
18
100
AcDbEntity
  8
0
100
AcDbLine
 10
15.473695
 20
516.403698
 30
0.0
 11
-89.04889500000001
 21
543.5390179999997
 31
0.0
  0
ARC
  5
3EC5
330
18
100
AcDbEntity
  8
0
100
AcDbCircle
 10
-239.153325
 20
557.157238
 30
0.0
 40
251.0
100
AcDbArc
 50
311.9023399999998
 51
316.647334
  0
ARC
  5
3EC6
330
18
100
AcDbEntity
  8
0
100
AcDbCircle
 10
-71.53020500000002
 20
366.445668
 30
0.0
 40
2.75
100
AcDbArc
 50
219.3023
 51
44.74890999999998
  0
ARC
  5
3EC7
330
18
100
AcDbEntity
  8
0
100
AcDbCircle
 10
-92.38312500000001
 20
349.969038
 30
0.0
 40
2.75
100
AcDbArc
 50
213.3023
 51
38.74892
  0
ARC
  5
3EC8
330
18
100
AcDbEntity
  8
0
100
AcDbCircle
 10
-239.153325
 20
557.157238
 30
0.0
 40
251.0
100
AcDbArc
 50
299.902339
 51
304.6473329999999
  0
ARC
  5
3EC9
330
18
100
AcDbEntity
  8
0
100
AcDbCircle
 10
-239.153325
 20
557.157238
 30
0.0
 40
251.0
100
AcDbArc
 50
305.90234
 51
310.647333
  0
ARC
  5
3ECA
330
18
100
AcDbEntity
  8
0
100
AcDbCircle
 10
-239.153325
 20
557.157238
 30
0.0
 40
251.0
100
AcDbArc
 50
317.9023399999998
 51
322.647334
  0
ARC
  5
3ECB
330
18
100
AcDbEntity
  8
0
100
AcDbCircle
 10
-52.513605
 20
385.0118279999998
 30
0.0
 40
2.75
100
AcDbArc
 50
225.3023
 51
50.74892
  0
ARC
  5
3ECC
330
18
100
AcDbEntity
  8
0
100
AcDbCircle
 10
-239.153325
 20
557.157238
 30
0.0
 40
251.0
100
AcDbArc
 50
323.9023399999998
 51
328.647331
  0
ARC
  5
3ECD
330
18
100
AcDbEntity
  8
0
100
AcDbCircle
 10
-35.54210499999999
 20
405.464038
 30
0.0
 40
2.75
100
AcDbArc
 50
231.3023
 51
56.74890999999998
  0
ARC
  5
3ECE
330
18
100
AcDbEntity
  8
0
100
AcDbCircle
 10
-239.153325
 20
557.157238
 30
0.0
 40
149.0
100
AcDbArc
 50
333.950023
 51
337.828614
  0
ARC
  5
3ECF
330
18
100
AcDbEntity
  8
0
100
AcDbCircle
 10
-109.097175
 20
490.252948
 30
0.0
 40
2.75
100
AcDbArc
 50
68.74892
 51
254.19555
  0
ARC
  5
3ED0
330
18
100
AcDbEntity
  8
0
100
AcDbCircle
 10
-239.153325
 20
557.157238
 30
0.0
 40
149.0
100
AcDbArc
 50
327.950023
 51
331.828614
  0
ARC
  5
3ED1
330
18
100
AcDbEntity
  8
0
100
AcDbCircle
 10
-96.498725
 20
521.5481079999998
 30
0.0
 40
2.75
100
AcDbArc
 50
75.44661999999998
 51
260.89326
  0
ARC
  5
3ED2
330
18
100
AcDbEntity
  8
0
100
AcDbCircle
 10
-102.8161649999999
 20
504.214008
 30
0.0
 40
2.75
100
AcDbArc
 50
74.74892
 51
260.19555
  0
LINE
  5
3ED3
330
18
100
AcDbEntity
  8
0
100
AcDbLine
 10
-94.76551499999999
 20
518.2698479999998
 30
0.0
 11
-99.891485
 21
504.186298
 31
0.0
  0
LINE
  5
3ED4
330
18
100
AcDbEntity
  8
0
100
AcDbLine
 10
-87.754095
 20
537.533588
 30
0.0
 11
-92.88013499999999
 21
523.449908
 31
0.0
  0
ARC
  5
3ED5
330
18
100
AcDbEntity
  8
0
100
AcDbCircle
 10
-89.48731499999999
 20
540.8117879999998
 30
0.0
 40
2.75
100
AcDbArc
 50
75.44661999999998
 51
260.89326
  0
ARC
  5
3ED6
330
18
100
AcDbEntity
  8
0
100
AcDbCircle
 10
-239.153325
 20
557.157238
 30
0.0
 40
251.0
100
AcDbArc
 50
329.902337
 51
334.647331
  0
ARC
  5
3ED7
330
18
100
AcDbEntity
  8
0
100
AcDbCircle
 10
-20.80110499999999
 20
427.5781679999998
 30
0.0
 40
2.75
100
AcDbArc
 50
237.3022999999999
 51
62.74891999999999
  0
LINE
  5
3ED8
330
18
100
AcDbEntity
  8
0
100
AcDbLine
 10
25.443795
 20
550.313978
 30
0.0
 11
20.317795
 21
536.230298
 31
0.0
  0
ARC
  5
3ED9
330
18
100
AcDbEntity
  8
0
100
AcDbCircle
 10
22.046795
 20
532.9401379999998
 30
0.0
 40
2.75
100
AcDbArc
 50
250.0
 51
75.44661999999998
  0
LINE
  5
3EDA
330
18
100
AcDbEntity
  8
0
100
AcDbLine
 10
11.420995
 20
511.7865179999998
 30
0.0
 11
6.294894999999998
 21
497.702838
 31
0.0
  0
ARC
  5
3EDB
330
18
100
AcDbEntity
  8
0
100
AcDbCircle
 10
1.368295
 20
475.807758
 30
0.0
 40
2.75
100
AcDbArc
 50
249.3022999999999
 51
74.74892
  0
ARC
  5
3EDC
330
18
100
AcDbEntity
  8
0
100
AcDbCircle
 10
-239.153325
 20
557.157238
 30
0.0
 40
251.0
100
AcDbArc
 50
335.902337
 51
340.647331
  0
ARC
  5
3EDD
330
18
100
AcDbEntity
  8
0
100
AcDbCircle
 10
-8.452605
 20
451.112078
 30
0.0
 40
2.75
100
AcDbArc
 50
243.3022999999999
 51
68.74890999999999
  0
ARC
  5
3EDE
330
18
100
AcDbEntity
  8
0
100
AcDbCircle
 10
8.023994999999999
 20
494.412858
 30
0.0
 40
2.75
100
AcDbArc
 50
250.0
 51
75.44661999999998
  0
LINE
  5
3EDF
330
18
100
AcDbEntity
  8
0
100
AcDbLine
 10
4.409594999999998
 20
492.522908
 30
0.0
 11
-0.7165050000000001
 21
478.4391679999997
 31
0.0
  0
ARC
  5
3EE0
330
18
100
AcDbEntity
  8
0
100
AcDbCircle
 10
15.035295
 20
513.6764679999998
 30
0.0
 40
2.75
100
AcDbArc
 50
250.0
 51
75.44661999999998
  0
LINE
  5
3EE1
330
18
100
AcDbEntity
  8
0
100
AcDbLine
 10
18.432395
 20
531.0503679999998
 30
0.0
 11
13.306295
 21
516.9665679999998
 31
0.0
  0
LINE
  5
3EE2
330
18
100
AcDbEntity
  8
0
100
AcDbLine
 10
455.932295
 20
473.3344279999998
 30
0.0
 11
404.336295
 21
468.4148079999998
 31
0.0
  0
LINE
  5
3EE3
330
18
100
AcDbEntity
  8
0
100
AcDbLine
 10
456.453195
 20
467.8715379999998
 30
0.0
 11
414.026795
 21
463.826248
 31
0.0
  0
LWPOLYLINE
  5
3EE4
330
18
100
AcDbEntity
  8
0
100
AcDbPolyline
 90
        6
 70
     0
 43
0.0
 10
351.705395
 20
468.4243480000001
 42
-0.070175
 10
371.992995
 20
474.7624379999998
 42
-0.121929
 10
393.036695
 20
472.940828
 42
-0.032794
 10
412.6007949999998
 20
464.499048
 42
0.056329
 10
432.501495
 20
456.968758
 42
0.093089
 10
453.701495
 20
456.6868079999998
  0
LINE
  5
3EE5
330
18
100
AcDbEntity
  8
0
100
AcDbLine
 10
455.932495
 20
534.8343679999998
 30
0.0
 11
348.432295
 21
524.5843679999998
 31
0.0
  0
LINE
  5
3EE6
330
18
100
AcDbEntity
  8
0
100
AcDbLine
 10
456.453495
 20
549.871538
 30
0.0
 11
348.9531949999998
 21
539.621538
 31
0.0
  0
LINE
  5
3EE7
330
18
100
AcDbEntity
  8
0
100
AcDbLine
 10
455.932295
 20
493.8342480000001
 30
0.0
 11
348.432295
 21
483.5842480000001
 31
0.0
  0
LINE
  5
3EE8
330
18
100
AcDbEntity
  8
0
100
AcDbLine
 10
456.453195
 20
488.3715379999999
 30
0.0
 11
348.9531949999998
 21
478.1215379999999
 31
0.0
  0
LINE
  5
3EE9
330
18
100
AcDbEntity
  8
0
100
AcDbLine
 10
455.932495
 20
514.3343679999998
 30
0.0
 11
348.692195
 21
504.109148
 31
0.0
  0
LINE
  5
3EEA
330
18
100
AcDbEntity
  8
0
100
AcDbLine
 10
456.453295
 20
508.871598
 30
0.0
 11
348.9531949999998
 21
498.621598
 31
0.0
  0
LINE
  5
3EEB
330
18
100
AcDbEntity
  8
0
100
AcDbLine
 10
456.453295
 20
529.371598
 30
0.0
 11
348.9531949999998
 21
519.121598
 31
0.0
  0
LINE
  5
3EEC
330
18
100
AcDbEntity
  8
0
100
AcDbLine
 10
455.932495
 20
432.3343679999998
 30
0.0
 11
348.432495
 21
422.084398
 31
0.0
  0
LINE
  5
3EED
330
18
100
AcDbEntity
  8
0
100
AcDbLine
 10
456.453295
 20
426.871478
 30
0.0
 11
348.953295
 21
416.6214779999998
 31
0.0
  0
LWPOLYLINE
  5
3EEE
330
18
100
AcDbEntity
  8
0
100
AcDbPolyline
 90
        6
 70
     0
 43
0.0
 10
351.705395
 20
457.424358
 42
-0.070175
 10
371.992995
 20
463.762498
 42
-0.121929
 10
393.036695
 20
461.9408879999999
 42
-0.032794
 10
412.6007949999998
 20
453.499078
 42
0.05633
 10
432.501495
 20
445.9687579999998
 42
0.09309
 10
453.701495
 20
445.6868379999998
  0
LINE
  5
3EEF
330
18
100
AcDbEntity
  8
0
100
AcDbLine
 10
456.453295
 20
385.8716279999999
 30
0.0
 11
348.9531949999998
 21
375.621598
 31
0.0
  0
LINE
  5
3EF0
330
18
100
AcDbEntity
  8
0
100
AcDbLine
 10
455.932495
 20
391.334338
 30
0.0
 11
348.432295
 21
381.084338
 31
0.0
  0
LINE
  5
3EF1
330
18
100
AcDbEntity
  8
0
100
AcDbLine
 10
455.932495
 20
411.834368
 30
0.0
 11
348.432295
 21
401.5843379999997
 31
0.0
  0
LINE
  5
3EF2
330
18
100
AcDbEntity
  8
0
100
AcDbLine
 10
456.453295
 20
406.3714779999998
 30
0.0
 11
348.9531949999998
 21
396.1214479999998
 31
0.0
  0
LINE
  5
3EF3
330
18
100
AcDbEntity
  8
0
100
AcDbLine
 10
455.932495
 20
350.334278
 30
0.0
 11
348.432495
 21
340.084278
 31
0.0
  0
LINE
  5
3EF4
330
18
100
AcDbEntity
  8
0
100
AcDbLine
 10
456.453195
 20
344.871568
 30
0.0
 11
348.953295
 21
334.621568
 31
0.0
  0
LINE
  5
3EF5
330
18
100
AcDbEntity
  8
0
100
AcDbLine
 10
455.932295
 20
370.834308
 30
0.0
 11
348.432295
 21
360.584308
 31
0.0
  0
LINE
  5
3EF6
330
18
100
AcDbEntity
  8
0
100
AcDbLine
 10
456.453195
 20
365.371598
 30
0.0
 11
348.9531949999998
 21
355.121598
 31
0.0
  0
LINE
  5
3EF7
330
18
100
AcDbEntity
  8
0
100
AcDbLine
 10
351.703095
 20
330.352948
 30
0.0
 11
453.703095
 21
330.352948
 31
0.0
  0
ARC
  5
3EF8
330
18
100
AcDbEntity
  8
0
100
AcDbCircle
 10
348.9531949999998
 20
337.371718
 30
0.0
 40
2.75
100
AcDbArc
 50
95.44662
 51
280.89325
  0
LINE
  5
3EF9
330
18
100
AcDbEntity
  8
0
100
AcDbLine
 10
351.703095
 20
334.883898
 30
0.0
 11
351.703095
 21
330.352948
 31
0.0
  0
ARC
  5
3EFA
330
18
100
AcDbEntity
  8
0
100
AcDbCircle
 10
348.9531949999998
 20
542.371658
 30
0.0
 40
2.75
100
AcDbArc
 50
95.44662
 51
280.89325
  0
ARC
  5
3EFB
330
18
100
AcDbEntity
  8
0
100
AcDbCircle
 10
348.9531949999998
 20
521.8717179999998
 30
0.0
 40
2.75
100
AcDbArc
 50
95.44662
 51
280.89325
  0
ARC
  5
3EFC
330
18
100
AcDbEntity
  8
0
100
AcDbCircle
 10
348.9531949999998
 20
501.371598
 30
0.0
 40
2.75
100
AcDbArc
 50
95.44662
 51
280.89325
  0
ARC
  5
3EFD
330
18
100
AcDbEntity
  8
0
100
AcDbCircle
 10
348.9531949999998
 20
480.871658
 30
0.0
 40
2.75
100
AcDbArc
 50
95.44662
 51
280.89325
  0
ARC
  5
3EFE
330
18
100
AcDbEntity
  8
0
100
AcDbCircle
 10
348.9531949999998
 20
419.371658
 30
0.0
 40
2.75
100
AcDbArc
 50
95.44662
 51
280.89325
  0
ARC
  5
3EFF
330
18
100
AcDbEntity
  8
0
100
AcDbCircle
 10
348.9531949999998
 20
439.871598
 30
0.0
 40
2.75
100
AcDbArc
 50
95.44662
 51
280.89325
  0
ARC
  5
3F00
330
18
100
AcDbEntity
  8
0
100
AcDbCircle
 10
348.9531949999998
 20
398.871748
 30
0.0
 40
2.75
100
AcDbArc
 50
95.44662
 51
280.89325
  0
ARC
  5
3F01
330
18
100
AcDbEntity
  8
0
100
AcDbCircle
 10
348.9531949999998
 20
378.371598
 30
0.0
 40
2.75
100
AcDbArc
 50
95.44662
 51
280.89325
  0
ARC
  5
3F02
330
18
100
AcDbEntity
  8
0
100
AcDbCircle
 10
348.9531949999998
 20
357.8716879999998
 30
0.0
 40
2.75
100
AcDbArc
 50
95.44662
 51
280.89325
  0
LINE
  5
3F03
330
18
100
AcDbEntity
  8
0
100
AcDbLine
 10
421.414395
 20
449.543228
 30
0.0
 11
348.432195
 21
442.5844279999998
 31
0.0
  0
LINE
  5
3F04
330
18
100
AcDbEntity
  8
0
100
AcDbLine
 10
351.703095
 20
457.4236579999999
 30
0.0
 11
351.703095
 21
442.8963179999998
 31
0.0
  0
LINE
  5
3F05
330
18
100
AcDbEntity
  8
0
100
AcDbLine
 10
435.653895
 20
445.388378
 30
0.0
 11
348.9531949999998
 21
437.1215379999998
 31
0.0
  0
LINE
  5
3F06
330
18
100
AcDbEntity
  8
0
100
AcDbLine
 10
351.703095
 20
396.383868
 30
0.0
 11
351.703095
 21
381.396318
 31
0.0
  0
LINE
  5
3F07
330
18
100
AcDbEntity
  8
0
100
AcDbLine
 10
351.703095
 20
375.883958
 30
0.0
 11
351.703095
 21
360.8963779999998
 31
0.0
  0
LINE
  5
3F08
330
18
100
AcDbEntity
  8
0
100
AcDbLine
 10
351.703095
 20
355.3838079999998
 30
0.0
 11
351.703095
 21
340.396438
 31
0.0
  0
LINE
  5
3F09
330
18
100
AcDbEntity
  8
0
100
AcDbLine
 10
351.703095
 20
437.383928
 30
0.0
 11
351.703095
 21
422.396378
 31
0.0
  0
LINE
  5
3F0A
330
18
100
AcDbEntity
  8
0
100
AcDbLine
 10
351.703095
 20
416.8838379999998
 30
0.0
 11
351.703095
 21
401.8964379999999
 31
0.0
  0
LINE
  5
3F0B
330
18
100
AcDbEntity
  8
0
100
AcDbLine
 10
351.703095
 20
498.883928
 30
0.0
 11
351.703095
 21
483.896378
 31
0.0
  0
LINE
  5
3F0C
330
18
100
AcDbEntity
  8
0
100
AcDbLine
 10
351.703095
 20
478.3838079999998
 30
0.0
 11
351.703095
 21
468.423658
 31
0.0
  0
LINE
  5
3F0D
330
18
100
AcDbEntity
  8
0
100
AcDbLine
 10
351.703095
 20
519.3838679999998
 30
0.0
 11
351.703095
 21
504.3963179999998
 31
0.0
  0
LINE
  5
3F0E
330
18
100
AcDbEntity
  8
0
100
AcDbLine
 10
351.703095
 20
539.883808
 30
0.0
 11
351.703095
 21
524.896438
 31
0.0
  0
LINE
  5
3F0F
330
18
100
AcDbEntity
  8
0
100
AcDbLine
 10
453.703095
 20
344.609548
 30
0.0
 11
453.703095
 21
329.541398
 31
0.0
  0
LINE
  5
3F10
330
18
100
AcDbEntity
  8
0
100
AcDbLine
 10
453.703095
 20
445.687088
 30
0.0
 11
453.703095
 21
432.122028
 31
0.0
  0
LINE
  5
3F11
330
18
100
AcDbEntity
  8
0
100
AcDbLine
 10
453.703095
 20
406.109508
 30
0.0
 11
453.703095
 21
391.121968
 31
0.0
  0
ARC
  5
3F12
330
18
100
AcDbEntity
  8
0
100
AcDbCircle
 10
456.453195
 20
388.621658
 30
0.0
 40
2.75
100
AcDbArc
 50
269.9999899999999
 51
95.44662
  0
ARC
  5
3F13
330
18
100
AcDbEntity
  8
0
100
AcDbCircle
 10
456.453195
 20
347.621628
 30
0.0
 40
2.75
100
AcDbArc
 50
269.9999899999999
 51
95.44662
  0
ARC
  5
3F14
330
18
100
AcDbEntity
  8
0
100
AcDbCircle
 10
456.453195
 20
368.121718
 30
0.0
 40
2.75
100
AcDbArc
 50
269.9999899999999
 51
95.44662
  0
LINE
  5
3F15
330
18
100
AcDbEntity
  8
0
100
AcDbLine
 10
453.703095
 20
385.6094179999998
 30
0.0
 11
453.703095
 21
370.6218379999998
 31
0.0
  0
LINE
  5
3F16
330
18
100
AcDbEntity
  8
0
100
AcDbLine
 10
453.703095
 20
365.1094479999998
 30
0.0
 11
453.703095
 21
350.121938
 31
0.0
  0
ARC
  5
3F17
330
18
100
AcDbEntity
  8
0
100
AcDbCircle
 10
456.453195
 20
429.621718
 30
0.0
 40
2.75
100
AcDbArc
 50
269.9999899999999
 51
95.44662
  0
ARC
  5
3F18
330
18
100
AcDbEntity
  8
0
100
AcDbCircle
 10
456.453195
 20
409.121598
 30
0.0
 40
2.75
100
AcDbArc
 50
269.9999899999999
 51
95.44662
  0
LINE
  5
3F19
330
18
100
AcDbEntity
  8
0
100
AcDbLine
 10
453.703095
 20
426.609478
 30
0.0
 11
453.703095
 21
411.621908
 31
0.0
  0
LINE
  5
3F1A
330
18
100
AcDbEntity
  8
0
100
AcDbLine
 10
453.703095
 20
508.6093879999999
 30
0.0
 11
453.703095
 21
493.6220279999998
 31
0.0
  0
ARC
  5
3F1B
330
18
100
AcDbEntity
  8
0
100
AcDbCircle
 10
456.453195
 20
491.121718
 30
0.0
 40
2.75
100
AcDbArc
 50
269.9999899999999
 51
95.44662
  0
ARC
  5
3F1C
330
18
100
AcDbEntity
  8
0
100
AcDbCircle
 10
456.453195
 20
470.621598
 30
0.0
 40
2.75
100
AcDbArc
 50
269.9999899999999
 51
95.44662
  0
LINE
  5
3F1D
330
18
100
AcDbEntity
  8
0
100
AcDbLine
 10
453.703095
 20
467.609508
 30
0.0
 11
453.703095
 21
456.687088
 31
0.0
  0
LINE
  5
3F1E
330
18
100
AcDbEntity
  8
0
100
AcDbLine
 10
453.703095
 20
488.109448
 30
0.0
 11
453.703095
 21
473.121908
 31
0.0
  0
ARC
  5
3F1F
330
18
100
AcDbEntity
  8
0
100
AcDbCircle
 10
456.453195
 20
511.621658
 30
0.0
 40
2.75
100
AcDbArc
 50
269.9999899999999
 51
95.44662
  0
ARC
  5
3F20
330
18
100
AcDbEntity
  8
0
100
AcDbCircle
 10
456.453195
 20
532.121598
 30
0.0
 40
2.75
100
AcDbArc
 50
269.9999899999999
 51
95.44662
  0
LINE
  5
3F21
330
18
100
AcDbEntity
  8
0
100
AcDbLine
 10
453.703095
 20
549.609448
 30
0.0
 11
453.703095
 21
534.621908
 31
0.0
  0
LINE
  5
3F22
330
18
100
AcDbEntity
  8
0
100
AcDbLine
 10
453.703095
 20
529.1095079999998
 30
0.0
 11
453.703095
 21
514.1219679999998
 31
0.0
  0
ARC
  5
3F23
330
18
100
AcDbEntity
  8
0
100
AcDbCircle
 10
-972.9922949999997
 20
1506.620668
 30
0.0
 40
949.0
100
AcDbArc
 50
333.869522
 51
334.7108379999998
  0
ARC
  5
3F24
330
18
100
AcDbEntity
  8
0
100
AcDbCircle
 10
-116.3484549999999
 20
1104.609768
 30
0.0
 40
2.75
100
AcDbArc
 50
70.78421999999997
 51
256.23084
  0
LINE
  5
3F25
330
18
100
AcDbEntity
  8
0
100
AcDbLine
 10
-22.832905
 20
1052.181268
 30
0.0
 11
-124.0542649999998
 21
1089.805268
 31
0.0
  0
LINE
  5
3F26
330
18
100
AcDbEntity
  8
0
100
AcDbLine
 10
-24.74490499999999
 20
1047.037368
 30
0.0
 11
-125.9661949999999
 21
1084.661467999999
 31
0.0
  0
LINE
  5
3F27
330
18
100
AcDbEntity
  8
0
100
AcDbLine
 10
-32.34660499999999
 20
1032.802467999998
 30
0.0
 11
-132.7755149999999
 21
1072.493268
 31
0.0
  0
LINE
  5
3F28
330
18
100
AcDbEntity
  8
0
100
AcDbLine
 10
-34.36370499999998
 20
1027.698967999999
 30
0.0
 11
-134.7925449999999
 21
1067.389767999998
 31
0.0
  0
LINE
  5
3F29
330
18
100
AcDbEntity
  8
0
100
AcDbLine
 10
-42.25560499999999
 20
1013.622668
 30
0.0
 11
-141.849795
 21
1055.363567999998
 31
0.0
  0
LINE
  5
3F2A
330
18
100
AcDbEntity
  8
0
100
AcDbLine
 10
-44.37680499999999
 20
1008.561567999999
 30
0.0
 11
-143.970955
 21
1050.302367999998
 31
0.0
  0
LINE
  5
3F2B
330
18
100
AcDbEntity
  8
0
100
AcDbLine
 10
-52.55540500000001
 20
994.650268
 30
0.0
 11
-151.2731349999999
 21
1038.423568
 31
0.0
  0
LINE
  5
3F2C
330
18
100
AcDbEntity
  8
0
100
AcDbLine
 10
-54.77980500000001
 20
989.6336679999999
 30
0.0
 11
-153.4976249999999
 21
1033.406968
 31
0.0
  0
ARC
  5
3F2D
330
18
100
AcDbEntity
  8
0
100
AcDbCircle
 10
-972.9922949999997
 20
1506.620668
 30
0.0
 40
1051.0
100
AcDbArc
 50
323.85863
 51
324.732567
  0
LINE
  5
3F2E
330
18
100
AcDbEntity
  8
0
100
AcDbLine
 10
-97.57599500000001
 20
920.9892779999997
 30
0.0
 11
-192.377265
 21
972.7001679999997
 31
0.0
  0
LINE
  5
3F2F
330
18
100
AcDbEntity
  8
0
100
AcDbLine
 10
-100.203805
 20
916.171708
 30
0.0
 11
-195.005135
 21
967.882568
 31
0.0
  0
LINE
  5
3F30
330
18
100
AcDbEntity
  8
0
100
AcDbLine
 10
-109.7627649999999
 20
903.170058
 30
0.0
 11
-203.4842649999999
 21
956.813168
 31
0.0
  0
LINE
  5
3F31
330
18
100
AcDbEntity
  8
0
100
AcDbLine
 10
-112.488775
 20
898.4073679999998
 30
0.0
 11
-206.210275
 21
952.050468
 31
0.0
  0
LINE
  5
3F32
330
18
100
AcDbEntity
  8
0
100
AcDbLine
 10
-63.241905
 20
975.892868
 30
0.0
 11
-161.041755
 21
1021.680267999999
 31
0.0
  0
LINE
  5
3F33
330
18
100
AcDbEntity
  8
0
100
AcDbLine
 10
-65.56870500000001
 20
970.922868
 30
0.0
 11
-163.368595
 21
1016.710368
 31
0.0
  0
LINE
  5
3F34
330
18
100
AcDbEntity
  8
0
100
AcDbLine
 10
-85.756905
 20
939.054568
 30
0.0
 11
-181.598155
 21
988.8116680000001
 31
0.0
  0
LINE
  5
3F35
330
18
100
AcDbEntity
  8
0
100
AcDbLine
 10
-88.28546499999999
 20
934.1841679999999
 30
0.0
 11
-184.126715
 21
983.9411679999999
 31
0.0
  0
LINE
  5
3F36
330
18
100
AcDbEntity
  8
0
100
AcDbLine
 10
-74.310705
 20
957.358168
 30
0.0
 11
-171.151615
 21
1005.140367999999
 31
0.0
  0
LINE
  5
3F37
330
18
100
AcDbEntity
  8
0
100
AcDbLine
 10
-76.738895
 20
952.437068
 30
0.0
 11
-173.579785
 21
1000.219268
 31
0.0
  0
ARC
  5
3F39
330
18
100
AcDbEntity
  8
0
100
AcDbCircle
 10
-489.892645
 20
597.1352679999998
 30
0.0
 40
2.75
100
AcDbArc
 50
78.92989
 51
264.37652
  0
ARC
  5
3F3A
330
18
100
AcDbEntity
  8
0
100
AcDbCircle
 10
-492.764655
 20
569.394368
 30
0.0
 40
2.75
100
AcDbArc
 50
85.22643999999997
 51
270.673084
  0
LINE
  5
3F3B
330
18
100
AcDbEntity
  8
0
100
AcDbLine
 10
-492.535715
 20
572.134718
 30
0.0
 11
-384.5555449999998
 21
573.4032779999998
 31
0.0
  0
LINE
  5
3F3C
330
18
100
AcDbEntity
  8
0
100
AcDbLine
 10
-492.4712549999998
 20
566.6475379999998
 30
0.0
 11
-384.491095
 21
567.9160279999998
 31
0.0
  0
ARC
  5
3F3D
330
18
100
AcDbEntity
  8
0
100
AcDbCircle
 10
-972.9922949999997
 20
1506.620668
 30
0.0
 40
949.0
100
AcDbArc
 50
325.648724
 51
326.490039
  0
ARC
  5
3F3E
330
18
100
AcDbEntity
  8
0
100
AcDbCircle
 10
-305.094185
 20
836.274738
 30
0.0
 40
2.75
100
AcDbArc
 50
50.81942
 51
236.26606
  0
LINE
  5
3F3F
330
18
100
AcDbEntity
  8
0
100
AcDbLine
 10
-223.318485
 20
766.094498
 30
0.0
 11
-307.025945
 21
834.3173979999997
 31
0.0
  0
LINE
  5
3F40
330
18
100
AcDbEntity
  8
0
100
AcDbLine
 10
-250.6587549999999
 20
740.101088
 30
0.0
 11
-331.499945
 21
811.6972779999999
 31
0.0
  0
LINE
  5
3F41
330
18
100
AcDbEntity
  8
0
100
AcDbLine
 10
-254.2971249999999
 20
735.9929379999998
 30
0.0
 11
-335.1383149999998
 21
807.589128
 31
0.0
  0
LINE
  5
3F42
330
18
100
AcDbEntity
  8
0
100
AcDbLine
 10
-266.520825
 20
725.4574179999998
 30
0.0
 11
-345.8776349999998
 21
798.695448
 31
0.0
  0
LINE
  5
3F43
330
18
100
AcDbEntity
  8
0
100
AcDbLine
 10
-270.2426249999999
 20
721.424698
 30
0.0
 11
-349.599375
 21
794.6627379999998
 31
0.0
  0
LINE
  5
3F44
330
18
100
AcDbEntity
  8
0
100
AcDbLine
 10
-235.100165
 20
755.066908
 30
0.0
 11
-317.3917949999998
 21
824.991168
 31
0.0
  0
LINE
  5
3F45
330
18
100
AcDbEntity
  8
0
100
AcDbLine
 10
-238.6535149999999
 20
750.885028
 30
0.0
 11
-320.945135
 21
820.8092780000001
 31
0.0
  0
LINE
  5
3F46
330
18
100
AcDbEntity
  8
0
100
AcDbLine
 10
-282.679695
 20
711.1419179999998
 30
0.0
 11
-360.518745
 21
785.991048
 31
0.0
  0
LINE
  5
3F47
330
18
100
AcDbEntity
  8
0
100
AcDbLine
 10
-286.483345
 20
707.186298
 30
0.0
 11
-364.322395
 21
782.0354179999998
 31
0.0
  0
LINE
  5
3F48
330
18
100
AcDbEntity
  8
0
100
AcDbLine
 10
-299.128665
 20
697.1604779999998
 30
0.0
 11
-375.4173049999998
 21
773.589248
 31
0.0
  0
LINE
  5
3F49
330
18
100
AcDbEntity
  8
0
100
AcDbLine
 10
-303.012645
 20
693.283648
 30
0.0
 11
-379.3012749999998
 21
769.7124179999998
 31
0.0
  0
ARC
  5
3F4A
330
18
100
AcDbEntity
  8
0
100
AcDbCircle
 10
-972.9922949999997
 20
1506.620668
 30
0.0
 40
949.0
100
AcDbArc
 50
308.0327229999998
 51
308.874039
  0
ARC
  5
3F4B
330
18
100
AcDbEntity
  8
0
100
AcDbCircle
 10
-239.153325
 20
557.157238
 30
0.0
 40
251.0
100
AcDbArc
 50
127.4540899999998
 51
132.1990899999998
  0
LINE
  5
3F4C
330
18
100
AcDbEntity
  8
0
100
AcDbLine
 10
-474.040595
 20
653.359818
 30
0.0
 11
-371.4651549999998
 21
619.601818
 31
0.0
  0
LINE
  5
3F4D
330
18
100
AcDbEntity
  8
0
100
AcDbLine
 10
-464.349495
 20
673.547558
 30
0.0
 11
-366.095345
 21
628.7433679999998
 31
0.0
  0
LINE
  5
3F4E
330
18
100
AcDbEntity
  8
0
100
AcDbLine
 10
-462.072705
 20
678.540608
 30
0.0
 11
-363.818485
 21
633.736408
 31
0.0
  0
LINE
  5
3F4F
330
18
100
AcDbEntity
  8
0
100
AcDbLine
 10
-450.2260249999998
 20
697.543658
 30
0.0
 11
-357.478405
 21
642.2337179999998
 31
0.0
  0
LINE
  5
3F50
330
18
100
AcDbEntity
  8
0
100
AcDbLine
 10
-447.415295
 20
702.2569079999998
 30
0.0
 11
-354.6676749999998
 21
646.946978
 31
0.0
  0
LINE
  5
3F51
330
18
100
AcDbEntity
  8
0
100
AcDbLine
 10
-483.174625
 20
627.0182679999997
 30
0.0
 11
-377.5156949999998
 21
604.713888
 31
0.0
  0
LINE
  5
3F52
330
18
100
AcDbEntity
  8
0
100
AcDbLine
 10
-475.756045
 20
648.1471679999998
 30
0.0
 11
-373.180675
 21
614.3892379999998
 31
0.0
  0
LINE
  5
3F53
330
18
100
AcDbEntity
  8
0
100
AcDbLine
 10
-489.9022849999998
 20
594.372758
 30
0.0
 11
-382.4343949999998
 21
583.790968
 31
0.0
  0
LINE
  5
3F54
330
18
100
AcDbEntity
  8
0
100
AcDbLine
 10
-489.364575
 20
599.833998
 30
0.0
 11
-381.896675
 21
589.2522179999998
 31
0.0
  0
LINE
  5
3F55
330
18
100
AcDbEntity
  8
0
100
AcDbLine
 10
-484.3080549999998
 20
621.648938
 30
0.0
 11
-378.6491149999998
 21
599.344558
 31
0.0
  0
LINE
  5
3F56
330
18
100
AcDbEntity
  8
0
100
AcDbLine
 10
-433.555915
 20
719.8460879999998
 30
0.0
 11
-347.433845
 21
654.697768
 31
0.0
  0
LINE
  5
3F57
330
18
100
AcDbEntity
  8
0
100
AcDbLine
 10
-430.2451849999997
 20
724.2226679999999
 30
0.0
 11
-344.123115
 21
659.0743579999998
 31
0.0
  0
LINE
  5
3F58
330
18
100
AcDbEntity
  8
0
100
AcDbLine
 10
-414.5404749999998
 20
740.185628
 30
0.0
 11
-336.0830149999998
 21
665.9849379999998
 31
0.0
  0
LINE
  5
3F59
330
18
100
AcDbEntity
  8
0
100
AcDbLine
 10
-410.769725
 20
744.172628
 30
0.0
 11
-332.312325
 21
669.971938
 31
0.0
  0
ARC
  5
3F5A
330
18
100
AcDbEntity
  8
0
100
AcDbCircle
 10
-239.153325
 20
557.157238
 30
0.0
 40
251.0
100
AcDbArc
 50
152.6402899999999
 51
157.38528
  0
ARC
  5
3F5B
330
18
100
AcDbEntity
  8
0
100
AcDbCircle
 10
-239.153325
 20
557.157238
 30
0.0
 40
251.0
100
AcDbArc
 50
165.2333899999999
 51
169.97838
  0
ARC
  5
3F5C
330
18
100
AcDbEntity
  8
0
100
AcDbCircle
 10
-239.153325
 20
557.157238
 30
0.0
 40
251.0
100
AcDbArc
 50
171.5299399999999
 51
176.2749399999999
  0
ARC
  5
3F5D
330
18
100
AcDbEntity
  8
0
100
AcDbCircle
 10
-475.1443549999998
 20
650.841138
 30
0.0
 40
2.75
100
AcDbArc
 50
66.33679
 51
251.78343
  0
ARC
  5
3F5E
330
18
100
AcDbEntity
  8
0
100
AcDbCircle
 10
-239.153325
 20
557.157238
 30
0.0
 40
251.0
100
AcDbArc
 50
158.9368399999998
 51
163.6818399999999
  0
ARC
  5
3F5F
330
18
100
AcDbEntity
  8
0
100
AcDbCircle
 10
-483.995495
 20
624.3938779999998
 30
0.0
 40
2.75
100
AcDbArc
 50
72.63334999999997
 51
258.07996
  0
ARC
  5
3F60
330
18
100
AcDbEntity
  8
0
100
AcDbCircle
 10
-239.153325
 20
557.157238
 30
0.0
 40
251.0
100
AcDbArc
 50
140.0472
 51
144.79218
  0
ARC
  5
3F61
330
18
100
AcDbEntity
  8
0
100
AcDbCircle
 10
-449.041635
 20
700.0395079999998
 30
0.0
 40
2.75
100
AcDbArc
 50
53.74369
 51
239.19031
  0
ARC
  5
3F62
330
18
100
AcDbEntity
  8
0
100
AcDbCircle
 10
-463.446055
 20
676.1582179999997
 30
0.0
 40
2.75
100
AcDbArc
 50
60.04024
 51
245.48687
  0
ARC
  5
3F63
330
18
100
AcDbEntity
  8
0
100
AcDbCircle
 10
-239.153325
 20
557.157238
 30
0.0
 40
251.0
100
AcDbArc
 50
146.34374
 51
151.08873
  0
ARC
  5
3F64
330
18
100
AcDbEntity
  8
0
100
AcDbCircle
 10
-239.153325
 20
557.157238
 30
0.0
 40
251.0
100
AcDbArc
 50
133.75064
 51
138.4956399999998
  0
ARC
  5
3F65
330
18
100
AcDbEntity
  8
0
100
AcDbCircle
 10
-432.1049849999998
 20
722.1969780000002
 30
0.0
 40
2.75
100
AcDbArc
 50
47.44715
 51
232.8937799999999
  0
ARC
  5
3F66
330
18
100
AcDbEntity
  8
0
100
AcDbCircle
 10
-412.840335
 20
742.363298
 30
0.0
 40
2.75
100
AcDbArc
 50
41.15059
 51
226.59722
  0
ARC
  5
3F67
330
18
100
AcDbEntity
  8
0
100
AcDbCircle
 10
-345.982975
 20
657.048598
 30
0.0
 40
2.75
100
AcDbArc
 50
232.89377
 51
58.34041
  0
LINE
  5
3F68
330
18
100
AcDbEntity
  8
0
100
AcDbLine
 10
-356.9303049999998
 20
649.190198
 30
0.0
 11
-350.0545149999998
 21
656.680008
 31
0.0
  0
ARC
  5
3F69
330
18
100
AcDbEntity
  8
0
100
AcDbCircle
 10
-378.336495
 20
602.089248
 30
0.0
 40
2.75
100
AcDbArc
 50
258.07997
 51
83.52660999999997
  0
LINE
  5
3F6A
330
18
100
AcDbEntity
  8
0
100
AcDbLine
 10
-388.622875
 20
557.745258
 30
0.0
 11
-387.776745
 21
567.877278
 31
0.0
  0
LINE
  5
3F6B
330
18
100
AcDbEntity
  8
0
100
AcDbLine
 10
-387.6567449999998
 20
574.134658
 30
0.0
 11
-385.704475
 21
584.1128079999998
 31
0.0
  0
LINE
  5
3F6C
330
18
100
AcDbEntity
  8
0
100
AcDbLine
 10
-384.8988749999998
 20
590.319228
 30
0.0
 11
-381.8640849999998
 21
600.023088
 31
0.0
  0
ARC
  5
3F6D
330
18
100
AcDbEntity
  8
0
100
AcDbCircle
 10
-382.4248149999998
 20
586.553358
 30
0.0
 40
2.75
100
AcDbArc
 50
264.37652
 51
89.82316
  0
ARC
  5
3F6E
330
18
100
AcDbEntity
  8
0
100
AcDbCircle
 10
-384.7844949999998
 20
570.662798
 30
0.0
 40
2.75
100
AcDbArc
 50
270.6730709999999
 51
96.11969999999999
  0
ARC
  5
3F6F
330
18
100
AcDbEntity
  8
0
100
AcDbCircle
 10
-385.3872149999998
 20
554.6092679999998
 30
0.0
 40
2.75
100
AcDbArc
 50
276.969621
 51
102.41625
  0
LINE
  5
3F70
330
18
100
AcDbEntity
  8
0
100
AcDbLine
 10
-374.162545
 20
621.2977480000001
 30
0.0
 11
-369.0850249999998
 21
630.1065179999998
 31
0.0
  0
ARC
  5
3F71
330
18
100
AcDbEntity
  8
0
100
AcDbCircle
 10
-372.568975
 20
617.0830879999998
 30
0.0
 40
2.75
100
AcDbArc
 50
251.78342
 51
77.23005
  0
LINE
  5
3F72
330
18
100
AcDbEntity
  8
0
100
AcDbLine
 10
-380.3826349999998
 20
606.103838
 30
0.0
 11
-376.301885
 21
615.416278
 31
0.0
  0
ARC
  5
3F73
330
18
100
AcDbEntity
  8
0
100
AcDbCircle
 10
-365.1919049999998
 20
631.3538379999998
 30
0.0
 40
2.75
100
AcDbArc
 50
245.48687
 51
70.9335
  0
LINE
  5
3F74
330
18
100
AcDbEntity
  8
0
100
AcDbLine
 10
-366.313485
 20
635.7179679999998
 30
0.0
 11
-360.3006049999998
 21
643.916578
 31
0.0
  0
ARC
  5
3F75
330
18
100
AcDbEntity
  8
0
100
AcDbCircle
 10
-356.294135
 20
644.729388
 30
0.0
 40
2.75
100
AcDbArc
 50
239.19032
 51
64.63696
  0
LINE
  5
3F76
330
18
100
AcDbEntity
  8
0
100
AcDbLine
 10
-315.8606049999999
 20
683.519298
 30
0.0
 11
-390.5667149999998
 21
761.495558
 31
0.0
  0
LINE
  5
3F77
330
18
100
AcDbEntity
  8
0
100
AcDbLine
 10
-394.168285
 20
757.322278
 30
0.0
 11
-319.823125
 21
679.7230980000001
 31
0.0
  0
ARC
  5
3F78
330
18
100
AcDbEntity
  8
0
100
AcDbCircle
 10
-392.372135
 20
759.4046179999998
 30
0.0
 40
2.75
100
AcDbArc
 50
43.77303
 51
229.21966
  0
ARC
  5
3F79
330
18
100
AcDbEntity
  8
0
100
AcDbCircle
 10
-972.9922949999997
 20
1506.620668
 30
0.0
 40
1051.0
100
AcDbArc
 50
307.4170299999999
 51
308.290966
  0
LINE
  5
3F7A
330
18
100
AcDbEntity
  8
0
100
AcDbLine
 10
-346.1262249999998
 20
661.552078
 30
0.0
 11
-338.4704049999998
 21
668.2426280000002
 31
0.0
  0
ARC
  5
3F7B
330
18
100
AcDbEntity
  8
0
100
AcDbCircle
 10
-334.3830049999999
 20
668.1624879999998
 30
0.0
 40
2.75
100
AcDbArc
 50
226.59722
 51
52.04385
  0
ARC
  5
3F7C
330
18
100
AcDbEntity
  8
0
100
AcDbCircle
 10
-972.9922949999997
 20
1506.620668
 30
0.0
 40
1051.0
100
AcDbArc
 50
308.591429
 51
309.465366
  0
ARC
  5
3F7D
330
18
100
AcDbEntity
  8
0
100
AcDbCircle
 10
-317.6657749999999
 20
681.428478
 30
0.0
 40
2.75
100
AcDbArc
 50
218.3264
 51
43.77301
  0
ARC
  5
3F7E
330
18
100
AcDbEntity
  8
0
100
AcDbCircle
 10
-972.9922949999997
 20
1506.620668
 30
0.0
 40
949.0
100
AcDbArc
 50
310.381523
 51
311.2228379999999
  0
ARC
  5
3F7F
330
18
100
AcDbEntity
  8
0
100
AcDbCircle
 10
-377.1793249999998
 20
771.461868
 30
0.0
 40
2.75
100
AcDbArc
 50
44.94742000000001
 51
230.39404
  0
ARC
  5
3F80
330
18
100
AcDbEntity
  8
0
100
AcDbCircle
 10
-972.9922949999997
 20
1506.620668
 30
0.0
 40
949.0
100
AcDbArc
 50
309.207123
 51
310.048439
  0
ARC
  5
3F81
330
18
100
AcDbEntity
  8
0
100
AcDbCircle
 10
-362.2369449999998
 20
783.827838
 30
0.0
 40
2.75
100
AcDbArc
 50
46.12181999999999
 51
231.56845
  0
ARC
  5
3F82
330
18
100
AcDbEntity
  8
0
100
AcDbCircle
 10
-972.9922949999997
 20
1506.620668
 30
0.0
 40
949.0
100
AcDbArc
 50
312.7303229999999
 51
313.571638
  0
ARC
  5
3F83
330
18
100
AcDbEntity
  8
0
100
AcDbCircle
 10
-972.9922949999997
 20
1506.620668
 30
0.0
 40
949.0
100
AcDbArc
 50
311.555923
 51
312.397238
  0
ARC
  5
3F84
330
18
100
AcDbEntity
  8
0
100
AcDbCircle
 10
-347.551035
 20
796.4975779999998
 30
0.0
 40
2.75
100
AcDbArc
 50
47.29620999999999
 51
232.7428599999999
  0
ARC
  5
3F85
330
18
100
AcDbEntity
  8
0
100
AcDbCircle
 10
-333.1279949999998
 20
809.4655880000001
 30
0.0
 40
2.75
100
AcDbArc
 50
48.47062000000001
 51
233.9172399999999
  0
ARC
  5
3F86
330
18
100
AcDbEntity
  8
0
100
AcDbCircle
 10
-972.9922949999997
 20
1506.620668
 30
0.0
 40
949.0
100
AcDbArc
 50
313.9047259999998
 51
314.746038
  0
ARC
  5
3F87
330
18
100
AcDbEntity
  8
0
100
AcDbCircle
 10
-318.973705
 20
822.7265179999998
 30
0.0
 40
2.75
100
AcDbArc
 50
49.64502000000001
 51
235.0916499999999
  0
ARC
  5
3F88
330
18
100
AcDbEntity
  8
0
100
AcDbCircle
 10
-972.9922949999997
 20
1506.620668
 30
0.0
 40
1051.0
100
AcDbArc
 50
314.4634279999999
 51
315.3373649999998
  0
ARC
  5
3F89
330
18
100
AcDbEntity
  8
0
100
AcDbCircle
 10
-972.9922949999997
 20
1506.620668
 30
0.0
 40
1051.0
100
AcDbArc
 50
312.1146289999998
 51
312.9885649999998
  0
ARC
  5
3F8A
330
18
100
AcDbEntity
  8
0
100
AcDbCircle
 10
-284.3976549999998
 20
708.9788379999999
 30
0.0
 40
2.75
100
AcDbArc
 50
220.6751999999999
 51
46.12181999999999
  0
ARC
  5
3F8B
330
18
100
AcDbEntity
  8
0
100
AcDbCircle
 10
-972.9922949999997
 20
1506.620668
 30
0.0
 40
1051.0
100
AcDbArc
 50
309.765829
 51
310.639766
  0
ARC
  5
3F8C
330
18
100
AcDbEntity
  8
0
100
AcDbCircle
 10
-300.8905149999999
 20
695.0332179999998
 30
0.0
 40
2.75
100
AcDbArc
 50
219.5008
 51
44.94742000000001
  0
ARC
  5
3F8D
330
18
100
AcDbEntity
  8
0
100
AcDbCircle
 10
-972.9922949999997
 20
1506.620668
 30
0.0
 40
1051.0
100
AcDbArc
 50
310.9402289999998
 51
311.814165
  0
ARC
  5
3F8E
330
18
100
AcDbEntity
  8
0
100
AcDbCircle
 10
-268.194035
 20
723.259658
 30
0.0
 40
2.75
100
AcDbArc
 50
221.8496
 51
47.29620999999999
  0
ARC
  5
3F8F
330
18
100
AcDbEntity
  8
0
100
AcDbCircle
 10
-236.6818349999999
 20
752.8023879999998
 30
0.0
 40
2.75
100
AcDbArc
 50
224.1984
 51
49.64502000000001
  0
ARC
  5
3F90
330
18
100
AcDbEntity
  8
0
100
AcDbCircle
 10
-972.9922949999997
 20
1506.620668
 30
0.0
 40
1051.0
100
AcDbArc
 50
313.2890290000001
 51
314.162965
  0
ARC
  5
3F91
330
18
100
AcDbEntity
  8
0
100
AcDbCircle
 10
-252.2865649999999
 20
737.869588
 30
0.0
 40
2.75
100
AcDbArc
 50
223.024
 51
48.47061
  0
ARC
  5
3F92
330
18
100
AcDbEntity
  8
0
100
AcDbCircle
 10
-972.9922949999997
 20
1506.620668
 30
0.0
 40
949.0
100
AcDbArc
 50
323.299924
 51
324.1412359999998
  0
ARC
  5
3F93
330
18
100
AcDbEntity
  8
0
100
AcDbCircle
 10
-972.9922949999997
 20
1506.620668
 30
0.0
 40
1051.0
100
AcDbArc
 50
315.6378279999998
 51
316.5117649999999
  0
LINE
  5
3F94
330
18
100
AcDbEntity
  8
0
100
AcDbLine
 10
-165.190075
 20
829.978048
 30
0.0
 11
-254.203555
 21
891.116408
 31
0.0
  0
LINE
  5
3F95
330
18
100
AcDbEntity
  8
0
100
AcDbLine
 10
-176.028995
 20
818.0224779999999
 30
0.0
 11
-263.770755
 21
880.9724279999997
 31
0.0
  0
LINE
  5
3F96
330
18
100
AcDbEntity
  8
0
100
AcDbLine
 10
-179.2279749999999
 20
813.563678
 30
0.0
 11
-266.9696749999999
 21
876.513628
 31
0.0
  0
LINE
  5
3F97
330
18
100
AcDbEntity
  8
0
100
AcDbLine
 10
-190.309825
 20
801.8327780000001
 30
0.0
 11
-276.742985
 21
866.5677679999999
 31
0.0
  0
LINE
  5
3F98
330
18
100
AcDbEntity
  8
0
100
AcDbLine
 10
-193.5994949999999
 20
797.440448
 30
0.0
 11
-280.032665
 21
862.1754880000002
 31
0.0
  0
LINE
  5
3F99
330
18
100
AcDbEntity
  8
0
100
AcDbLine
 10
-204.9193149999999
 20
785.939098
 30
0.0
 11
-290.007515
 21
852.4320880000001
 31
0.0
  0
LINE
  5
3F9A
330
18
100
AcDbEntity
  8
0
100
AcDbLine
 10
-208.2983449999999
 20
781.615128
 30
0.0
 11
-293.386545
 21
848.108108
 31
0.0
  0
LINE
  5
3F9B
330
18
100
AcDbEntity
  8
0
100
AcDbLine
 10
-122.312265
 20
885.6042679999998
 30
0.0
 11
-214.914685
 21
941.1569679999999
 31
0.0
  0
LINE
  5
3F9C
330
18
100
AcDbEntity
  8
0
100
AcDbLine
 10
-125.1353249999999
 20
880.898458
 30
0.0
 11
-217.7377349999999
 21
936.4511680000001
 31
0.0
  0
LINE
  5
3F9D
330
18
100
AcDbEntity
  8
0
100
AcDbLine
 10
-162.083135
 20
834.5014779999997
 30
0.0
 11
-251.0966849999999
 21
895.639848
 31
0.0
  0
LINE
  5
3F9E
330
18
100
AcDbEntity
  8
0
100
AcDbLine
 10
-135.2191249999999
 20
868.299398
 30
0.0
 11
-226.6634549999999
 21
925.738368
 31
0.0
  0
LINE
  5
3F9F
330
18
100
AcDbEntity
  8
0
100
AcDbLine
 10
-138.1380049999999
 20
863.652418
 30
0.0
 11
-229.5824049999999
 21
921.0913880000001
 31
0.0
  0
LINE
  5
3FA0
330
18
100
AcDbEntity
  8
0
100
AcDbLine
 10
-148.4779749999999
 20
851.2627679999997
 30
0.0
 11
-238.725895
 21
910.5639179999997
 31
0.0
  0
LINE
  5
3FA1
330
18
100
AcDbEntity
  8
0
100
AcDbLine
 10
-151.491525
 20
846.676588
 30
0.0
 11
-241.739445
 21
905.9777379999999
 31
0.0
  0
ARC
  5
3FA2
330
18
100
AcDbEntity
  8
0
100
AcDbCircle
 10
-972.9922949999997
 20
1506.620668
 30
0.0
 40
949.0
100
AcDbArc
 50
317.427925
 51
318.269237
  0
LINE
  5
3FA3
330
18
100
AcDbEntity
  8
0
100
AcDbLine
 10
-219.851565
 20
770.348278
 30
0.0
 11
-303.559025
 21
838.571248
 31
0.0
  0
ARC
  5
3FA4
330
18
100
AcDbEntity
  8
0
100
AcDbCircle
 10
-278.1826849999999
 20
864.210218
 30
0.0
 40
2.75
100
AcDbArc
 50
53.16822
 51
238.61485
  0
ARC
  5
3FA5
330
18
100
AcDbEntity
  8
0
100
AcDbCircle
 10
-972.9922949999997
 20
1506.620668
 30
0.0
 40
949.0
100
AcDbArc
 50
316.253525
 51
317.094837
  0
ARC
  5
3FA6
330
18
100
AcDbEntity
  8
0
100
AcDbCircle
 10
-972.9922949999997
 20
1506.620668
 30
0.0
 40
949.0
100
AcDbArc
 50
315.0791259999998
 51
315.9204379999998
  0
ARC
  5
3FA7
330
18
100
AcDbEntity
  8
0
100
AcDbCircle
 10
-291.495245
 20
850.1046279999997
 30
0.0
 40
2.75
100
AcDbArc
 50
51.99380999999999
 51
237.4404399999999
  0
ARC
  5
3FA8
330
18
100
AcDbEntity
  8
0
100
AcDbCircle
 10
-221.386485
 20
768.052018
 30
0.0
 40
2.75
100
AcDbArc
 50
225.3728
 51
50.81942
  0
ARC
  5
3FA9
330
18
100
AcDbEntity
  8
0
100
AcDbCircle
 10
-972.9922949999997
 20
1506.620668
 30
0.0
 40
949.0
100
AcDbArc
 50
318.602325
 51
319.443637
  0
ARC
  5
3FAA
330
18
100
AcDbEntity
  8
0
100
AcDbCircle
 10
-265.161935
 20
878.5858279999999
 30
0.0
 40
2.75
100
AcDbArc
 50
54.34262
 51
239.78926
  0
ARC
  5
3FAB
330
18
100
AcDbEntity
  8
0
100
AcDbCircle
 10
-227.905345
 20
923.270868
 30
0.0
 40
2.75
100
AcDbArc
 50
57.86582
 51
243.31244
  0
ARC
  5
3FAC
330
18
100
AcDbEntity
  8
0
100
AcDbCircle
 10
-972.9922949999997
 20
1506.620668
 30
0.0
 40
949.0
100
AcDbArc
 50
320.9511249999998
 51
321.7924369999999
  0
ARC
  5
3FAD
330
18
100
AcDbEntity
  8
0
100
AcDbCircle
 10
-240.018015
 20
908.1223280000001
 30
0.0
 40
2.75
100
AcDbArc
 50
56.69143
 51
242.13806
  0
ARC
  5
3FAE
330
18
100
AcDbEntity
  8
0
100
AcDbCircle
 10
-972.9922949999997
 20
1506.620668
 30
0.0
 40
949.0
100
AcDbArc
 50
319.776725
 51
320.618037
  0
ARC
  5
3FAF
330
18
100
AcDbEntity
  8
0
100
AcDbCircle
 10
-252.4386049999999
 20
893.2252380000001
 30
0.0
 40
2.75
100
AcDbArc
 50
55.51701999999999
 51
240.9636499999999
  0
ARC
  5
3FB0
330
18
100
AcDbEntity
  8
0
100
AcDbCircle
 10
-972.9922949999997
 20
1506.620668
 30
0.0
 40
949.0
100
AcDbArc
 50
322.125524
 51
322.966836
  0
ARC
  5
3FB1
330
18
100
AcDbEntity
  8
0
100
AcDbCircle
 10
-216.105655
 20
938.6644680000001
 30
0.0
 40
2.75
100
AcDbArc
 50
59.04022
 51
244.48685
  0
ARC
  5
3FB2
330
18
100
AcDbEntity
  8
0
100
AcDbCircle
 10
-972.9922949999997
 20
1506.620668
 30
0.0
 40
1051.0
100
AcDbArc
 50
322.6842299999999
 51
323.5581669999999
  0
ARC
  5
3FB3
330
18
100
AcDbEntity
  8
0
100
AcDbCircle
 10
-163.424995
 20
832.0870480000001
 30
0.0
 40
2.75
100
AcDbArc
 50
230.0704
 51
55.51701999999999
  0
ARC
  5
3FB4
330
18
100
AcDbEntity
  8
0
100
AcDbCircle
 10
-177.419995
 20
815.6359980000001
 30
0.0
 40
2.75
100
AcDbArc
 50
228.8959999999999
 51
54.34262
  0
ARC
  5
3FB5
330
18
100
AcDbEntity
  8
0
100
AcDbCircle
 10
-972.9922949999997
 20
1506.620668
 30
0.0
 40
1051.0
100
AcDbArc
 50
317.986628
 51
318.860564
  0
ARC
  5
3FB6
330
18
100
AcDbEntity
  8
0
100
AcDbCircle
 10
-206.4068649999999
 20
783.611768
 30
0.0
 40
2.75
100
AcDbArc
 50
226.5471999999999
 51
51.99380999999999
  0
ARC
  5
3FB7
330
18
100
AcDbEntity
  8
0
100
AcDbCircle
 10
-972.9922949999997
 20
1506.620668
 30
0.0
 40
1051.0
100
AcDbArc
 50
316.8122279999999
 51
317.686164
  0
ARC
  5
3FB8
330
18
100
AcDbEntity
  8
0
100
AcDbCircle
 10
-191.7493349999999
 20
799.475418
 30
0.0
 40
2.75
100
AcDbArc
 50
227.7216
 51
53.16821
  0
ARC
  5
3FB9
330
18
100
AcDbEntity
  8
0
100
AcDbCircle
 10
-972.9922949999997
 20
1506.620668
 30
0.0
 40
1051.0
100
AcDbArc
 50
319.1610279999999
 51
320.034964
  0
ARC
  5
3FBA
330
18
100
AcDbEntity
  8
0
100
AcDbCircle
 10
-972.9922949999997
 20
1506.620668
 30
0.0
 40
1051.0
100
AcDbArc
 50
321.509827
 51
322.383767
  0
ARC
  5
3FBB
330
18
100
AcDbEntity
  8
0
100
AcDbCircle
 10
-972.9922949999997
 20
1506.620668
 30
0.0
 40
1051.0
100
AcDbArc
 50
320.3354269999998
 51
321.2093639999999
  0
ARC
  5
3FBC
330
18
100
AcDbEntity
  8
0
100
AcDbCircle
 10
-149.7699649999999
 20
848.8213679999999
 30
0.0
 40
2.75
100
AcDbArc
 50
231.2448
 51
56.69140999999999
  0
ARC
  5
3FBD
330
18
100
AcDbEntity
  8
0
100
AcDbCircle
 10
-136.4607649999999
 20
865.832048
 30
0.0
 40
2.75
100
AcDbArc
 50
232.4192
 51
57.86582
  0
ARC
  5
3FBE
330
18
100
AcDbEntity
  8
0
100
AcDbCircle
 10
-204.624035
 20
954.296768
 30
0.0
 40
2.75
100
AcDbArc
 50
60.21461999999999
 51
245.6612599999999
  0
ARC
  5
3FBF
330
18
100
AcDbEntity
  8
0
100
AcDbCircle
 10
-972.9922949999997
 20
1506.620668
 30
0.0
 40
949.0
100
AcDbArc
 50
324.474324
 51
325.315636
  0
ARC
  5
3FC0
330
18
100
AcDbEntity
  8
0
100
AcDbCircle
 10
-193.465155
 20
970.1610679999999
 30
0.0
 40
2.75
100
AcDbArc
 50
61.38903
 51
246.8356399999999
  0
ARC
  5
3FC1
330
18
100
AcDbEntity
  8
0
100
AcDbCircle
 10
-123.503125
 20
883.1119579999999
 30
0.0
 40
2.75
100
AcDbArc
 50
233.5936
 51
59.04022
  0
ARC
  5
3FC2
330
18
100
AcDbEntity
  8
0
100
AcDbCircle
 10
-972.9922949999997
 20
1506.620668
 30
0.0
 40
949.0
100
AcDbArc
 50
332.6951259999999
 51
333.5364349999998
  0
ARC
  5
3FC3
330
18
100
AcDbEntity
  8
0
100
AcDbCircle
 10
-161.9716249999999
 20
1019.078968
 30
0.0
 40
2.75
100
AcDbArc
 50
64.91221
 51
250.3588399999999
  0
ARC
  5
3FC4
330
18
100
AcDbEntity
  8
0
100
AcDbCircle
 10
-972.9922949999997
 20
1506.620668
 30
0.0
 40
949.0
100
AcDbArc
 50
327.997527
 51
328.838835
  0
ARC
  5
3FC5
330
18
100
AcDbEntity
  8
0
100
AcDbCircle
 10
-172.1344649999999
 20
1002.558967999998
 30
0.0
 40
2.75
100
AcDbArc
 50
63.73782
 51
249.1844599999998
  0
ARC
  5
3FC6
330
18
100
AcDbEntity
  8
0
100
AcDbCircle
 10
-972.9922949999997
 20
1506.620668
 30
0.0
 40
949.0
100
AcDbArc
 50
326.8231239999999
 51
327.664439
  0
ARC
  5
3FC7
330
18
100
AcDbEntity
  8
0
100
AcDbCircle
 10
-182.633855
 20
986.250668
 30
0.0
 40
2.75
100
AcDbArc
 50
62.56342
 51
248.0100499999999
  0
ARC
  5
3FC8
330
18
100
AcDbEntity
  8
0
100
AcDbCircle
 10
-972.9922949999997
 20
1506.620668
 30
0.0
 40
949.0
100
AcDbArc
 50
329.1719229999998
 51
330.0132389999999
  0
ARC
  5
3FC9
330
18
100
AcDbEntity
  8
0
100
AcDbCircle
 10
-142.6721249999999
 20
1052.726468
 30
0.0
 40
2.75
100
AcDbArc
 50
67.26102
 51
252.7076399999999
  0
ARC
  5
3FCA
330
18
100
AcDbEntity
  8
0
100
AcDbCircle
 10
-152.149425
 20
1035.803868
 30
0.0
 40
2.75
100
AcDbArc
 50
66.08661999999999
 51
251.5332499999999
  0
ARC
  5
3FCB
330
18
100
AcDbEntity
  8
0
100
AcDbCircle
 10
-972.9922949999997
 20
1506.620668
 30
0.0
 40
949.0
100
AcDbArc
 50
330.346326
 51
331.1876349999999
  0
ARC
  5
3FCC
330
18
100
AcDbEntity
  8
0
100
AcDbCircle
 10
-133.543705
 20
1069.839868
 30
0.0
 40
2.75
100
AcDbArc
 50
68.43541999999999
 51
253.8820499999999
  0
ARC
  5
3FCD
330
18
100
AcDbEntity
  8
0
100
AcDbCircle
 10
-972.9922949999997
 20
1506.620668
 30
0.0
 40
949.0
100
AcDbArc
 50
331.5207229999998
 51
332.3620379999998
  0
ARC
  5
3FCE
330
18
100
AcDbEntity
  8
0
100
AcDbCircle
 10
-124.767825
 20
1087.136768
 30
0.0
 40
2.75
100
AcDbArc
 50
69.60981
 51
255.05646
  0
LINE
  5
3FCF
330
18
100
AcDbEntity
  8
0
100
AcDbLine
 10
298.579995
 20
836.646378
 30
0.0
 11
250.820195
 21
739.794388
 31
0.0
  0
ARC
  5
3FD1
330
18
100
AcDbEntity
  8
0
100
AcDbCircle
 10
202.703295
 20
601.626058
 30
0.0
 40
251.0
100
AcDbArc
 50
73.85266999999998
 51
78.59766
  0
ARC
  5
3FD2
330
18
100
AcDbEntity
  8
0
100
AcDbCircle
 10
253.390895
 20
738.817888
 30
0.0
 40
2.75
100
AcDbArc
 50
148.30446
 51
333.7510799999999
  0
LINE
  5
3FD3
330
18
100
AcDbEntity
  8
0
100
AcDbLine
 10
273.488595
 20
845.3806279999996
 30
0.0
 11
236.114195
 21
744.067028
 31
0.0
  0
LINE
  5
3FD4
330
18
100
AcDbEntity
  8
0
100
AcDbLine
 10
278.636995
 20
843.4813380000001
 30
0.0
 11
241.262595
 21
742.167738
 31
0.0
  0
ARC
  5
3FD5
330
18
100
AcDbEntity
  8
0
100
AcDbCircle
 10
-972.9922949999997
 20
1506.620668
 30
0.0
 40
1051.0
100
AcDbArc
 50
329.7306259999998
 51
330.6045619999999
  0
LWPOLYLINE
  5
3FD6
330
18
100
AcDbEntity
  8
0
100
AcDbPolyline
 90
        7
 70
     0
 43
0.0
 10
16.265795
 20
1114.685568
 42
0.401389
 10
25.871095
 20
1087.729967999998
 42
-0.04993
 10
49.148495
 20
1066.395567999999
 42
-0.108883
 10
62.374995
 20
1037.920667999998
 42
-0.031761
 10
67.07859499999999
 20
1006.652168
 42
0.021964
 10
71.91499499999998
 20
975.389468
 42
-0.020467
 10
76.94619499999998
 20
944.156768
  0
LWPOLYLINE
  5
3FD7
330
18
100
AcDbEntity
  8
0
100
AcDbPolyline
 90
        6
 70
     0
 43
0.0
 10
76.02139499999998
 20
943.776768
 42
-0.038132
 10
54.45469499999999
 20
966.199568
 42
-0.067766
 10
38.04559499999999
 20
992.5552679999999
 42
-0.032623
 10
28.418895
 20
1022.145167999998
 42
0.056696
 10
17.377895
 20
1051.191067999998
 42
0.043744
 10
-0.167505
 20
1076.869968
  0
ARC
  5
3FD8
330
18
100
AcDbEntity
  8
0
100
AcDbCircle
 10
66.755195
 20
816.0708179999996
 30
0.0
 40
2.75
100
AcDbArc
 50
28.93727999999999
 51
214.38391
  0
LINE
  5
3FD9
330
18
100
AcDbEntity
  8
0
100
AcDbLine
 10
71.572395
 20
673.363048
 30
0.0
 11
67.41549499999999
 21
664.0844879999998
 31
0.0
  0
ARC
  5
3FDA
330
18
100
AcDbEntity
  8
0
100
AcDbCircle
 10
68.68839499999999
 20
660.1995379999998
 30
0.0
 40
2.75
100
AcDbArc
 50
234.97339
 51
60.42003
  0
LINE
  5
3FDB
330
18
100
AcDbEntity
  8
0
100
AcDbLine
 10
64.485795
 20
814.517778
 30
0.0
 11
116.7357949999999
 21
720.012468
 31
0.0
  0
LINE
  5
3FDC
330
18
100
AcDbEntity
  8
0
100
AcDbLine
 10
46.453095
 20
801.2404380000001
 30
0.0
 11
108.7526949999999
 21
713.0357179999998
 31
0.0
  0
LINE
  5
3FDD
330
18
100
AcDbEntity
  8
0
100
AcDbLine
 10
41.970795
 20
798.074538
 30
0.0
 11
104.270295
 21
709.8698279999998
 31
0.0
  0
LINE
  5
3FDE
330
18
100
AcDbEntity
  8
0
100
AcDbLine
 10
25.503095
 20
782.8996779999998
 30
0.0
 11
97.100795
 21
702.0597679999998
 31
0.0
  0
LINE
  5
3FDF
330
18
100
AcDbEntity
  8
0
100
AcDbLine
 10
21.395095
 20
779.2613079999998
 30
0.0
 11
92.99259499999999
 21
698.4213379999999
 31
0.0
  0
LINE
  5
3FE0
330
18
100
AcDbEntity
  8
0
100
AcDbLine
 10
6.690995
 20
762.371778
 30
0.0
 11
86.722695
 21
689.8719679999998
 31
0.0
  0
LINE
  5
3FE1
330
18
100
AcDbEntity
  8
0
100
AcDbLine
 10
3.006695
 20
758.3047679999999
 30
0.0
 11
83.038395
 21
685.804948
 31
0.0
  0
LINE
  5
3FE2
330
18
100
AcDbEntity
  8
0
100
AcDbLine
 10
-9.756304999999999
 20
739.9046179999998
 30
0.0
 11
77.744095
 21
676.619588
 31
0.0
  0
LINE
  5
3FE3
330
18
100
AcDbEntity
  8
0
100
AcDbLine
 10
-12.972405
 20
735.458088
 30
0.0
 11
74.52799499999997
 21
672.172988
 31
0.0
  0
LINE
  5
3FE4
330
18
100
AcDbEntity
  8
0
100
AcDbLine
 10
-23.64030499999999
 20
715.768998
 30
0.0
 11
70.27299499999999
 21
662.462298
 31
0.0
  0
ARC
  5
3FE5
330
18
100
AcDbEntity
  8
0
100
AcDbCircle
 10
202.703295
 20
601.626058
 30
0.0
 40
251.0
100
AcDbArc
 50
135.9285199999999
 51
140.67351
  0
ARC
  5
3FE6
330
18
100
AcDbEntity
  8
0
100
AcDbCircle
 10
202.703295
 20
601.626058
 30
0.0
 40
251.0
100
AcDbArc
 50
154.52166
 51
159.56316
  0
ARC
  5
3FE7
330
18
100
AcDbEntity
  8
0
100
AcDbCircle
 10
-25.22490499999999
 20
713.5062379999998
 30
0.0
 40
2.75
100
AcDbArc
 50
60.42003
 51
245.8666599999999
  0
LINE
  5
3FE8
330
18
100
AcDbEntity
  8
0
100
AcDbLine
 10
29.496595
 20
554.931228
 30
0.0
 11
-75.02613499999998
 21
582.066548
 31
0.0
  0
LINE
  5
3FE9
330
18
100
AcDbEntity
  8
0
100
AcDbLine
 10
57.54219499999999
 20
631.9859179999999
 30
0.0
 11
-46.727805
 21
659.055618
 31
0.0
  0
LINE
  5
3FEA
330
18
100
AcDbEntity
  8
0
100
AcDbLine
 10
56.16329499999999
 20
626.6745179999998
 30
0.0
 11
-48.35930499999999
 21
653.809828
 31
0.0
  0
LINE
  5
3FEB
330
18
100
AcDbEntity
  8
0
100
AcDbLine
 10
-34.79350499999998
 20
690.256368
 30
0.0
 11
64.399695
 21
647.571058
 31
0.0
  0
LINE
  5
3FEC
330
18
100
AcDbEntity
  8
0
100
AcDbLine
 10
-36.96260499999999
 20
685.215588
 30
0.0
 11
62.230495
 21
642.530288
 31
0.0
  0
LINE
  5
3FED
330
18
100
AcDbEntity
  8
0
100
AcDbLine
 10
-26.34920499999999
 20
710.9965980000001
 30
0.0
 11
67.56399499999999
 21
657.689838
 31
0.0
  0
LINE
  5
3FEE
330
18
100
AcDbEntity
  8
0
100
AcDbLine
 10
36.507895
 20
574.194898
 30
0.0
 11
-68.014705
 21
601.3302179999998
 31
0.0
  0
LINE
  5
3FEF
330
18
100
AcDbEntity
  8
0
100
AcDbLine
 10
35.128995
 20
568.8833179999997
 30
0.0
 11
-69.39370500000001
 21
596.018628
 31
0.0
  0
LINE
  5
3FF0
330
18
100
AcDbEntity
  8
0
100
AcDbLine
 10
50.53079499999999
 20
612.722248
 30
0.0
 11
-53.991805
 21
639.857558
 31
0.0
  0
LINE
  5
3FF1
330
18
100
AcDbEntity
  8
0
100
AcDbLine
 10
49.151895
 20
607.4107179999998
 30
0.0
 11
-55.370805
 21
634.5460379999998
 31
0.0
  0
LINE
  5
3FF2
330
18
100
AcDbEntity
  8
0
100
AcDbLine
 10
43.51929499999999
 20
593.4586379999998
 30
0.0
 11
-61.003305
 21
620.593948
 31
0.0
  0
LINE
  5
3FF3
330
18
100
AcDbEntity
  8
0
100
AcDbLine
 10
42.140395
 20
588.147048
 30
0.0
 11
-62.382305
 21
615.282368
 31
0.0
  0
ARC
  5
3FF4
330
18
100
AcDbEntity
  8
0
100
AcDbCircle
 10
-47.418905
 20
656.393998
 30
0.0
 40
2.75
100
AcDbArc
 50
75.44661999999998
 51
260.89326
  0
LINE
  5
3FF5
330
18
100
AcDbEntity
  8
0
100
AcDbLine
 10
-66.719805
 20
595.324788
 30
0.0
 11
-71.845905
 21
581.240978
 31
0.0
  0
ARC
  5
3FF6
330
18
100
AcDbEntity
  8
0
100
AcDbCircle
 10
-68.453105
 20
598.6029179999998
 30
0.0
 40
2.75
100
AcDbArc
 50
75.44661999999998
 51
260.89326
  0
ARC
  5
3FF7
330
18
100
AcDbEntity
  8
0
100
AcDbCircle
 10
-82.475895
 20
560.0756379999998
 30
0.0
 40
2.75
100
AcDbArc
 50
75.44661999999998
 51
260.89326
  0
ARC
  5
3FF8
330
18
100
AcDbEntity
  8
0
100
AcDbCircle
 10
-75.464485
 20
579.339248
 30
0.0
 40
2.75
100
AcDbArc
 50
75.44661999999998
 51
260.89326
  0
LINE
  5
3FF9
330
18
100
AcDbEntity
  8
0
100
AcDbLine
 10
-73.73130500000002
 20
576.0609279999998
 30
0.0
 11
-78.85724499999998
 21
561.9773679999998
 31
0.0
  0
LINE
  5
3FFA
330
18
100
AcDbEntity
  8
0
100
AcDbLine
 10
-59.70840500000001
 20
614.588398
 30
0.0
 11
-64.834505
 21
600.504718
 31
0.0
  0
LINE
  5
3FFB
330
18
100
AcDbEntity
  8
0
100
AcDbLine
 10
-45.68560499999999
 20
653.115798
 30
0.0
 11
-50.811605
 21
639.032178
 31
0.0
  0
LINE
  5
3FFC
330
18
100
AcDbEntity
  8
0
100
AcDbLine
 10
-52.697005
 20
633.8520079999998
 30
0.0
 11
-57.823005
 21
619.768448
 31
0.0
  0
ARC
  5
3FFD
330
18
100
AcDbEntity
  8
0
100
AcDbCircle
 10
-54.43020500000001
 20
637.130388
 30
0.0
 40
2.75
100
AcDbArc
 50
75.44661999999998
 51
260.89326
  0
ARC
  5
3FFE
330
18
100
AcDbEntity
  8
0
100
AcDbCircle
 10
-61.44170500000001
 20
617.866658
 30
0.0
 40
2.75
100
AcDbArc
 50
75.44661999999998
 51
260.89326
  0
LINE
  5
3FFF
330
18
100
AcDbEntity
  8
0
100
AcDbLine
 10
-34.403005
 20
684.114278
 30
0.0
 11
-43.80020499999999
 21
658.295788
 31
0.0
  0
ARC
  5
4000
330
18
100
AcDbEntity
  8
0
100
AcDbCircle
 10
-36.120305
 20
687.833328
 30
0.0
 40
2.75
100
AcDbArc
 50
66.71656999999999
 51
252.16322
  0
LINE
  5
4001
330
18
100
AcDbEntity
  8
0
100
AcDbLine
 10
65.04569499999999
 20
659.119278
 30
0.0
 11
61.324195
 21
648.894548
 31
0.0
  0
LINE
  5
4002
330
18
100
AcDbEntity
  8
0
100
AcDbLine
 10
46.477995
 20
608.1049379999998
 30
0.0
 11
41.351995
 21
594.021378
 31
0.0
  0
ARC
  5
4003
330
18
100
AcDbEntity
  8
0
100
AcDbCircle
 10
43.08099499999999
 20
590.7312779999998
 30
0.0
 40
2.75
100
AcDbArc
 50
250.0
 51
75.44661999999998
  0
LINE
  5
4004
330
18
100
AcDbEntity
  8
0
100
AcDbLine
 10
32.455095
 20
569.577588
 30
0.0
 11
27.329195
 21
555.4940379999997
 31
0.0
  0
LINE
  5
4005
330
18
100
AcDbEntity
  8
0
100
AcDbLine
 10
39.46659499999999
 20
588.841448
 30
0.0
 11
34.340595
 21
574.7577679999998
 31
0.0
  0
ARC
  5
4006
330
18
100
AcDbEntity
  8
0
100
AcDbCircle
 10
36.069595
 20
571.467668
 30
0.0
 40
2.75
100
AcDbArc
 50
250.0
 51
75.44661999999998
  0
ARC
  5
4007
330
18
100
AcDbEntity
  8
0
100
AcDbCircle
 10
57.103795
 20
629.258748
 30
0.0
 40
2.75
100
AcDbArc
 50
250.0
 51
75.44661999999998
  0
LINE
  5
4008
330
18
100
AcDbEntity
  8
0
100
AcDbLine
 10
59.44419499999999
 20
643.729328
 30
0.0
 11
55.37479499999999
 21
632.5487779999998
 31
0.0
  0
LINE
  5
4009
330
18
100
AcDbEntity
  8
0
100
AcDbLine
 10
53.489395
 20
627.3686679999998
 30
0.0
 11
48.363495
 21
613.2852379999998
 31
0.0
  0
ARC
  5
400A
330
18
100
AcDbEntity
  8
0
100
AcDbCircle
 10
50.092495
 20
609.995138
 30
0.0
 40
2.75
100
AcDbArc
 50
250.0
 51
75.44661999999998
  0
ARC
  5
400B
330
18
100
AcDbEntity
  8
0
100
AcDbCircle
 10
63.07279499999999
 20
645.1481479999999
 30
0.0
 40
2.75
100
AcDbArc
 50
241.26995
 51
66.71656999999999
  0
ARC
  5
400C
330
18
100
AcDbEntity
  8
0
100
AcDbCircle
 10
202.703295
 20
601.626058
 30
0.0
 40
251.0
100
AcDbArc
 50
142.22507
 51
146.97006
  0
ARC
  5
400D
330
18
100
AcDbEntity
  8
0
100
AcDbCircle
 10
202.703295
 20
601.626058
 30
0.0
 40
251.0
100
AcDbArc
 50
148.2250999999999
 51
153.2666199999999
  0
ARC
  5
400E
330
18
100
AcDbEntity
  8
0
100
AcDbCircle
 10
-11.579705
 20
737.829238
 30
0.0
 40
2.75
100
AcDbArc
 50
54.12348000000001
 51
239.5700999999998
  0
ARC
  5
400F
330
18
100
AcDbEntity
  8
0
100
AcDbCircle
 10
4.651094999999998
 20
760.508988
 30
0.0
 40
2.75
100
AcDbArc
 50
47.82693
 51
233.27356
  0
ARC
  5
4010
330
18
100
AcDbEntity
  8
0
100
AcDbCircle
 10
-972.9922949999997
 20
1506.620668
 30
0.0
 40
1051.0
100
AcDbArc
 50
328.556229
 51
329.430166
  0
ARC
  5
4011
330
18
100
AcDbEntity
  8
0
100
AcDbCircle
 10
-972.9922949999997
 20
1506.620668
 30
0.0
 40
1051.0
100
AcDbArc
 50
326.20743
 51
327.0813659999999
  0
ARC
  5
4012
330
18
100
AcDbEntity
  8
0
100
AcDbCircle
 10
-98.66364500000001
 20
918.450338
 30
0.0
 40
2.75
100
AcDbArc
 50
235.9424
 51
61.38901
  0
ARC
  5
4013
330
18
100
AcDbEntity
  8
0
100
AcDbCircle
 10
-972.9922949999997
 20
1506.620668
 30
0.0
 40
1051.0
100
AcDbArc
 50
325.0330299999999
 51
325.906966
  0
ARC
  5
4014
330
18
100
AcDbEntity
  8
0
100
AcDbCircle
 10
-110.902285
 20
900.6538279999999
 30
0.0
 40
2.75
100
AcDbArc
 50
234.7679999999999
 51
60.21461999999999
  0
ARC
  5
4015
330
18
100
AcDbEntity
  8
0
100
AcDbCircle
 10
-75.293345
 20
954.776868
 30
0.0
 40
2.75
100
AcDbArc
 50
238.2912
 51
63.73782
  0
ARC
  5
4016
330
18
100
AcDbEntity
  8
0
100
AcDbCircle
 10
-86.792365
 20
936.4937679999997
 30
0.0
 40
2.75
100
AcDbArc
 50
237.1168
 51
62.56342
  0
ARC
  5
4017
330
18
100
AcDbEntity
  8
0
100
AcDbCircle
 10
-972.9922949999997
 20
1506.620668
 30
0.0
 40
1051.0
100
AcDbArc
 50
327.381826
 51
328.2557629999999
  0
ARC
  5
4018
330
18
100
AcDbEntity
  8
0
100
AcDbCircle
 10
-64.17150500000001
 20
973.2917679999999
 30
0.0
 40
2.75
100
AcDbArc
 50
239.4656
 51
64.91221
  0
ARC
  5
4019
330
18
100
AcDbEntity
  8
0
100
AcDbCircle
 10
23.271195
 20
781.2717479999998
 30
0.0
 40
2.75
100
AcDbArc
 50
41.53037
 51
226.977
  0
ARC
  5
401A
330
18
100
AcDbEntity
  8
0
100
AcDbCircle
 10
44.05609499999999
 20
799.867208
 30
0.0
 40
2.75
100
AcDbArc
 50
35.23383
 51
220.68047
  0
ARC
  5
401B
330
18
100
AcDbEntity
  8
0
100
AcDbCircle
 10
202.703295
 20
601.626058
 30
0.0
 40
251.0
100
AcDbArc
 50
129.63196
 51
134.3769599999999
  0
ARC
  5
401C
330
18
100
AcDbEntity
  8
0
100
AcDbCircle
 10
202.703295
 20
601.626058
 30
0.0
 40
251.0
100
AcDbArc
 50
123.0389
 51
128.08042
  0
LINE
  5
401D
330
18
100
AcDbEntity
  8
0
100
AcDbLine
 10
252.940195
 20
850.0938279999997
 30
0.0
 11
226.360795
 21
745.428418
 31
0.0
  0
LINE
  5
401E
330
18
100
AcDbEntity
  8
0
100
AcDbLine
 10
226.693095
 20
853.9837779999997
 30
0.0
 11
211.199595
 21
747.1134779999998
 31
0.0
  0
LINE
  5
401F
330
18
100
AcDbEntity
  8
0
100
AcDbLine
 10
247.6213949999999
 20
851.4445380000001
 30
0.0
 11
221.041895
 21
746.779128
 31
0.0
  0
LINE
  5
4020
330
18
100
AcDbEntity
  8
0
100
AcDbLine
 10
145.3420949999999
 20
822.4610179999999
 30
0.0
 11
159.6927949999999
 21
741.468278
 31
0.0
  0
LINE
  5
4021
330
18
100
AcDbEntity
  8
0
100
AcDbLine
 10
93.73319499999999
 20
830.504958
 30
0.0
 11
135.3031949999998
 21
730.839248
 31
0.0
  0
LINE
  5
4022
330
18
100
AcDbEntity
  8
0
100
AcDbLine
 10
88.66839499999997
 20
828.392468
 30
0.0
 11
130.2382949999999
 21
728.7267579999998
 31
0.0
  0
LINE
  5
4023
330
18
100
AcDbEntity
  8
0
100
AcDbLine
 10
69.28829499999999
 20
817.172988
 30
0.0
 11
121.5382949999999
 21
722.667678
 31
0.0
  0
LINE
  5
4024
330
18
100
AcDbEntity
  8
0
100
AcDbLine
 10
120.653995
 20
837.1151280000001
 30
0.0
 11
149.8809949999998
 21
737.451858
 31
0.0
  0
LINE
  5
4025
330
18
100
AcDbEntity
  8
0
100
AcDbLine
 10
115.2707949999999
 20
835.9708379999997
 30
0.0
 11
144.6151949999999
 21
735.907608
 31
0.0
  0
LINE
  5
4026
330
18
100
AcDbEntity
  8
0
100
AcDbLine
 10
139.245295
 20
851.144668
 30
0.0
 11
162.689295
 21
740.849018
 31
0.0
  0
LINE
  5
4027
330
18
100
AcDbEntity
  8
0
100
AcDbLine
 10
174.458595
 20
858.6294679999998
 30
0.0
 11
197.902595
 21
748.333878
 31
0.0
  0
LINE
  5
4028
330
18
100
AcDbEntity
  8
0
100
AcDbLine
 10
200.182995
 20
855.109148
 30
0.0
 11
196.2880949999999
 21
755.929708
 31
0.0
  0
LINE
  5
4029
330
18
100
AcDbEntity
  8
0
100
AcDbLine
 10
221.262095
 20
854.771138
 30
0.0
 11
205.7686949999999
 21
747.900838
 31
0.0
  0
ARC
  5
402A
330
18
100
AcDbEntity
  8
0
100
AcDbCircle
 10
162.3427949999999
 20
742.203078
 30
0.0
 40
2.75
100
AcDbArc
 50
184.6009999999999
 51
341.4843569999998
  0
ARC
  5
402B
330
18
100
AcDbEntity
  8
0
100
AcDbCircle
 10
106.355895
 20
711.662548
 30
0.0
 40
2.75
100
AcDbArc
 50
209.7872
 51
35.23383
  0
LINE
  5
402C
330
18
100
AcDbEntity
  8
0
100
AcDbLine
 10
101.8592949999999
 20
711.9527780000002
 30
0.0
 11
94.92229499999998
 21
704.519728
 31
0.0
  0
LINE
  5
402D
330
18
100
AcDbEntity
  8
0
100
AcDbLine
 10
90.367695
 20
700.227248
 30
0.0
 11
84.28769499999999
 21
692.078138
 31
0.0
  0
ARC
  5
402E
330
18
100
AcDbEntity
  8
0
100
AcDbCircle
 10
75.920795
 20
674.544208
 30
0.0
 40
2.75
100
AcDbArc
 50
228.67684
 51
54.12348000000001
  0
LINE
  5
402F
330
18
100
AcDbEntity
  8
0
100
AcDbLine
 10
80.23129499999997
 20
687.312088
 30
0.0
 11
75.081695
 21
678.545238
 31
0.0
  0
ARC
  5
4030
330
18
100
AcDbEntity
  8
0
100
AcDbCircle
 10
84.682895
 20
688.0091079999998
 30
0.0
 40
2.75
100
AcDbArc
 50
222.3802899999999
 51
47.82693
  0
ARC
  5
4031
330
18
100
AcDbEntity
  8
0
100
AcDbCircle
 10
94.86899499999999
 20
700.4318379999999
 30
0.0
 40
2.75
100
AcDbArc
 50
216.0837399999999
 51
41.53037
  0
LINE
  5
4032
330
18
100
AcDbEntity
  8
0
100
AcDbLine
 10
114.567695
 20
722.3471879999998
 30
0.0
 11
106.8571949999999
 21
715.719808
 31
0.0
  0
LINE
  5
4033
330
18
100
AcDbEntity
  8
0
100
AcDbLine
 10
143.008395
 20
738.6588879999997
 30
0.0
 11
134.038395
 21
733.8719679999997
 31
0.0
  0
ARC
  5
4034
330
18
100
AcDbEntity
  8
0
100
AcDbCircle
 10
119.0052949999999
 20
721.5656280000001
 30
0.0
 40
2.75
100
AcDbArc
 50
203.49064
 51
28.93727999999999
  0
LINE
  5
4035
330
18
100
AcDbEntity
  8
0
100
AcDbLine
 10
128.3394949999999
 20
731.285298
 30
0.0
 11
119.948695
 21
725.543408
 31
0.0
  0
ARC
  5
4036
330
18
100
AcDbEntity
  8
0
100
AcDbCircle
 10
132.6644949999999
 20
730.0216179999998
 30
0.0
 40
2.75
100
AcDbArc
 50
197.1940999999999
 51
22.64072999999999
  0
LINE
  5
4037
330
18
100
AcDbEntity
  8
0
100
AcDbLine
 10
158.3973949999998
 20
744.379228
 30
0.0
 11
148.9564949999999
 21
740.6049379999998
 31
0.0
  0
ARC
  5
4038
330
18
100
AcDbEntity
  8
0
100
AcDbCircle
 10
147.1687949999999
 20
736.928478
 30
0.0
 40
2.75
100
AcDbArc
 50
190.8975399999999
 51
16.34418
  0
ARC
  5
4039
330
18
100
AcDbEntity
  8
0
100
AcDbCircle
 10
208.515395
 20
747.766678
 30
0.0
 40
2.75
100
AcDbArc
 50
166.30446
 51
351.751081
  0
LINE
  5
403A
330
18
100
AcDbEntity
  8
0
100
AcDbLine
 10
162.689295
 20
740.849018
 30
0.0
 11
197.902595
 21
748.333878
 31
0.0
  0
ARC
  5
403B
330
18
100
AcDbEntity
  8
0
100
AcDbCircle
 10
202.703295
 20
601.626058
 30
0.0
 40
149.0
100
AcDbArc
 50
88.6714
 51
92.02617
  0
ARC
  5
403C
330
18
100
AcDbEntity
  8
0
100
AcDbCircle
 10
202.703295
 20
601.626058
 30
0.0
 40
149.0
100
AcDbArc
 50
76.6714
 51
80.54999
  0
ARC
  5
403D
330
18
100
AcDbEntity
  8
0
100
AcDbCircle
 10
223.759495
 20
746.3584179999997
 30
0.0
 40
2.75
100
AcDbArc
 50
160.30445
 51
345.75108
  0
ARC
  5
403E
330
18
100
AcDbEntity
  8
0
100
AcDbCircle
 10
202.703295
 20
601.626058
 30
0.0
 40
149.0
100
AcDbArc
 50
82.67139
 51
86.54998
  0
ARC
  5
403F
330
18
100
AcDbEntity
  8
0
100
AcDbCircle
 10
238.772795
 20
743.3646379999998
 30
0.0
 40
2.75
100
AcDbArc
 50
154.3044599999998
 51
339.75108
  0
ARC
  5
4040
330
18
100
AcDbEntity
  8
0
100
AcDbCircle
 10
202.703295
 20
601.626058
 30
0.0
 40
149.0
100
AcDbArc
 50
70.67139
 51
74.54998
  0
LINE
  5
4041
330
18
100
AcDbEntity
  8
0
100
AcDbLine
 10
141.8599949999999
 20
872.1472980000001
 30
0.0
 11
168.9570949999998
 21
877.9069380000002
 31
0.0
  0
LINE
  5
4042
330
18
100
AcDbEntity
  8
0
100
AcDbLine
 10
139.245295
 20
851.144668
 30
0.0
 11
174.458595
 21
858.6294679999998
 31
0.0
  0
LINE
  5
4043
330
18
100
AcDbEntity
  8
0
100
AcDbLine
 10
143.107495
 20
866.278398
 30
0.0
 11
170.204495
 21
872.0380379999998
 31
0.0
  0
ARC
  5
4044
330
18
100
AcDbEntity
  8
0
100
AcDbCircle
 10
147.265795
 20
846.715408
 30
0.0
 40
26.000002
100
AcDbArc
 50
102.0
 51
135.0
  0
LINE
  5
4045
330
18
100
AcDbEntity
  8
0
100
AcDbLine
 10
95.94879500000001
 20
897.8948479999997
 30
0.0
 11
115.530895
 21
856.271008
 31
0.0
  0
LINE
  5
4046
330
18
100
AcDbEntity
  8
0
100
AcDbLine
 10
100.4731949999999
 20
900.0233279999999
 30
0.0
 11
120.0551949999999
 21
858.3994880000004
 31
0.0
  0
ARC
  5
4047
330
18
100
AcDbEntity
  8
0
100
AcDbCircle
 10
118.139495
 20
860.0100880000001
 30
0.0
 40
10.0
100
AcDbArc
 50
40.0
 51
109.1789699999999
  0
LINE
  5
4048
330
18
100
AcDbEntity
  8
0
100
AcDbLine
 10
112.476995
 20
841.5110679999997
 30
0.0
 11
118.8571949999999
 21
842.867208
 31
0.0
  0
LINE
  5
4049
330
18
100
AcDbEntity
  8
0
100
AcDbLine
 10
113.724395
 20
835.642168
 30
0.0
 11
120.104695
 21
836.9983679999997
 31
0.0
  0
ARC
  5
404A
330
18
100
AcDbEntity
  8
0
100
AcDbCircle
 10
202.703295
 20
601.626058
 30
0.0
 40
251.0
100
AcDbArc
 50
116.74236
 51
121.78386
  0
ARC
  5
404B
330
18
100
AcDbEntity
  8
0
100
AcDbCircle
 10
91.094295
 20
829.6872679999999
 30
0.0
 40
2.75
100
AcDbArc
 50
22.64072999999999
 51
208.08735
  0
LINE
  5
404C
330
18
100
AcDbEntity
  8
0
100
AcDbLine
 10
107.1073949999999
 20
848.9018079999999
 30
0.0
 11
113.6590949999999
 21
860.249898
 31
0.0
  0
ARC
  5
404D
330
18
100
AcDbEntity
  8
0
100
AcDbCircle
 10
111.437595
 20
846.401748
 30
0.0
 40
11.0
100
AcDbArc
 50
150.0
 51
281.9999989999999
  0
ARC
  5
404E
330
18
100
AcDbEntity
  8
0
100
AcDbCircle
 10
111.437595
 20
846.401748
 30
0.0
 40
5.0
100
AcDbArc
 50
150.0
 51
281.9999989999999
  0
LINE
  5
404F
330
18
100
AcDbEntity
  8
0
100
AcDbLine
 10
101.9111949999998
 20
851.901808
 30
0.0
 11
109.4791949999999
 21
865.010028
 31
0.0
  0
ARC
  5
4050
330
18
100
AcDbEntity
  8
0
100
AcDbCircle
 10
118.139495
 20
860.0100880000001
 30
0.0
 40
10.0
100
AcDbArc
 50
138.47304
 51
150.0
  0
ARC
  5
4051
330
18
100
AcDbEntity
  8
0
100
AcDbCircle
 10
202.703295
 20
601.626058
 30
0.0
 40
251.0
100
AcDbArc
 50
111.34909
 51
115.4873499999999
  0
ARC
  5
4052
330
18
100
AcDbEntity
  8
0
100
AcDbCircle
 10
202.703295
 20
601.626058
 30
0.0
 40
251.0
100
AcDbArc
 50
104.4457599999998
 51
109.19076
  0
ARC
  5
4053
330
18
100
AcDbEntity
  8
0
100
AcDbCircle
 10
147.265795
 20
846.715408
 30
0.0
 40
20.0
100
AcDbArc
 50
102.0
 51
135.0
  0
LINE
  5
4054
330
18
100
AcDbEntity
  8
0
100
AcDbLine
 10
125.7998949999999
 20
866.437948
 30
0.0
 11
139.4531949999999
 21
850.1665179999999
 31
0.0
  0
ARC
  5
4055
330
18
100
AcDbEntity
  8
0
100
AcDbCircle
 10
140.972495
 20
854.5788079999999
 30
0.0
 40
10.0
100
AcDbArc
 50
220.0
 51
268.0931399999999
  0
LINE
  5
4056
330
18
100
AcDbEntity
  8
0
100
AcDbLine
 10
118.8571949999999
 20
842.867208
 30
0.0
 11
120.119595
 21
836.9281779999999
 31
0.0
  0
LINE
  5
4057
330
18
100
AcDbEntity
  8
0
100
AcDbLine
 10
121.2036949999999
 20
862.5813179999999
 30
0.0
 11
133.312095
 21
848.151018
 31
0.0
  0
ARC
  5
4058
330
18
100
AcDbEntity
  8
0
100
AcDbCircle
 10
118.139495
 20
860.0100880000001
 30
0.0
 40
4.0
100
AcDbArc
 50
40.0
 51
100.00548
  0
LINE
  5
4059
330
18
100
AcDbEntity
  8
0
100
AcDbLine
 10
127.815995
 20
864.0352380000001
 30
0.0
 11
128.640895
 21
864.860248
 31
0.0
  0
LINE
  5
405A
330
18
100
AcDbEntity
  8
0
100
AcDbLine
 10
132.5124949999999
 20
860.246418
 30
0.0
 11
133.1235949999999
 21
860.857558
 31
0.0
  0
LINE
  5
405B
330
18
100
AcDbEntity
  8
0
100
AcDbLine
 10
120.0551949999999
 20
858.3994880000004
 30
0.0
 11
115.530895
 21
856.271008
 31
0.0
  0
LINE
  5
405C
330
18
100
AcDbEntity
  8
0
100
AcDbLine
 10
101.9690949999999
 20
899.3404679999999
 30
0.0
 11
77.830995
 21
944.628168
 31
0.0
  0
LINE
  5
405D
330
18
100
AcDbEntity
  8
0
100
AcDbLine
 10
95.521395
 20
896.3072080000001
 30
0.0
 11
76.021295
 21
943.776768
 31
0.0
  0
LINE
  5
405E
330
18
100
AcDbEntity
  8
0
100
AcDbLine
 10
96.446295
 20
896.6871480000001
 30
0.0
 11
76.94619499999998
 21
944.1566679999999
 31
0.0
  0
LINE
  5
405F
330
18
100
AcDbEntity
  8
0
100
AcDbLine
 10
101.0865949999999
 20
898.870198
 30
0.0
 11
76.948695
 21
944.1578680000001
 31
0.0
  0
ARC
  5
4060
330
18
100
AcDbEntity
  8
0
100
AcDbCircle
 10
98.821095
 20
897.662618
 30
0.0
 40
3.567183999999998
100
AcDbArc
 50
339.688714
 51
28.05725
  0
LINE
  5
4061
330
18
100
AcDbEntity
  8
0
100
AcDbLine
 10
100.4731949999999
 20
900.0233279999999
 30
0.0
 11
95.94879500000001
 21
897.8948479999997
 31
0.0
  0
ARC
  5
4062
330
18
100
AcDbEntity
  8
0
100
AcDbCircle
 10
98.821095
 20
897.662618
 30
0.0
 40
3.567183999999998
100
AcDbArc
 50
202.33245
 51
250.7009899999999
  0
ARC
  5
4063
330
18
100
AcDbEntity
  8
0
100
AcDbCircle
 10
98.821095
 20
897.662618
 30
0.0
 40
2.567184
100
AcDbArc
 50
339.688714
 51
28.05725
  0
LINE
  5
4064
330
18
100
AcDbEntity
  8
0
100
AcDbLine
 10
76.92629499999998
 20
944.2024679999999
 30
0.0
 11
77.830995
 21
944.628168
 31
0.0
  0
ARC
  5
4065
330
18
100
AcDbEntity
  8
0
100
AcDbCircle
 10
171.7636949999999
 20
864.7018580000001
 30
0.0
 40
7.5
100
AcDbArc
 50
292.55203
 51
102.00001
  0
ARC
  5
4066
330
18
100
AcDbEntity
  8
0
100
AcDbCircle
 10
171.7636949999999
 20
864.7018580000001
 30
0.0
 40
13.5
100
AcDbArc
 50
287.839122
 51
102.00001
  0
ARC
  5
4067
330
18
100
AcDbEntity
  8
0
100
AcDbCircle
 10
202.703295
 20
601.626058
 30
0.0
 40
251.0
100
AcDbArc
 50
85.85266999999998
 51
90.59766000000001
  0
LINE
  5
4068
330
18
100
AcDbEntity
  8
0
100
AcDbLine
 10
194.6995949999999
 20
855.3244779999996
 30
0.0
 11
191.652595
 21
777.7379279999999
 31
0.0
  0
ARC
  5
4069
330
18
100
AcDbEntity
  8
0
100
AcDbCircle
 10
202.703295
 20
601.626058
 30
0.0
 40
251.0
100
AcDbArc
 50
91.85267000000001
 51
96.09871
  0
ARC
  5
406A
330
18
100
AcDbEntity
  8
0
100
AcDbCircle
 10
197.4450949999999
 20
855.4779179999997
 30
0.0
 40
2.75
100
AcDbArc
 50
357.751088
 51
183.1977
  0
ARC
  5
406B
330
18
100
AcDbEntity
  8
0
100
AcDbCircle
 10
202.703295
 20
601.626058
 30
0.0
 40
251.0
100
AcDbArc
 50
79.85266999999997
 51
84.59766999999997
  0
ARC
  5
406C
330
18
100
AcDbEntity
  8
0
100
AcDbCircle
 10
224.008595
 20
854.6369179999997
 30
0.0
 40
2.75
100
AcDbArc
 50
351.7510869999999
 51
177.1977099999999
  0
ARC
  5
406D
330
18
100
AcDbEntity
  8
0
100
AcDbCircle
 10
250.338895
 20
851.0238779999998
 30
0.0
 40
2.75
100
AcDbArc
 50
345.751087
 51
171.1976899999999
  0
ARC
  5
406E
330
18
100
AcDbEntity
  8
0
100
AcDbCircle
 10
32.058395
 20
1189.969368
 30
0.0
 40
2.75
100
AcDbArc
 50
252.384
 51
77.83062
  0
ARC
  5
406F
330
18
100
AcDbEntity
  8
0
100
AcDbCircle
 10
-972.9922949999997
 20
1506.620668
 30
0.0
 40
949.0
100
AcDbArc
 50
339.741525
 51
340.5828399999998
  0
LINE
  5
4070
330
18
100
AcDbEntity
  8
0
100
AcDbLine
 10
31.226095
 20
1187.348167999998
 30
0.0
 11
-74.334805
 21
1210.112167999999
 31
0.0
  0
LINE
  5
4071
330
18
100
AcDbEntity
  8
0
100
AcDbLine
 10
24.471495
 20
1166.833067999998
 30
0.0
 11
-80.600775
 21
1191.755767999999
 31
0.0
  0
LINE
  5
4072
330
18
100
AcDbEntity
  8
0
100
AcDbLine
 10
25.737995
 20
1172.172468
 30
0.0
 11
-79.33423499999998
 21
1197.095368
 31
0.0
  0
ARC
  5
4073
330
18
100
AcDbEntity
  8
0
100
AcDbCircle
 10
-23.54640499999999
 20
1049.512868
 30
0.0
 40
2.75
100
AcDbArc
 50
244.1632
 51
69.60981
  0
ARC
  5
4074
330
18
100
AcDbEntity
  8
0
100
AcDbCircle
 10
-972.9922949999997
 20
1506.620668
 30
0.0
 40
1051.0
100
AcDbArc
 50
334.428232
 51
335.3021679999999
  0
LINE
  5
4075
330
18
100
AcDbEntity
  8
0
100
AcDbLine
 10
-4.753105
 20
1078.862768
 30
0.0
 11
-112.0589649999998
 21
1125.494068
 31
0.0
  0
LINE
  5
4076
330
18
100
AcDbEntity
  8
0
100
AcDbLine
 10
9.594794999999999
 20
1111.879867999998
 30
0.0
 11
-97.710945
 21
1158.510968
 31
0.0
  0
LINE
  5
4077
330
18
100
AcDbEntity
  8
0
100
AcDbLine
 10
17.297795
 20
1146.460668
 30
0.0
 11
-87.241525
 21
1173.531868
 31
0.0
  0
LINE
  5
4078
330
18
100
AcDbEntity
  8
0
100
AcDbLine
 10
18.673495
 20
1151.773167999998
 30
0.0
 11
-85.86585500000003
 21
1178.844268
 31
0.0
  0
LINE
  5
4079
330
18
100
AcDbEntity
  8
0
100
AcDbLine
 10
9.708095
 20
1126.239667999999
 30
0.0
 11
-84.09076500000002
 21
1152.592167999999
 31
0.0
  0
LINE
  5
407A
330
18
100
AcDbEntity
  8
0
100
AcDbLine
 10
11.192295
 20
1131.522768
 30
0.0
 11
-92.770205
 21
1160.730867999999
 31
0.0
  0
LINE
  5
407B
330
18
100
AcDbEntity
  8
0
100
AcDbLine
 10
-13.71860499999999
 20
1071.750868
 30
0.0
 11
-115.689645
 21
1107.292467999998
 31
0.0
  0
LINE
  5
407C
330
18
100
AcDbEntity
  8
0
100
AcDbLine
 10
-15.524705
 20
1066.568968
 30
0.0
 11
-117.495795
 21
1102.110568
 31
0.0
  0
ARC
  5
407D
330
18
100
AcDbEntity
  8
0
100
AcDbCircle
 10
-33.114705
 20
1030.149168
 30
0.0
 40
2.75
100
AcDbArc
 50
242.9888
 51
68.43541999999999
  0
ARC
  5
407E
330
18
100
AcDbEntity
  8
0
100
AcDbCircle
 10
-972.9922949999997
 20
1506.620668
 30
0.0
 40
1051.0
100
AcDbArc
 50
330.905029
 51
331.7789649999998
  0
ARC
  5
407F
330
18
100
AcDbEntity
  8
0
100
AcDbCircle
 10
-53.431505
 20
992.030768
 30
0.0
 40
2.75
100
AcDbArc
 50
240.64
 51
66.08660999999999
  0
ARC
  5
4080
330
18
100
AcDbEntity
  8
0
100
AcDbCircle
 10
-972.9922949999997
 20
1506.620668
 30
0.0
 40
1051.0
100
AcDbArc
 50
332.079425
 51
332.953369
  0
ARC
  5
4081
330
18
100
AcDbEntity
  8
0
100
AcDbCircle
 10
-43.077705
 20
1010.985868
 30
0.0
 40
2.75
100
AcDbArc
 50
241.8144
 51
67.26102
  0
ARC
  5
4082
330
18
100
AcDbEntity
  8
0
100
AcDbCircle
 10
-972.9922949999997
 20
1506.620668
 30
0.0
 40
1051.0
100
AcDbArc
 50
333.253829
 51
334.127765
  0
LINE
  5
4083
330
18
100
AcDbEntity
  8
0
100
AcDbLine
 10
-67.102505
 20
1105.957267999998
 30
0.0
 11
-109.384835
 21
1119.729468
 31
0.0
  0
LINE
  5
4084
330
18
100
AcDbEntity
  8
0
100
AcDbLine
 10
-97.710945
 20
1158.510968
 30
0.0
 11
-112.0589649999998
 21
1125.494068
 31
0.0
  0
ARC
  5
4085
330
18
100
AcDbEntity
  8
0
100
AcDbCircle
 10
-972.9922949999997
 20
1506.620668
 30
0.0
 40
949.0
100
AcDbArc
 50
335.0439259999999
 51
335.8852339999998
  0
ARC
  5
4086
330
18
100
AcDbEntity
  8
0
100
AcDbCircle
 10
-108.288885
 20
1122.251768
 30
0.0
 40
2.75
100
AcDbArc
 50
124.17575
 51
257.40525
  0
ARC
  5
4087
330
18
100
AcDbEntity
  8
0
100
AcDbCircle
 10
-93.262885
 20
1158.012668
 30
0.0
 40
2.75
100
AcDbArc
 50
74.30743000000003
 51
185.09554
  0
ARC
  5
4088
330
18
100
AcDbEntity
  8
0
100
AcDbCircle
 10
-972.9922949999997
 20
1506.620668
 30
0.0
 40
949.0
100
AcDbArc
 50
338.567122
 51
339.4084369999999
  0
ARC
  5
4089
330
18
100
AcDbEntity
  8
0
100
AcDbCircle
 10
-86.30268499999997
 20
1176.116568
 30
0.0
 40
2.75
100
AcDbArc
 50
75.48182
 51
260.92845
  0
LINE
  5
408A
330
18
100
AcDbEntity
  8
0
100
AcDbLine
 10
11.68009499999999
 20
1116.678367999998
 30
0.0
 11
-6.838405
 21
1074.064368
 31
0.0
  0
LINE
  5
408B
330
18
100
AcDbEntity
  8
0
100
AcDbLine
 10
16.265795
 20
1114.685568
 30
0.0
 11
-2.252604999999999
 21
1072.071668
 31
0.0
  0
ARC
  5
408C
330
18
100
AcDbEntity
  8
0
100
AcDbCircle
 10
-14.37730499999999
 20
1069.068367999998
 30
0.0
 40
2.75
100
AcDbArc
 50
245.3376
 51
70.78421
  0
ARC
  5
408D
330
18
100
AcDbEntity
  8
0
100
AcDbCircle
 10
-972.9922949999997
 20
1506.620668
 30
0.0
 40
1051.0
100
AcDbArc
 50
335.602628
 51
336.162178
  0
LINE
  5
408E
330
18
100
AcDbEntity
  8
0
100
AcDbLine
 10
-2.252604999999999
 20
1072.071668
 30
0.0
 11
-6.838405
 21
1074.064368
 31
0.0
  0
ARC
  5
408F
330
18
100
AcDbEntity
  8
0
100
AcDbCircle
 10
-972.9922949999997
 20
1506.620668
 30
0.0
 40
1051.0
100
AcDbArc
 50
339.1258309999999
 51
339.999767
  0
ARC
  5
4090
330
18
100
AcDbEntity
  8
0
100
AcDbCircle
 10
-972.9922949999997
 20
1506.620668
 30
0.0
 40
1051.0
100
AcDbArc
 50
338.124949
 51
338.825364
  0
ARC
  5
4091
330
18
100
AcDbEntity
  8
0
100
AcDbCircle
 10
10.699795
 20
1128.804868
 30
0.0
 40
2.75
100
AcDbArc
 50
248.8608
 51
74.30741000000002
  0
LINE
  5
4092
330
18
100
AcDbEntity
  8
0
100
AcDbLine
 10
16.265795
 20
1114.685568
 30
0.0
 11
11.68009499999999
 21
1116.678367999998
 31
0.0
  0
ARC
  5
4093
330
18
100
AcDbEntity
  8
0
100
AcDbCircle
 10
-972.9922949999997
 20
1506.620668
 30
0.0
 40
1051.0
100
AcDbArc
 50
340.3002269999999
 51
341.174164
  0
ARC
  5
4094
330
18
100
AcDbEntity
  8
0
100
AcDbCircle
 10
18.236595
 20
1149.045668
 30
0.0
 40
2.75
100
AcDbArc
 50
250.0352
 51
75.48182
  0
ARC
  5
4095
330
18
100
AcDbEntity
  8
0
100
AcDbCircle
 10
25.357395
 20
1169.436668
 30
0.0
 40
2.75
100
AcDbArc
 50
251.2096
 51
76.65621999999998
  0
ARC
  5
4096
330
18
100
AcDbEntity
  8
0
100
AcDbCircle
 10
-972.9922949999997
 20
1506.620668
 30
0.0
 40
1051.0
100
AcDbArc
 50
341.4746309999998
 51
342.348567
  0
LINE
  5
4097
330
18
100
AcDbEntity
  8
0
100
AcDbLine
 10
37.558895
 20
1207.997368
 30
0.0
 11
-68.446405
 21
1228.593068
 31
0.0
  0
LINE
  5
4098
330
18
100
AcDbEntity
  8
0
100
AcDbLine
 10
32.382995
 20
1192.712468
 30
0.0
 11
-73.178005
 21
1215.476468
 31
0.0
  0
LINE
  5
4099
330
18
100
AcDbEntity
  8
0
100
AcDbLine
 10
43.467195
 20
1228.772068
 30
0.0
 11
-62.938005
 21
1247.190768
 31
0.0
  0
LINE
  5
409A
330
18
100
AcDbEntity
  8
0
100
AcDbLine
 10
44.40329499999999
 20
1234.179368
 30
0.0
 11
-62.00200500000001
 21
1252.598068
 31
0.0
  0
LINE
  5
409B
330
18
100
AcDbEntity
  8
0
100
AcDbLine
 10
38.60549499999999
 20
1213.384168
 30
0.0
 11
-67.399805
 21
1233.979967999998
 31
0.0
  0
LINE
  5
409C
330
18
100
AcDbEntity
  8
0
100
AcDbLine
 10
58.620495
 20
1291.761368
 30
0.0
 11
-48.715405
 21
1303.606368
 31
0.0
  0
LINE
  5
409D
330
18
100
AcDbEntity
  8
0
100
AcDbLine
 10
54.00019499999999
 20
1270.662868
 30
0.0
 11
-53.07040500000001
 21
1284.705368
 31
0.0
  0
LINE
  5
409E
330
18
100
AcDbEntity
  8
0
100
AcDbLine
 10
54.71369499999998
 20
1276.103867999998
 30
0.0
 11
-52.356805
 21
1290.146368
 31
0.0
  0
LINE
  5
409F
330
18
100
AcDbEntity
  8
0
100
AcDbLine
 10
48.948295
 20
1249.663567999999
 30
0.0
 11
-57.812005
 21
1265.897567999999
 31
0.0
  0
LINE
  5
40A0
330
18
100
AcDbEntity
  8
0
100
AcDbLine
 10
49.773295
 20
1255.088868
 30
0.0
 11
-56.98700500000001
 21
1271.322868
 31
0.0
  0
ARC
  5
40A1
330
18
100
AcDbEntity
  8
0
100
AcDbCircle
 10
-972.9922949999997
 20
1506.620668
 30
0.0
 40
949.0
100
AcDbArc
 50
346.787924
 51
347.629239
  0
ARC
  5
40A2
330
18
100
AcDbEntity
  8
0
100
AcDbCircle
 10
-73.502605
 20
1212.733268
 30
0.0
 40
2.75
100
AcDbArc
 50
77.83062
 51
263.2772499999999
  0
ARC
  5
40A3
330
18
100
AcDbEntity
  8
0
100
AcDbCircle
 10
-972.9922949999997
 20
1506.620668
 30
0.0
 40
949.0
100
AcDbArc
 50
340.9159209999999
 51
341.757237
  0
ARC
  5
40A4
330
18
100
AcDbEntity
  8
0
100
AcDbCircle
 10
-79.71497499999998
 20
1194.359268
 30
0.0
 40
2.75
100
AcDbArc
 50
76.65621999999998
 51
262.10286
  0
ARC
  5
40A5
330
18
100
AcDbEntity
  8
0
100
AcDbCircle
 10
-972.9922949999997
 20
1506.620668
 30
0.0
 40
949.0
100
AcDbArc
 50
343.264721
 51
344.1060359999998
  0
ARC
  5
40A6
330
18
100
AcDbEntity
  8
0
100
AcDbCircle
 10
-67.668205
 20
1231.230567999999
 30
0.0
 40
2.75
100
AcDbArc
 50
79.00503
 51
264.45166
  0
ARC
  5
40A7
330
18
100
AcDbEntity
  8
0
100
AcDbCircle
 10
-972.9922949999997
 20
1506.620668
 30
0.0
 40
949.0
100
AcDbArc
 50
342.090324
 51
342.93164
  0
ARC
  5
40A8
330
18
100
AcDbEntity
  8
0
100
AcDbCircle
 10
-972.9922949999997
 20
1506.620668
 30
0.0
 40
949.0
100
AcDbArc
 50
344.439124
 51
345.280439
  0
ARC
  5
40A9
330
18
100
AcDbEntity
  8
0
100
AcDbCircle
 10
-972.9922949999997
 20
1506.620668
 30
0.0
 40
949.0
100
AcDbArc
 50
345.613527
 51
346.454836
  0
ARC
  5
40AA
330
18
100
AcDbEntity
  8
0
100
AcDbCircle
 10
-52.455805
 20
1287.385768
 30
0.0
 40
2.75
100
AcDbArc
 50
82.52822
 51
267.97486
  0
ARC
  5
40AB
330
18
100
AcDbEntity
  8
0
100
AcDbCircle
 10
-57.14250500000001
 20
1268.564668
 30
0.0
 40
2.75
100
AcDbArc
 50
81.35382000000001
 51
266.80045
  0
ARC
  5
40AC
330
18
100
AcDbEntity
  8
0
100
AcDbCircle
 10
-62.21410500000001
 20
1249.843768
 30
0.0
 40
2.75
100
AcDbArc
 50
80.17941999999997
 51
265.6260399999999
  0
ARC
  5
40AD
330
18
100
AcDbEntity
  8
0
100
AcDbCircle
 10
59.18019499999999
 20
1294.453968
 30
0.0
 40
2.75
100
AcDbArc
 50
258.2559999999999
 51
83.70260999999997
  0
ARC
  5
40AE
330
18
100
AcDbEntity
  8
0
100
AcDbCircle
 10
-972.9922949999997
 20
1506.620668
 30
0.0
 40
1051.0
100
AcDbArc
 50
344.997827
 51
345.8717629999998
  0
ARC
  5
40AF
330
18
100
AcDbEntity
  8
0
100
AcDbCircle
 10
44.19119499999999
 20
1231.425267999998
 30
0.0
 40
2.75
100
AcDbArc
 50
254.7327999999999
 51
80.17941999999997
  0
ARC
  5
40B0
330
18
100
AcDbEntity
  8
0
100
AcDbCircle
 10
38.337295
 20
1210.635268
 30
0.0
 40
2.75
100
AcDbArc
 50
253.5583999999999
 51
79.00501
  0
ARC
  5
40B1
330
18
100
AcDbEntity
  8
0
100
AcDbCircle
 10
-972.9922949999997
 20
1506.620668
 30
0.0
 40
1051.0
100
AcDbArc
 50
343.8234299999998
 51
344.6973669999998
  0
ARC
  5
40B2
330
18
100
AcDbEntity
  8
0
100
AcDbCircle
 10
-972.9922949999997
 20
1506.620668
 30
0.0
 40
1051.0
100
AcDbArc
 50
342.6490269999998
 51
343.522963
  0
ARC
  5
40B3
330
18
100
AcDbEntity
  8
0
100
AcDbCircle
 10
-972.9922949999997
 20
1506.620668
 30
0.0
 40
1051.0
100
AcDbArc
 50
346.1722299999998
 51
347.046166
  0
ARC
  5
40B4
330
18
100
AcDbEntity
  8
0
100
AcDbCircle
 10
-972.9922949999997
 20
1506.620668
 30
0.0
 40
1051.0
100
AcDbArc
 50
347.3466259999998
 51
348.2205629999998
  0
ARC
  5
40B5
330
18
100
AcDbEntity
  8
0
100
AcDbCircle
 10
54.61499499999999
 20
1273.343568
 30
0.0
 40
2.75
100
AcDbArc
 50
257.0815999999999
 51
82.52822
  0
ARC
  5
40B6
330
18
100
AcDbEntity
  8
0
100
AcDbCircle
 10
49.617995
 20
1252.331068
 30
0.0
 40
2.75
100
AcDbArc
 50
255.9072
 51
81.35382000000001
  0
LINE
  5
40B7
330
18
100
AcDbEntity
  8
0
100
AcDbLine
 10
454.025259
 20
635.274812
 30
0.0
 11
347.2947389999998
 21
618.8453549999998
 31
0.0
  0
LINE
  5
40B8
330
18
100
AcDbEntity
  8
0
100
AcDbLine
 10
453.1903699999999
 20
640.698576
 30
0.0
 11
346.459849
 21
624.269119
 31
0.0
  0
LINE
  5
40B9
330
18
100
AcDbEntity
  8
0
100
AcDbLine
 10
456.453195
 20
611.371538
 30
0.0
 11
348.953295
 21
601.121538
 31
0.0
  0
LINE
  5
40BA
330
18
100
AcDbEntity
  8
0
100
AcDbLine
 10
455.932295
 20
616.834428
 30
0.0
 11
348.432495
 21
606.584428
 31
0.0
  0
LINE
  5
40BB
330
18
100
AcDbEntity
  8
0
100
AcDbLine
 10
455.932295
 20
575.834428
 30
0.0
 11
348.432495
 21
565.584428
 31
0.0
  0
LINE
  5
40BC
330
18
100
AcDbEntity
  8
0
100
AcDbLine
 10
456.453195
 20
570.371538
 30
0.0
 11
348.953295
 21
560.121538
 31
0.0
  0
LINE
  5
40BD
330
18
100
AcDbEntity
  8
0
100
AcDbLine
 10
455.932295
 20
596.334428
 30
0.0
 11
348.432495
 21
586.084428
 31
0.0
  0
LINE
  5
40BE
330
18
100
AcDbEntity
  8
0
100
AcDbLine
 10
456.453195
 20
590.871538
 30
0.0
 11
348.953295
 21
580.621538
 31
0.0
  0
ARC
  5
40BF
330
18
100
AcDbEntity
  8
0
100
AcDbCircle
 10
202.703295
 20
601.626058
 30
0.0
 40
251.0
100
AcDbArc
 50
13.85266
 51
18.59766
  0
ARC
  5
40C0
330
18
100
AcDbEntity
  8
0
100
AcDbCircle
 10
442.505895
 20
685.071428
 30
0.0
 40
2.75
100
AcDbArc
 50
285.751086
 51
111.1976999999999
  0
LINE
  5
40C1
330
18
100
AcDbEntity
  8
0
100
AcDbLine
 10
449.1933949999998
 20
662.201558
 30
0.0
 11
342.766195
 21
643.911938
 31
0.0
  0
LINE
  5
40C2
330
18
100
AcDbEntity
  8
0
100
AcDbLine
 10
450.122895
 20
656.7931679999998
 30
0.0
 11
343.695495
 21
638.503558
 31
0.0
  0
LINE
  5
40C3
330
18
100
AcDbEntity
  8
0
100
AcDbLine
 10
443.0011949999998
 20
682.353408
 30
0.0
 11
339.068495
 21
653.039258
 31
0.0
  0
LINE
  5
40C4
330
18
100
AcDbEntity
  8
0
100
AcDbLine
 10
303.5018949999998
 20
834.2193179999997
 30
0.0
 11
255.741995
 21
737.367328
 31
0.0
  0
LINE
  5
40C5
330
18
100
AcDbEntity
  8
0
100
AcDbLine
 10
322.6209949999998
 20
825.337178
 30
0.0
 11
264.999095
 21
734.0080079999998
 31
0.0
  0
LINE
  5
40C6
330
18
100
AcDbEntity
  8
0
100
AcDbLine
 10
327.262095
 20
822.4089479999999
 30
0.0
 11
269.640195
 21
731.0797879999999
 31
0.0
  0
LINE
  5
40C7
330
18
100
AcDbEntity
  8
0
100
AcDbLine
 10
345.348295
 20
811.5767980000001
 30
0.0
 11
278.495395
 21
726.770948
 31
0.0
  0
LINE
  5
40C8
330
18
100
AcDbEntity
  8
0
100
AcDbLine
 10
349.657995
 20
808.179458
 30
0.0
 11
282.805095
 21
723.373678
 31
0.0
  0
LINE
  5
40C9
330
18
100
AcDbEntity
  8
0
100
AcDbLine
 10
366.512795
 20
795.5161879999998
 30
0.0
 11
291.161395
 21
718.162978
 31
0.0
  0
LINE
  5
40CA
330
18
100
AcDbEntity
  8
0
100
AcDbLine
 10
370.4436949999998
 20
791.687028
 30
0.0
 11
295.092295
 21
714.3338179999998
 31
0.0
  0
LINE
  5
40CB
330
18
100
AcDbEntity
  8
0
100
AcDbLine
 10
385.882395
 20
777.331188
 30
0.0
 11
302.858295
 21
708.278278
 31
0.0
  0
LINE
  5
40CC
330
18
100
AcDbEntity
  8
0
100
AcDbLine
 10
389.391395
 20
773.1121379999998
 30
0.0
 11
306.367495
 21
704.059158
 31
0.0
  0
ARC
  5
40CD
330
18
100
AcDbEntity
  8
0
100
AcDbCircle
 10
202.703295
 20
601.626058
 30
0.0
 40
251.0
100
AcDbArc
 50
37.85267
 51
42.59765999999999
  0
ARC
  5
40CE
330
18
100
AcDbEntity
  8
0
100
AcDbCircle
 10
202.703295
 20
601.626058
 30
0.0
 40
149.0
100
AcDbArc
 50
8.946444999999997
 51
14.54997999999999
  0
ARC
  5
40CF
330
18
100
AcDbEntity
  8
0
100
AcDbCircle
 10
347.134558
 20
621.603299
 30
0.0
 40
2.75
100
AcDbArc
 50
93.30443999999999
 51
278.751068
  0
ARC
  5
40D0
330
18
100
AcDbEntity
  8
0
100
AcDbCircle
 10
348.9531949999998
 20
603.871598
 30
0.0
 40
2.75
100
AcDbArc
 50
95.44662
 51
280.89325
  0
ARC
  5
40D1
330
18
100
AcDbEntity
  8
0
100
AcDbCircle
 10
348.9531949999998
 20
583.371598
 30
0.0
 40
2.75
100
AcDbArc
 50
95.44662
 51
280.89325
  0
ARC
  5
40D2
330
18
100
AcDbEntity
  8
0
100
AcDbCircle
 10
348.9531949999998
 20
562.871538
 30
0.0
 40
2.75
100
AcDbArc
 50
95.44662
 51
280.89325
  0
LINE
  5
40D3
330
18
100
AcDbEntity
  8
0
100
AcDbLine
 10
403.245195
 20
757.2213279999998
 30
0.0
 11
313.457795
 21
697.2248679999998
 31
0.0
  0
LINE
  5
40D4
330
18
100
AcDbEntity
  8
0
100
AcDbLine
 10
406.2939949999998
 20
752.658528
 30
0.0
 11
316.506695
 21
692.662128
 31
0.0
  0
LINE
  5
40D5
330
18
100
AcDbEntity
  8
0
100
AcDbLine
 10
418.410595
 20
735.406508
 30
0.0
 11
322.843895
 21
685.1241579999999
 31
0.0
  0
LINE
  5
40D6
330
18
100
AcDbEntity
  8
0
100
AcDbLine
 10
431.2128949999998
 20
712.126118
 30
0.0
 11
330.913595
 21
672.1085379999998
 31
0.0
  0
LINE
  5
40D7
330
18
100
AcDbEntity
  8
0
100
AcDbLine
 10
433.246495
 20
707.029128
 30
0.0
 11
332.9472949999999
 21
667.011608
 31
0.0
  0
LINE
  5
40D8
330
18
100
AcDbEntity
  8
0
100
AcDbLine
 10
441.511395
 20
687.635028
 30
0.0
 11
337.578795
 21
658.3208779999998
 31
0.0
  0
LINE
  5
40D9
330
18
100
AcDbEntity
  8
0
100
AcDbLine
 10
420.965795
 20
730.550068
 30
0.0
 11
325.399195
 21
680.2677179999998
 31
0.0
  0
ARC
  5
40DA
330
18
100
AcDbEntity
  8
0
100
AcDbCircle
 10
338.573295
 20
655.757098
 30
0.0
 40
2.75
100
AcDbArc
 50
100.30447
 51
285.751079
  0
ARC
  5
40DB
330
18
100
AcDbEntity
  8
0
100
AcDbCircle
 10
202.703295
 20
601.626058
 30
0.0
 40
149.0
100
AcDbArc
 50
16.67138999999999
 51
20.54997999999998
  0
ARC
  5
40DC
330
18
100
AcDbEntity
  8
0
100
AcDbCircle
 10
343.487195
 20
641.2581979999998
 30
0.0
 40
2.75
100
AcDbArc
 50
94.30445
 51
279.751079
  0
ARC
  5
40DD
330
18
100
AcDbEntity
  8
0
100
AcDbCircle
 10
202.703295
 20
601.626058
 30
0.0
 40
149.0
100
AcDbArc
 50
46.67139
 51
50.54998000000001
  0
ARC
  5
40DE
330
18
100
AcDbEntity
  8
0
100
AcDbCircle
 10
202.703295
 20
601.626058
 30
0.0
 40
149.0
100
AcDbArc
 50
58.67139
 51
62.54998000000001
  0
ARC
  5
40DF
330
18
100
AcDbEntity
  8
0
100
AcDbCircle
 10
280.807095
 20
725.2813879999998
 30
0.0
 40
2.75
100
AcDbArc
 50
136.30446
 51
321.75108
  0
ARC
  5
40E0
330
18
100
AcDbEntity
  8
0
100
AcDbCircle
 10
202.703295
 20
601.626058
 30
0.0
 40
149.0
100
AcDbArc
 50
64.67138
 51
68.54999000000001
  0
ARC
  5
40E1
330
18
100
AcDbEntity
  8
0
100
AcDbCircle
 10
267.453795
 20
732.7680179999998
 30
0.0
 40
2.75
100
AcDbArc
 50
142.30446
 51
327.7510799999999
  0
ARC
  5
40E2
330
18
100
AcDbEntity
  8
0
100
AcDbCircle
 10
202.703295
 20
601.626058
 30
0.0
 40
149.0
100
AcDbArc
 50
52.67138
 51
56.54996999999998
  0
ARC
  5
40E3
330
18
100
AcDbEntity
  8
0
100
AcDbCircle
 10
293.304695
 20
716.4398980000002
 30
0.0
 40
2.75
100
AcDbArc
 50
130.3044599999998
 51
315.75108
  0
ARC
  5
40E4
330
18
100
AcDbEntity
  8
0
100
AcDbCircle
 10
202.703295
 20
601.626058
 30
0.0
 40
149.0
100
AcDbArc
 50
34.67139
 51
38.54998
  0
ARC
  5
40E5
330
18
100
AcDbEntity
  8
0
100
AcDbCircle
 10
324.349795
 20
682.823138
 30
0.0
 40
2.75
100
AcDbArc
 50
112.30446
 51
297.751079
  0
ARC
  5
40E6
330
18
100
AcDbEntity
  8
0
100
AcDbCircle
 10
202.703295
 20
601.626058
 30
0.0
 40
149.0
100
AcDbArc
 50
40.6714
 51
44.54998999999999
  0
ARC
  5
40E7
330
18
100
AcDbEntity
  8
0
100
AcDbCircle
 10
304.809795
 20
706.3404679999998
 30
0.0
 40
2.75
100
AcDbArc
 50
124.30447
 51
309.751079
  0
ARC
  5
40E8
330
18
100
AcDbEntity
  8
0
100
AcDbCircle
 10
315.195895
 20
695.093828
 30
0.0
 40
2.75
100
AcDbArc
 50
118.30445
 51
303.751079
  0
ARC
  5
40E9
330
18
100
AcDbEntity
  8
0
100
AcDbCircle
 10
202.703295
 20
601.626058
 30
0.0
 40
149.0
100
AcDbArc
 50
28.67138
 51
32.54997
  0
ARC
  5
40EA
330
18
100
AcDbEntity
  8
0
100
AcDbCircle
 10
202.703295
 20
601.626058
 30
0.0
 40
149.0
100
AcDbArc
 50
22.67138999999999
 51
26.54997999999999
  0
ARC
  5
40EB
330
18
100
AcDbEntity
  8
0
100
AcDbCircle
 10
332.1707949999999
 20
669.662798
 30
0.0
 40
2.75
100
AcDbArc
 50
106.30446
 51
291.751079
  0
LINE
  5
40EC
330
18
100
AcDbEntity
  8
0
100
AcDbLine
 10
351.703295
 20
601.3837469999998
 30
0.0
 11
351.703295
 21
596.1219079999998
 31
0.0
  0
LINE
  5
40ED
330
18
100
AcDbEntity
  8
0
100
AcDbLine
 10
351.703095
 20
601.383868
 30
0.0
 11
351.703095
 21
586.3963179999998
 31
0.0
  0
LINE
  5
40EE
330
18
100
AcDbEntity
  8
0
100
AcDbLine
 10
351.703095
 20
580.883868
 30
0.0
 11
351.703095
 21
565.8963179999998
 31
0.0
  0
ARC
  5
40EF
330
18
100
AcDbEntity
  8
0
100
AcDbCircle
 10
202.703295
 20
601.626058
 30
0.0
 40
149.0
100
AcDbArc
 50
2.023607
 51
6.835894
  0
ARC
  5
40F0
330
18
100
AcDbEntity
  8
0
100
AcDbCircle
 10
432.469895
 20
709.680438
 30
0.0
 40
2.75
100
AcDbArc
 50
291.7510859999998
 51
117.1977
  0
ARC
  5
40F1
330
18
100
AcDbEntity
  8
0
100
AcDbCircle
 10
202.703295
 20
601.626058
 30
0.0
 40
251.0
100
AcDbArc
 50
25.85266999999999
 51
30.59765999999999
  0
ARC
  5
40F2
330
18
100
AcDbEntity
  8
0
100
AcDbCircle
 10
202.703295
 20
601.626058
 30
0.0
 40
251.0
100
AcDbArc
 50
19.85266
 51
24.59767
  0
ARC
  5
40F3
330
18
100
AcDbEntity
  8
0
100
AcDbCircle
 10
419.916595
 20
733.105728
 30
0.0
 40
2.75
100
AcDbArc
 50
297.7510859999998
 51
123.1977
  0
ARC
  5
40F4
330
18
100
AcDbEntity
  8
0
100
AcDbCircle
 10
202.703295
 20
601.626058
 30
0.0
 40
251.0
100
AcDbArc
 50
31.85266
 51
36.59767
  0
ARC
  5
40F5
330
18
100
AcDbEntity
  8
0
100
AcDbCircle
 10
404.9830949999998
 20
755.090408
 30
0.0
 40
2.75
100
AcDbArc
 50
303.7510859999999
 51
129.1977099999999
  0
ARC
  5
40F6
330
18
100
AcDbEntity
  8
0
100
AcDbCircle
 10
347.659795
 20
810.087238
 30
0.0
 40
2.75
100
AcDbArc
 50
321.7510869999998
 51
147.19769
  0
ARC
  5
40F7
330
18
100
AcDbEntity
  8
0
100
AcDbCircle
 10
202.703295
 20
601.626058
 30
0.0
 40
251.0
100
AcDbArc
 50
49.85267
 51
54.59766
  0
ARC
  5
40F8
330
18
100
AcDbEntity
  8
0
100
AcDbCircle
 10
301.150695
 20
835.669938
 30
0.0
 40
2.75
100
AcDbArc
 50
333.751087
 51
159.1976999999999
  0
ARC
  5
40F9
330
18
100
AcDbEntity
  8
0
100
AcDbCircle
 10
202.703295
 20
601.626058
 30
0.0
 40
251.0
100
AcDbArc
 50
67.85266999999999
 51
72.59767
  0
ARC
  5
40FA
330
18
100
AcDbEntity
  8
0
100
AcDbCircle
 10
276.147195
 20
844.6783579999998
 30
0.0
 40
2.75
100
AcDbArc
 50
339.751087
 51
165.1977
  0
ARC
  5
40FB
330
18
100
AcDbEntity
  8
0
100
AcDbCircle
 10
202.703295
 20
601.626058
 30
0.0
 40
251.0
100
AcDbArc
 50
55.85266999999999
 51
60.59766999999999
  0
ARC
  5
40FC
330
18
100
AcDbEntity
  8
0
100
AcDbCircle
 10
325.075595
 20
824.0973079999999
 30
0.0
 40
2.75
100
AcDbArc
 50
327.7510869999998
 51
153.19771
  0
ARC
  5
40FD
330
18
100
AcDbEntity
  8
0
100
AcDbCircle
 10
202.703295
 20
601.626058
 30
0.0
 40
251.0
100
AcDbArc
 50
61.85266999999999
 51
66.59766000000001
  0
ARC
  5
40FE
330
18
100
AcDbEntity
  8
0
100
AcDbCircle
 10
202.703295
 20
601.626058
 30
0.0
 40
251.0
100
AcDbArc
 50
43.85267
 51
48.59767
  0
ARC
  5
40FF
330
18
100
AcDbEntity
  8
0
100
AcDbCircle
 10
368.655795
 20
793.7931079999998
 30
0.0
 40
2.75
100
AcDbArc
 50
315.7510859999998
 51
141.1977
  0
ARC
  5
4100
330
18
100
AcDbEntity
  8
0
100
AcDbCircle
 10
387.833695
 20
775.393688
 30
0.0
 40
2.75
100
AcDbArc
 50
309.7510859999998
 51
135.1976999999999
  0
ARC
  5
4101
330
18
100
AcDbEntity
  8
0
100
AcDbCircle
 10
449.914695
 20
659.5480479999999
 30
0.0
 40
2.75
100
AcDbArc
 50
279.751086
 51
105.1976999999999
  0
LINE
  5
4102
330
18
100
AcDbEntity
  8
0
100
AcDbLine
 10
453.703095
 20
611.1093879999998
 30
0.0
 11
453.703095
 21
596.1217780000001
 31
0.0
  0
ARC
  5
4103
330
18
100
AcDbEntity
  8
0
100
AcDbCircle
 10
456.453195
 20
593.621598
 30
0.0
 40
2.75
100
AcDbArc
 50
269.9999899999999
 51
95.44662
  0
ARC
  5
4104
330
18
100
AcDbEntity
  8
0
100
AcDbCircle
 10
456.453195
 20
573.121658
 30
0.0
 40
2.75
100
AcDbArc
 50
269.9999899999999
 51
95.44662
  0
LINE
  5
4105
330
18
100
AcDbEntity
  8
0
100
AcDbLine
 10
453.703095
 20
570.109388
 30
0.0
 11
453.703095
 21
555.121838
 31
0.0
  0
LINE
  5
4106
330
18
100
AcDbEntity
  8
0
100
AcDbLine
 10
453.703095
 20
590.6093879999998
 30
0.0
 11
453.703095
 21
575.621778
 31
0.0
  0
ARC
  5
4107
330
18
100
AcDbEntity
  8
0
100
AcDbCircle
 10
202.703295
 20
601.626058
 30
0.0
 40
251.0000199999999
100
AcDbArc
 50
3.415419
 51
7.614314000000001
  0
ARC
  5
4108
330
18
100
AcDbEntity
  8
0
100
AcDbCircle
 10
202.703295
 20
601.626058
 30
0.0
 40
251.0
100
AcDbArc
 50
8.867053000000002
 51
12.59766
  0
ARC
  5
4109
330
18
100
AcDbEntity
  8
0
100
AcDbCircle
 10
453.865074
 20
638.032816
 30
0.0
 40
2.75
100
AcDbArc
 50
278.7510859999999
 51
104.1976999999999
  0
ARC
  5
410A
330
18
100
AcDbEntity
  8
0
100
AcDbCircle
 10
202.703295
 20
601.626058
 30
0.0
 40
251.0
100
AcDbArc
 50
1.852664
 51
2.161375
  0
ARC
  5
410B
330
18
100
AcDbEntity
  8
0
100
AcDbCircle
 10
456.453195
 20
614.1215980000001
 30
0.0
 40
2.75
100
AcDbArc
 50
269.9999899999999
 51
95.44662
  0
ARC
  5
410C
330
18
100
AcDbEntity
  8
0
100
AcDbCircle
 10
75.47029499999998
 20
1401.165168
 30
0.0
 40
2.75
100
AcDbArc
 50
264.128
 51
89.57461999999997
  0
ARC
  5
410D
330
18
100
AcDbEntity
  8
0
100
AcDbCircle
 10
-32.514305
 20
1401.966668
 30
0.0
 40
2.75
100
AcDbArc
 50
89.57461999999997
 51
275.0212649999999
  0
ARC
  5
410E
330
18
100
AcDbEntity
  8
0
100
AcDbCircle
 10
-972.9922949999997
 20
1506.620668
 30
0.0
 40
1051.0
100
AcDbArc
 50
352.0442249999998
 51
352.9181689999998
  0
ARC
  5
410F
330
18
100
AcDbEntity
  8
0
100
AcDbCircle
 10
70.267595
 20
1358.284768
 30
0.0
 40
2.75
100
AcDbArc
 50
261.7792
 51
87.22580999999998
  0
ARC
  5
4110
330
18
100
AcDbEntity
  8
0
100
AcDbCircle
 10
67.00839499999999
 20
1336.933568
 30
0.0
 40
2.75
100
AcDbArc
 50
260.6048
 51
86.05141999999998
  0
LINE
  5
4111
330
18
100
AcDbEntity
  8
0
100
AcDbLine
 10
75.18899499999998
 20
1398.429468
 30
0.0
 11
-32.795505
 21
1399.231068
 31
0.0
  0
LINE
  5
4112
330
18
100
AcDbEntity
  8
0
100
AcDbLine
 10
72.751395
 20
1376.968868
 30
0.0
 11
-35.19400499999999
 21
1379.983668
 31
0.0
  0
LINE
  5
4113
330
18
100
AcDbEntity
  8
0
100
AcDbLine
 10
72.904595
 20
1382.454368
 30
0.0
 11
-35.040805
 21
1385.469168
 31
0.0
  0
LINE
  5
4114
330
18
100
AcDbEntity
  8
0
100
AcDbLine
 10
69.87459499999999
 20
1355.562868
 30
0.0
 11
-37.986505
 21
1360.789468
 31
0.0
  0
LINE
  5
4115
330
18
100
AcDbEntity
  8
0
100
AcDbLine
 10
70.14019499999999
 20
1361.044168
 30
0.0
 11
-37.720905
 21
1366.270767999999
 31
0.0
  0
LINE
  5
4116
330
18
100
AcDbEntity
  8
0
100
AcDbLine
 10
59.22249499999999
 20
1297.215868
 30
0.0
 11
-48.11350499999999
 21
1309.060968
 31
0.0
  0
LINE
  5
4117
330
18
100
AcDbEntity
  8
0
100
AcDbLine
 10
66.55939499999999
 20
1334.220368
 30
0.0
 11
-41.17180499999999
 21
1341.656468
 31
0.0
  0
LINE
  5
4118
330
18
100
AcDbEntity
  8
0
100
AcDbLine
 10
66.93719499999999
 20
1339.695068
 30
0.0
 11
-40.793905
 21
1347.131167999999
 31
0.0
  0
LINE
  5
4119
330
18
100
AcDbEntity
  8
0
100
AcDbLine
 10
62.80769499999999
 20
1312.950068
 30
0.0
 11
-44.748605
 21
1322.592768
 31
0.0
  0
LINE
  5
411A
330
18
100
AcDbEntity
  8
0
100
AcDbLine
 10
63.297695
 20
1318.415868
 30
0.0
 11
-44.25860499999998
 21
1328.058468
 31
0.0
  0
ARC
  5
411B
330
18
100
AcDbEntity
  8
0
100
AcDbCircle
 10
-972.9922949999997
 20
1506.620668
 30
0.0
 40
949.0
100
AcDbArc
 50
350.311126
 51
351.152435
  0
ARC
  5
411C
330
18
100
AcDbEntity
  8
0
100
AcDbCircle
 10
-48.155805
 20
1306.298867999998
 30
0.0
 40
2.75
100
AcDbArc
 50
83.70262999999999
 51
269.1492399999999
  0
ARC
  5
411D
330
18
100
AcDbEntity
  8
0
100
AcDbCircle
 10
-972.9922949999997
 20
1506.620668
 30
0.0
 40
949.0
100
AcDbArc
 50
349.136723
 51
349.978039
  0
ARC
  5
411E
330
18
100
AcDbEntity
  8
0
100
AcDbCircle
 10
-40.72310499999999
 20
1344.369568
 30
0.0
 40
2.75
100
AcDbArc
 50
86.05141999999998
 51
271.4980619999999
  0
ARC
  5
411F
330
18
100
AcDbEntity
  8
0
100
AcDbCircle
 10
-972.9922949999997
 20
1506.620668
 30
0.0
 40
949.0
100
AcDbArc
 50
347.962327
 51
348.8036349999998
  0
ARC
  5
4120
330
18
100
AcDbEntity
  8
0
100
AcDbCircle
 10
-44.244205
 20
1325.296168
 30
0.0
 40
2.75
100
AcDbArc
 50
84.87702
 51
270.3236519999999
  0
ARC
  5
4121
330
18
100
AcDbEntity
  8
0
100
AcDbCircle
 10
-972.9922949999997
 20
1506.620668
 30
0.0
 40
949.0
100
AcDbArc
 50
352.6599259999998
 51
353.501235
  0
ARC
  5
4122
330
18
100
AcDbEntity
  8
0
100
AcDbCircle
 10
-972.9922949999997
 20
1506.620668
 30
0.0
 40
949.0
100
AcDbArc
 50
351.485523
 51
352.326838
  0
ARC
  5
4123
330
18
100
AcDbEntity
  8
0
100
AcDbCircle
 10
-34.856805
 20
1382.712868
 30
0.0
 40
2.75
100
AcDbArc
 50
88.40021999999997
 51
273.8468549999999
  0
ARC
  5
4124
330
18
100
AcDbEntity
  8
0
100
AcDbCircle
 10
-37.59340499999999
 20
1363.511268
 30
0.0
 40
2.75
100
AcDbArc
 50
87.22580999999998
 51
272.6724439999999
  0
ARC
  5
4125
330
18
100
AcDbEntity
  8
0
100
AcDbCircle
 10
-972.9922949999997
 20
1506.620668
 30
0.0
 40
1051.0
100
AcDbArc
 50
350.8698289999998
 51
351.743765
  0
ARC
  5
4126
330
18
100
AcDbEntity
  8
0
100
AcDbCircle
 10
-972.9922949999997
 20
1506.620668
 30
0.0
 40
1051.0
100
AcDbArc
 50
348.5210289999998
 51
349.394966
  0
ARC
  5
4127
330
18
100
AcDbEntity
  8
0
100
AcDbCircle
 10
-972.9922949999997
 20
1506.620668
 30
0.0
 40
1051.0
100
AcDbArc
 50
349.6954259999998
 51
350.569362
  0
ARC
  5
4128
330
18
100
AcDbEntity
  8
0
100
AcDbCircle
 10
63.31189499999999
 20
1315.653668
 30
0.0
 40
2.75
100
AcDbArc
 50
259.4304
 51
84.87702
  0
ARC
  5
4129
330
18
100
AcDbEntity
  8
0
100
AcDbCircle
 10
-972.9922949999997
 20
1506.620668
 30
0.0
 40
1051.0
100
AcDbArc
 50
353.218629
 51
354.0925649999998
  0
ARC
  5
412A
330
18
100
AcDbEntity
  8
0
100
AcDbCircle
 10
73.08879499999997
 20
1379.698368
 30
0.0
 40
2.75
100
AcDbArc
 50
262.9535999999999
 51
88.40021
  0
LINE
  5
412B
330
18
100
AcDbEntity
  8
0
100
AcDbLine
 10
80.75789499999997
 20
1506.232968
 30
0.0
 11
-26.742305
 21
1495.982968
 31
0.0
  0
LINE
  5
412C
330
18
100
AcDbEntity
  8
0
100
AcDbLine
 10
80.23699499999997
 20
1511.695768
 30
0.0
 11
-27.263105
 21
1501.445768
 31
0.0
  0
LINE
  5
4132
330
18
100
AcDbEntity
  8
0
100
AcDbLine
 10
79.56009499999997
 20
1468.527068
 30
0.0
 11
-28.269605
 21
1462.691268
 31
0.0
  0
LINE
  5
4133
330
18
100
AcDbEntity
  8
0
100
AcDbLine
 10
80.52849499999998
 20
1484.635468
 30
0.0
 11
-27.159005
 21
1476.590968
 31
0.0
  0
LINE
  5
4134
330
18
100
AcDbEntity
  8
0
100
AcDbLine
 10
80.11969499999997
 20
1490.107968
 30
0.0
 11
-27.567805
 21
1482.063368
 31
0.0
  0
LINE
  5
4135
330
18
100
AcDbEntity
  8
0
100
AcDbLine
 10
79.856695
 20
1463.047367999999
 30
0.0
 11
-27.973005
 21
1457.211668
 31
0.0
  0
LINE
  5
4136
330
18
100
AcDbEntity
  8
0
100
AcDbLine
 10
78.742395
 20
1441.477668
 30
0.0
 11
-29.18430499999999
 21
1437.853268
 31
0.0
  0
LINE
  5
4137
330
18
100
AcDbEntity
  8
0
100
AcDbLine
 10
78.55819499999999
 20
1446.962268
 30
0.0
 11
-29.368505
 21
1443.337768
 31
0.0
  0
LINE
  5
4138
330
18
100
AcDbEntity
  8
0
100
AcDbLine
 10
77.186295
 20
1419.935168
 30
0.0
 11
-30.792105
 21
1418.523568
 31
0.0
  0
LINE
  5
4139
330
18
100
AcDbEntity
  8
0
100
AcDbLine
 10
77.114595
 20
1425.422368
 30
0.0
 11
-30.863705
 21
1424.010768
 31
0.0
  0
LINE
  5
413A
330
18
100
AcDbEntity
  8
0
100
AcDbLine
 10
75.22979499999998
 20
1403.916868
 30
0.0
 11
-32.754705
 21
1404.718668
 31
0.0
  0
ARC
  5
413D
330
18
100
AcDbEntity
  8
0
100
AcDbCircle
 10
-26.742305
 20
1498.732968
 30
0.0
 40
2.75
100
AcDbArc
 50
95.44662
 51
280.8932509999999
  0
ARC
  5
413E
330
18
100
AcDbEntity
  8
0
100
AcDbCircle
 10
-27.102705
 20
1479.340367999999
 30
0.0
 40
2.75
100
AcDbArc
 50
94.27221999999998
 51
279.7188509999999
  0
ARC
  5
413F
330
18
100
AcDbEntity
  8
0
100
AcDbCircle
 10
-972.9922949999997
 20
1506.620668
 30
0.0
 40
949.0
100
AcDbArc
 50
356.183122
 51
357.024437
  0
ARC
  5
4140
330
18
100
AcDbEntity
  8
0
100
AcDbCircle
 10
-30.566805
 20
1421.264568
 30
0.0
 40
2.75
100
AcDbArc
 50
90.74902000000001
 51
276.195651
  0
ARC
  5
4141
330
18
100
AcDbEntity
  8
0
100
AcDbCircle
 10
-29.01530499999999
 20
1440.598068
 30
0.0
 40
2.75
100
AcDbArc
 50
91.92342
 51
277.3700509999999
  0
ARC
  5
4142
330
18
100
AcDbEntity
  8
0
100
AcDbCircle
 10
-972.9922949999997
 20
1506.620668
 30
0.0
 40
949.0
100
AcDbArc
 50
355.0087259999998
 51
355.850034
  0
ARC
  5
4143
330
18
100
AcDbEntity
  8
0
100
AcDbCircle
 10
-972.9922949999997
 20
1506.620668
 30
0.0
 40
949.0
100
AcDbArc
 50
353.834322
 51
354.675638
  0
ARC
  5
4144
330
18
100
AcDbEntity
  8
0
100
AcDbCircle
 10
-27.86050499999999
 20
1459.959367999999
 30
0.0
 40
2.75
100
AcDbArc
 50
93.09780999999999
 51
278.544451
  0
ARC
  5
4145
330
18
100
AcDbEntity
  8
0
100
AcDbCircle
 10
-972.9922949999997
 20
1506.620668
 30
0.0
 40
949.0
100
AcDbArc
 50
357.357525
 51
358.198841
  0
ARC
  5
414A
330
18
100
AcDbEntity
  8
0
100
AcDbCircle
 10
-972.9922949999997
 20
1506.620668
 30
0.0
 40
949.0
100
AcDbArc
 50
358.531928
 51
359.373244
  0
ARC
  5
414B
330
18
100
AcDbEntity
  8
0
100
AcDbCircle
 10
80.75769499999998
 20
1508.983068
 30
0.0
 40
2.75
100
AcDbArc
 50
270.0
 51
95.44662
  0
ARC
  5
414C
330
18
100
AcDbEntity
  8
0
100
AcDbCircle
 10
-972.9922949999997
 20
1506.620668
 30
0.0
 40
1051.0
100
AcDbArc
 50
356.7418319999998
 51
357.615768
  0
ARC
  5
414D
330
18
100
AcDbEntity
  8
0
100
AcDbCircle
 10
78.91129499999998
 20
1444.222868
 30
0.0
 40
2.75
100
AcDbArc
 50
266.4768
 51
91.92341
  0
ARC
  5
414E
330
18
100
AcDbEntity
  8
0
100
AcDbCircle
 10
77.41159499999998
 20
1422.676368
 30
0.0
 40
2.75
100
AcDbArc
 50
265.3023999999999
 51
90.74902000000001
  0
ARC
  5
414F
330
18
100
AcDbEntity
  8
0
100
AcDbCircle
 10
-972.9922949999997
 20
1506.620668
 30
0.0
 40
1051.0
100
AcDbArc
 50
355.567428
 51
356.441365
  0
ARC
  5
4150
330
18
100
AcDbEntity
  8
0
100
AcDbCircle
 10
-972.9922949999997
 20
1506.620668
 30
0.0
 40
1051.0
100
AcDbArc
 50
354.393032
 51
355.266968
  0
ARC
  5
4151
330
18
100
AcDbEntity
  8
0
100
AcDbCircle
 10
-972.9922949999997
 20
1506.620668
 30
0.0
 40
1051.0
100
AcDbArc
 50
359.090631
 51
359.964567
  0
ARC
  5
4152
330
18
100
AcDbEntity
  8
0
100
AcDbCircle
 10
79.96929499999997
 20
1465.795468
 30
0.0
 40
2.75
100
AcDbArc
 50
267.6512
 51
93.09780999999999
  0
ARC
  5
4153
330
18
100
AcDbEntity
  8
0
100
AcDbCircle
 10
80.58489499999998
 20
1487.385168
 30
0.0
 40
2.75
100
AcDbArc
 50
268.8255999999999
 51
94.27221999999998
  0
ARC
  5
4154
330
18
100
AcDbEntity
  8
0
100
AcDbCircle
 10
-972.9922949999997
 20
1506.620668
 30
0.0
 40
1051.0
100
AcDbArc
 50
357.9162279999998
 51
358.790164
  0
LINE
  5
4161
330
18
100
AcDbEntity
  8
0
100
AcDbLine
 10
80.760287
 20
1526.73334
 30
0.0
 11
-26.739713
 21
1516.48334
 31
0.0
  0
LINE
  5
4162
330
18
100
AcDbEntity
  8
0
100
AcDbLine
 10
80.239387
 20
1532.19605
 30
0.0
 11
-27.260613
 21
1521.94605
 31
0.0
  0
LINE
  5
4164
330
18
100
AcDbEntity
  8
0
100
AcDbLine
 10
80.76038699999998
 20
1567.73322
 30
0.0
 11
-26.739713
 21
1557.48319
 31
0.0
  0
LINE
  5
4165
330
18
100
AcDbEntity
  8
0
100
AcDbLine
 10
80.23958699999999
 20
1573.19611
 30
0.0
 11
-27.260613
 21
1562.94608
 31
0.0
  0
LINE
  5
4166
330
18
100
AcDbEntity
  8
0
100
AcDbLine
 10
80.23958699999999
 20
1552.69608
 30
0.0
 11
-27.260613
 21
1542.44608
 31
0.0
  0
LINE
  5
4167
330
18
100
AcDbEntity
  8
0
100
AcDbLine
 10
80.76038699999998
 20
1547.23337
 30
0.0
 11
-26.739713
 21
1536.98334
 31
0.0
  0
LINE
  5
4169
330
18
100
AcDbEntity
  8
0
100
AcDbLine
 10
80.76038699999998
 20
1588.23322
 30
0.0
 11
-26.739613
 21
1577.98322
 31
0.0
  0
LINE
  5
416A
330
18
100
AcDbEntity
  8
0
100
AcDbLine
 10
80.23958699999999
 20
1593.696109999999
 30
0.0
 11
-27.260413
 21
1583.44614
 31
0.0
  0
ARC
  5
4173
330
18
100
AcDbEntity
  8
0
100
AcDbCircle
 10
-26.739713
 20
1519.23343
 30
0.0
 40
2.75
100
AcDbArc
 50
95.44662
 51
280.89325
  0
ARC
  5
4174
330
18
100
AcDbEntity
  8
0
100
AcDbCircle
 10
-26.739713
 20
1539.73334
 30
0.0
 40
2.75
100
AcDbArc
 50
95.44662
 51
280.89325
  0
ARC
  5
4175
330
18
100
AcDbEntity
  8
0
100
AcDbCircle
 10
-26.739713
 20
1560.23349
 30
0.0
 40
2.75
100
AcDbArc
 50
95.44662
 51
280.89325
  0
ARC
  5
4177
330
18
100
AcDbEntity
  8
0
100
AcDbCircle
 10
-26.739713
 20
1580.7334
 30
0.0
 40
2.75
100
AcDbArc
 50
95.44662
 51
280.89325
  0
LINE
  5
4178
330
18
100
AcDbEntity
  8
0
100
AcDbLine
 10
-23.989813
 20
1557.74561
 30
0.0
 11
-23.989813
 21
1542.758059999998
 31
0.0
  0
LINE
  5
4179
330
18
100
AcDbEntity
  8
0
100
AcDbLine
 10
-23.989813
 20
1516.74555
 30
0.0
 11
-23.989813
 21
1501.75818
 31
0.0
  0
LINE
  5
417A
330
18
100
AcDbEntity
  8
0
100
AcDbLine
 10
-23.989813
 20
1537.245699999999
 30
0.0
 11
-23.989813
 21
1522.25812
 31
0.0
  0
LINE
  5
417B
330
18
100
AcDbEntity
  8
0
100
AcDbLine
 10
-23.989813
 20
1578.24558
 30
0.0
 11
-23.989813
 21
1563.25818
 31
0.0
  0
LINE
  5
417C
330
18
100
AcDbEntity
  8
0
100
AcDbLine
 10
-23.989813
 20
1598.74567
 30
0.0
 11
-23.989813
 21
1583.75812
 31
0.0
  0
LINE
  5
4184
330
18
100
AcDbEntity
  8
0
100
AcDbLine
 10
78.010187
 20
1602.053653999999
 30
0.0
 11
78.010187
 21
1593.483769999999
 31
0.0
  0
LINE
  5
4185
330
18
100
AcDbEntity
  8
0
100
AcDbLine
 10
78.010187
 20
1567.47125
 30
0.0
 11
78.010187
 21
1552.48371
 31
0.0
  0
LINE
  5
4186
330
18
100
AcDbEntity
  8
0
100
AcDbLine
 10
78.010187
 20
1526.47119
 30
0.0
 11
78.010187
 21
1511.48368
 31
0.0
  0
LINE
  5
4187
330
18
100
AcDbEntity
  8
0
100
AcDbLine
 10
78.010187
 20
1546.97116
 30
0.0
 11
78.010187
 21
1531.98358
 31
0.0
  0
ARC
  5
4188
330
18
100
AcDbEntity
  8
0
100
AcDbCircle
 10
80.760287
 20
1529.483459999999
 30
0.0
 40
2.75
100
AcDbArc
 50
269.9999899999999
 51
95.44662
  0
ARC
  5
418A
330
18
100
AcDbEntity
  8
0
100
AcDbCircle
 10
80.760287
 20
1549.9834
 30
0.0
 40
2.75
100
AcDbArc
 50
269.9999899999999
 51
95.44662
  0
LINE
  5
418B
330
18
100
AcDbEntity
  8
0
100
AcDbLine
 10
78.010187
 20
1587.97122
 30
0.0
 11
78.010187
 21
1572.98365
 31
0.0
  0
ARC
  5
418C
330
18
100
AcDbEntity
  8
0
100
AcDbCircle
 10
80.760287
 20
1570.48334
 30
0.0
 40
2.75
100
AcDbArc
 50
269.9999899999999
 51
95.44662
  0
ARC
  5
418D
330
18
100
AcDbEntity
  8
0
100
AcDbCircle
 10
80.760287
 20
1590.98346
 30
0.0
 40
2.75
100
AcDbArc
 50
269.9999899999999
 51
95.44662
  0
SPLINE
  5
42A3
330
18
100
AcDbEntity
  8
0
100
AcDbSpline
210
0.0
220
0.0
230
1.0
 70
     8
 71
     3
 72
    10
 73
     6
 74
     0
 42
0.0000000001
 43
0.0000000001
 40
0.0
 40
0.0
 40
0.0
 40
0.0
 40
26.30854697338414
 40
79.39581206942576
 40
103.8487628464022
 40
103.8487628464022
 40
103.8487628464022
 40
103.8487628464022
 10
-23.98981289770927
 20
1598.74566971318
 30
0.0
 10
-15.32091112431271
 20
1596.566272541625
 30
0.0
 10
10.84071979909854
 20
1589.989132100059
 30
0.0
 10
44.55968927864763
 20
1608.770335737647
 30
0.0
 10
69.9841198678499
 20
1604.137144683782
 30
0.0
 10
78.0101871022907
 20
1602.053653784204
 30
0.0
  0
LWPOLYLINE
  5
4358
330
18
100
AcDbEntity
  8
0
100
AcDbPolyline
 90
        6
 70
     0
 43
0.0
 10
-609.909044
 20
881.8415509999999
 42
0.049176
 10
-630.3675139999998
 20
884.8739509999997
 42
0.060713
 10
-650.948434
 20
883.014451
 42
0.004857
 10
-671.157204
 20
878.465751
 42
-0.052697
 10
-691.665404
 20
875.833551
 42
-0.067138
 10
-712.096804
 20
878.8444509999997
  0
VIEWPORT
  5
37
330
15
100
AcDbEntity
 67
     1
  8
0
100
AcDbViewport
 10
296.9951739413171
 20
209.9960076931156
 30
0.0
 40
655.2064690881908
 41
422.6994827768137
 68
     1
 69
     1
 12
296.9951739413171
 22
209.9960076931156
 13
0.0
 23
0.0
 14
10.0
 24
10.0
 15
10.0
 25
10.0
 16
0.0
 26
0.0
 36
1.0
 17
0.0
 27
0.0
 37
0.0
 42
50.0
 43
0.0
 44
0.0
 45
422.6994827768137
 50
0.0
 51
0.0
 72
   100
 90
    32768
  1

281
     0
 71
     1
 74
     0
110
0.0
120
0.0
130
0.0
111
1.0
121
0.0
131
0.0
112
0.0
122
1.0
132
0.0
 79
     0
146
0.0
  0
ENDSEC
  0
SECTION
  2
OBJECTS
  0
DICTIONARY
  5
C
330
0
100
AcDbDictionary
281
     1
  3
ACAD_GROUP
350
D
  3
ACAD_IMAGE_VARS
350
7A9
  3
ACAD_LAYOUT
350
1AD
  3
ACAD_MLINESTYLE
350
1B
  3
ACAD_PLOTSETTINGS
350
1AE
  3
ACAD_PLOTSTYLENAME
350
1AB
  3
DWGPROPS
350
43E3
  0
DICTIONARY
  5
D
102
{ACAD_REACTORS
330
C
102
}
330
C
100
AcDbDictionary
281
     1
  0
RASTERVARIABLES
  5
7A9
102
{ACAD_REACTORS
330
C
102
}
330
C
100
AcDbRasterVariables
 90
        0
 70
     1
 71
     1
 72
     0
  0
DICTIONARY
  5
1AD
102
{ACAD_REACTORS
330
C
102
}
330
C
100
AcDbDictionary
281
     1
  3
Model
350
1AF
  3
ﾚｲｱｳﾄ1
350
1B0
  0
DICTIONARY
  5
1B
102
{ACAD_REACTORS
330
C
102
}
330
C
100
AcDbDictionary
281
     1
  3
STANDARD
350
1C
  0
DICTIONARY
  5
1AE
102
{ACAD_REACTORS
330
C
102
}
330
C
100
AcDbDictionary
281
     1
  3
トレース紙Ａ１
350
7A0
  3
トレース紙Ａ２
350
79E
  3
トレース紙Ａ３
350
79C
  3
トレース紙Ａ４
350
794
  3
モデル
350
91D
  3
モデル XL-5810
350
92C
  3
普通紙Ａ１からＡ３
350
705
  3
普通紙Ａ１からＡ３ XL-5810
350
A53
  3
普通紙Ａ２からＡ３
350
7A2
  3
普通紙Ａ２からＡ３ XL-5810
350
A52
  3
普通紙Ａ３
350
66A
  3
普通紙Ａ３ XL-5810
350
A51
  3
普通紙Ａ４
350
66B
  3
普通紙Ａ４ XL-5810
350
A50
  0
ACDBDICTIONARYWDFLT
  5
1AB
102
{ACAD_REACTORS
330
C
102
}
330
C
100
AcDbDictionary
281
     1
  3
Normal
350
1AC
100
AcDbDictionaryWithDefault
340
1AC
  0
XRECORD
  5
43E3
102
{ACAD_REACTORS
330
C
102
}
330
C
100
AcDbXrecord
280
     1
  1
DWGPROPS COOKIE
  2

  3

  4

  6

  7

  8

  9

300
=
301
=
302
=
303
=
304
=
305
=
306
=
307
=
308
=
309
=
 40
1.012751898148148
 41
2453365.412170671
 42
2453634.451639537
  1

 90
        0
  0
LAYOUT
  5
1AF
102
{ACAD_REACTORS
330
1AD
102
}
330
1AD
100
AcDbPlotSettings
  1
モデル
  2
FUJITSU XL-5800
  4
モデル
  6

 40
5.87375
 41
5.704405999999998
 42
5.873749
 43
5.873749
 44
210.057999
 45
296.925995
 46
-934.06
 47
-482.3299999999998
 48
0.0
 49
0.0
140
0.0
141
0.0
142
1.0
143
1.0
 70
 11956
 72
     1
 73
     0
 74
     0
  7
LineScale_10.ctb
 75
    16
147
1.0
148
1033.210332
149
625.0
100
AcDbLayout
  1
Model
 70
     0
 71
     0
 10
0.0
 20
0.0
 11
12.0
 21
9.0
 12
0.0
 22
0.0
 32
0.0
 14
0.0
 24
0.0
 34
0.0
 15
0.0
 25
0.0
 35
0.0
146
0.0
 13
0.0
 23
0.0
 33
0.0
 16
1.0
 26
0.0
 36
0.0
 17
0.0
 27
1.0
 37
0.0
 76
     0
330
18
  0
LAYOUT
  5
1B0
102
{ACAD_REACTORS
330
1AD
102
}
330
1AD
100
AcDbPlotSettings
  1
普通紙Ａ２からＡ３ XL-5810
  2
\\PROLIANT1500\FUJITSU XL-5810
  4
普通紙Ａ２からＡ３ XL-5810
  6
A1
 40
5.87375
 41
5.873747999999999
 42
5.704406999999998
 43
5.873749
 44
296.925995
 45
420.1159969999998
 46
-5.0
 47
-7.0
 48
0.0
 49
0.0
140
594.0
141
420.0
142
0.7071069999999999
143
1.0
 70
   672
 72
     1
 73
     1
 74
     4
  7
LineScale_07.ctb
 75
     0
147
0.7071069999999999
148
0.0
149
0.0
100
AcDbLayout
  1
ﾚｲｱｳﾄ1
 70
     1
 71
     1
 10
1.592759999999999
 20
-1.235669
 11
595.726569
 21
418.681148
 12
0.0
 22
0.0
 32
0.0
 14
-0.0272640223288363
 24
-0.0272708832300168
 34
-0.0015258207003583
 15
594.0176119049631
 25
420.0192862694615
 35
0.0000000349246037
146
0.0
 13
0.0
 23
0.0
 33
0.0
 16
1.0
 26
0.0
 36
0.0
 17
0.0
 27
1.0
 37
0.0
 76
     0
330
15
331
37
  0
MLINESTYLE
  5
1C
102
{ACAD_REACTORS
330
1B
102
}
330
1B
100
AcDbMlineStyle
  2
STANDARD
 70
     0
  3

 62
   256
 51
90.0
 52
90.0
 71
     2
 49
0.5
 62
   256
  6
BYLAYER
 49
-0.5
 62
   256
  6
BYLAYER
  0
PLOTSETTINGS
  5
7A0
102
{ACAD_REACTORS
330
1AE
102
}
330
1AE
100
AcDbPlotSettings
  1
トレース紙Ａ１
  2
SII LP-2150 (D-SCAN)
  4
User117
  6
A1
 40
3.174999952316283
 41
3.174999952316283
 42
3.17498779296875
 43
3.17498779296875
 44
840.9939575195313
 45
593.97900390625
 46
1.0
 47
-7.0
 48
0.0
 49
0.0
140
841.0
141
594.0
142
1.0
143
1.0
 70
   688
 72
     1
 73
     0
 74
     4
  7
LineScale_10.ctb
 75
    16
147
1.0
148
0.0
149
0.0
  0
PLOTSETTINGS
  5
79E
102
{ACAD_REACTORS
330
1AE
102
}
330
1AE
100
AcDbPlotSettings
  1
トレース紙Ａ２
  2
SII LP-2150 (D-SCAN)
  4
User118
  6
A1
 40
3.174999952316283
 41
3.174999952316283
 42
3.17498779296875
 43
3.17498779296875
 44
593.97900390625
 45
419.9889831542968
 46
0.5
 47
-6.5
 48
0.0
 49
0.0
140
594.0
141
420.0
142
1.0
143
1.0
 70
   688
 72
     1
 73
     0
 74
     4
  7
LineScale_10.ctb
 75
    16
147
1.0
148
0.0
149
0.0
  0
PLOTSETTINGS
  5
79C
102
{ACAD_REACTORS
330
1AE
102
}
330
1AE
100
AcDbPlotSettings
  1
トレース紙Ａ３
  2
SII LP-2150 (D-SCAN)
  4
User257
  6
A1
 40
3.174999952316283
 41
3.174999952316283
 42
3.17498779296875
 43
3.17498779296875
 44
419.9889831542968
 45
296.989501953125
 46
1.0
 47
-6.0
 48
0.0
 49
0.0
140
420.0
141
297.0
142
1.0
143
1.0
 70
   688
 72
     1
 73
     0
 74
     4
  7
LineScale_10.ctb
 75
    16
147
1.0
148
0.0
149
0.0
  0
PLOTSETTINGS
  5
794
102
{ACAD_REACTORS
330
1AE
102
}
330
1AE
100
AcDbPlotSettings
  1
トレース紙Ａ４
  2
SII LP-2150 (D-SCAN)
  4
User258
  6
A1
 40
3.174999952316283
 41
3.174999952316283
 42
3.17498779296875
 43
3.175003051757812
 44
296.989501953125
 45
209.9944915771484
 46
0.8
 47
-2.0
 48
0.0
 49
0.0
140
210.0
141
297.0
142
1.0
143
1.0
 70
   688
 72
     1
 73
     1
 74
     4
  7
LineScale_10.ctb
 75
    16
147
1.0
148
0.0
149
0.0
  0
PLOTSETTINGS
  5
91D
102
{ACAD_REACTORS
330
1AE
102
}
330
1AE
100
AcDbPlotSettings
  1
モデル
  2
FUJITSU XL-5800
  4
A4
  6

 40
5.873749732971191
 41
5.704405784606932
 42
5.873748779296875
 43
5.873748779296875
 44
210.0579986572264
 45
296.9259948730469
 46
-934.06
 47
-482.3299999999998
 48
0.0
 49
0.0
140
0.0
141
0.0
142
1.0
143
1.0
 70
  1716
 72
     1
 73
     0
 74
     0
  7
LineScale_10.ctb
 75
    16
147
1.0
148
1033.210332103321
149
625.0
  0
PLOTSETTINGS
  5
92C
102
{ACAD_REACTORS
330
1AE
102
}
330
1AE
100
AcDbPlotSettings
  1
モデル XL-5810
  2
\\PROLIANT1500\FUJITSU XL-5810
  4
A4
  6

 40
5.873749732971191
 41
5.704405784606932
 42
5.873748779296875
 43
5.873748779296875
 44
210.0579986572264
 45
296.9259948730469
 46
-588.8099999999998
 47
-890.54
 48
0.0
 49
0.0
140
0.0
141
0.0
142
1.0
143
1.0
 70
  1716
 72
     1
 73
     1
 74
     0
  7
LineScale_10.ctb
 75
    16
147
1.0
148
1033.210332103321
149
625.0
  0
PLOTSETTINGS
  5
705
102
{ACAD_REACTORS
330
1AE
102
}
330
1AE
100
AcDbPlotSettings
  1
普通紙Ａ１からＡ３
  2
FUJITSU XL-5800
  4
A3
  6
A1
 40
5.873749732971191
 41
5.873747825622557
 42
5.70440673828125
 43
5.873748779296875
 44
296.9259948730469
 45
420.1159973144531
 46
-4.129999999999999
 47
-7.07
 48
0.0
 49
0.0
140
841.0
141
594.0
142
1.0
143
2.0
 70
   688
 72
     1
 73
     1
 74
     4
  7
LineScale_05.ctb
 75
    17
147
0.5
148
0.0
149
0.0
  0
PLOTSETTINGS
  5
A53
102
{ACAD_REACTORS
330
1AE
102
}
330
1AE
100
AcDbPlotSettings
  1
普通紙Ａ１からＡ３ XL-5810
  2
\\PROLIANT1500\FUJITSU XL-5810
  4
A3
  6
A1
 40
5.873749732971191
 41
5.873747825622557
 42
5.70440673828125
 43
5.873748779296875
 44
296.9259948730469
 45
420.1159973144531
 46
-4.129999999999999
 47
-7.07
 48
0.0
 49
0.0
140
841.0
141
594.0
142
1.0
143
2.0
 70
   688
 72
     1
 73
     1
 74
     4
  7
LineScale_05.ctb
 75
    17
147
0.5
148
0.0
149
0.0
  0
PLOTSETTINGS
  5
7A2
102
{ACAD_REACTORS
330
1AE
102
}
330
1AE
100
AcDbPlotSettings
  1
普通紙Ａ２からＡ３
  2
FUJITSU XL-5800
  4
A3
  6
A1
 40
5.873749732971191
 41
5.873747825622557
 42
5.70440673828125
 43
5.873748779296875
 44
296.9259948730469
 45
420.1159973144531
 46
-5.0
 47
-7.0
 48
0.0
 49
0.0
140
594.0
141
420.0
142
0.7071066999999999
143
1.0
 70
   672
 72
     1
 73
     1
 74
     4
  7
LineScale_07.ctb
 75
     0
147
0.7071066999999999
148
0.0
149
0.0
  0
PLOTSETTINGS
  5
A52
102
{ACAD_REACTORS
330
1AE
102
}
330
1AE
100
AcDbPlotSettings
  1
普通紙Ａ２からＡ３ XL-5810
  2
\\PROLIANT1500\FUJITSU XL-5810
  4
A3
  6
A1
 40
5.873749732971191
 41
5.873747825622557
 42
5.70440673828125
 43
5.873748779296875
 44
296.9259948730469
 45
420.1159973144531
 46
-5.0
 47
-7.0
 48
0.0
 49
0.0
140
594.0
141
420.0
142
0.7071066999999999
143
1.0
 70
   672
 72
     1
 73
     1
 74
     4
  7
LineScale_07.ctb
 75
     0
147
0.7071066999999999
148
0.0
149
0.0
  0
PLOTSETTINGS
  5
66A
102
{ACAD_REACTORS
330
1AE
102
}
330
1AE
100
AcDbPlotSettings
  1
普通紙Ａ３
  2
FUJITSU XL-5800
  4
A3
  6
A1
 40
5.873749732971191
 41
5.873747825622557
 42
5.70440673828125
 43
5.873748779296875
 44
296.9259948730469
 45
420.1159973144531
 46
-3.83
 47
-6.82
 48
0.0
 49
0.0
140
420.0
141
297.0
142
1.0
143
1.0
 70
   688
 72
     1
 73
     1
 74
     4
  7
LineScale_10.ctb
 75
    16
147
1.0
148
0.0
149
0.0
  0
PLOTSETTINGS
  5
A51
102
{ACAD_REACTORS
330
1AE
102
}
330
1AE
100
AcDbPlotSettings
  1
普通紙Ａ３ XL-5810
  2
\\PROLIANT1500\FUJITSU XL-5810
  4
A3
  6
A1
 40
5.873749732971191
 41
5.873747825622557
 42
5.70440673828125
 43
5.873748779296875
 44
296.9259948730469
 45
420.1159973144531
 46
-3.83
 47
-6.82
 48
0.0
 49
0.0
140
420.0
141
297.0
142
1.0
143
1.0
 70
   688
 72
     1
 73
     1
 74
     4
  7
LineScale_10.ctb
 75
    16
147
1.0
148
0.0
149
0.0
  0
PLOTSETTINGS
  5
66B
102
{ACAD_REACTORS
330
1AE
102
}
330
1AE
100
AcDbPlotSettings
  1
普通紙Ａ４
  2
FUJITSU XL-5800
  4
A4
  6
A1
 40
5.873749732971191
 41
5.704405784606932
 42
5.873748779296875
 43
5.873748779296875
 44
210.0579986572264
 45
296.9259948730469
 46
-6.82
 47
-3.83
 48
0.0
 49
0.0
140
420.0
141
297.0
142
1.0
143
1.0
 70
   688
 72
     1
 73
     0
 74
     4
  7
LineScale_10.ctb
 75
    16
147
1.0
148
0.0
149
0.0
  0
PLOTSETTINGS
  5
A50
102
{ACAD_REACTORS
330
1AE
102
}
330
1AE
100
AcDbPlotSettings
  1
普通紙Ａ４ XL-5810
  2
\\PROLIANT1500\FUJITSU XL-5810
  4
A4
  6
A1
 40
5.873749732971191
 41
5.704405784606932
 42
5.873748779296875
 43
5.873748779296875
 44
210.0579986572264
 45
296.9259948730469
 46
-6.82
 47
-3.83
 48
0.0
 49
0.0
140
420.0
141
297.0
142
1.0
143
1.0
 70
   688
 72
     1
 73
     0
 74
     4
  7
LineScale_10.ctb
 75
    16
147
1.0
148
0.0
149
0.0
  0
ACDBPLACEHOLDER
  5
1AC
102
{ACAD_REACTORS
330
1AB
102
}
330
1AB
  0
ENDSEC
  0
EOF
